  0
SECTION
  2
HEADER
  9
$ACADVER
  1
AC1018
  9
$ACADMAINTVER
 70
   104
  9
$DWGCODEPAGE
  3
ANSI_932
  9
$LASTSAVEDBY
  1
suzuki
  9
$INSBASE
 10
0.0
 20
0.0
 30
0.0
  9
$EXTMIN
 10
-0.1281640493871237
 20
-0.0906302920675444
 30
-0.0015258207003583
  9
$EXTMAX
 10
4200.448618177847
 20
2970.317237140049
 30
0.0000000349246037
  9
$LIMMIN
 10
0.0
 20
0.0
  9
$LIMMAX
 10
12.0
 20
9.0
  9
$ORTHOMODE
 70
     0
  9
$REGENMODE
 70
     1
  9
$FILLMODE
 70
     1
  9
$QTEXTMODE
 70
     0
  9
$MIRRTEXT
 70
     0
  9
$LTSCALE
 40
10.0
  9
$ATTMODE
 70
     1
  9
$TEXTSIZE
 40
0.0
  9
$TRACEWID
 40
0.05
  9
$TEXTSTYLE
  7
STANDARD
  9
$CLAYER
  8
0
  9
$CELTYPE
  6
CONTINUOUS
  9
$CECOLOR
 62
   256
  9
$CELTSCALE
 40
1.0
  9
$DISPSILH
 70
     0
  9
$DIMSCALE
 40
1.0
  9
$DIMASZ
 40
0.18
  9
$DIMEXO
 40
0.0625
  9
$DIMDLI
 40
0.38
  9
$DIMRND
 40
0.0
  9
$DIMDLE
 40
0.0
  9
$DIMEXE
 40
0.18
  9
$DIMTP
 40
0.0
  9
$DIMTM
 40
0.0
  9
$DIMTXT
 40
0.18
  9
$DIMCEN
 40
0.09
  9
$DIMTSZ
 40
0.0
  9
$DIMTOL
 70
     0
  9
$DIMLIM
 70
     0
  9
$DIMTIH
 70
     1
  9
$DIMTOH
 70
     1
  9
$DIMSE1
 70
     0
  9
$DIMSE2
 70
     0
  9
$DIMTAD
 70
     0
  9
$DIMZIN
 70
     0
  9
$DIMBLK
  1

  9
$DIMASO
 70
     1
  9
$DIMSHO
 70
     1
  9
$DIMPOST
  1

  9
$DIMAPOST
  1

  9
$DIMALT
 70
     0
  9
$DIMALTD
 70
     2
  9
$DIMALTF
 40
25.4
  9
$DIMLFAC
 40
1.0
  9
$DIMTOFL
 70
     0
  9
$DIMTVP
 40
0.0
  9
$DIMTIX
 70
     0
  9
$DIMSOXD
 70
     0
  9
$DIMSAH
 70
     0
  9
$DIMBLK1
  1

  9
$DIMBLK2
  1

  9
$DIMSTYLE
  2
Standard
  9
$DIMCLRD
 70
     0
  9
$DIMCLRE
 70
     0
  9
$DIMCLRT
 70
     0
  9
$DIMTFAC
 40
1.0
  9
$DIMGAP
 40
0.09
  9
$DIMJUST
 70
     0
  9
$DIMSD1
 70
     0
  9
$DIMSD2
 70
     0
  9
$DIMTOLJ
 70
     1
  9
$DIMTZIN
 70
     0
  9
$DIMALTZ
 70
     0
  9
$DIMALTTZ
 70
     0
  9
$DIMUPT
 70
     0
  9
$DIMDEC
 70
     4
  9
$DIMTDEC
 70
     4
  9
$DIMALTU
 70
     2
  9
$DIMALTTD
 70
     2
  9
$DIMTXSTY
  7
STANDARD
  9
$DIMAUNIT
 70
     0
  9
$DIMADEC
 70
     0
  9
$DIMALTRND
 40
0.0
  9
$DIMAZIN
 70
     0
  9
$DIMDSEP
 70
    46
  9
$DIMATFIT
 70
     3
  9
$DIMFRAC
 70
     0
  9
$DIMLDRBLK
  1

  9
$DIMLUNIT
 70
     2
  9
$DIMLWD
 70
    -2
  9
$DIMLWE
 70
    -2
  9
$DIMTMOVE
 70
     0
  9
$LUNITS
 70
     2
  9
$LUPREC
 70
     4
  9
$SKETCHINC
 40
0.1
  9
$FILLETRAD
 40
0.0
  9
$AUNITS
 70
     0
  9
$AUPREC
 70
     0
  9
$MENU
  1
.
  9
$ELEVATION
 40
0.0
  9
$PELEVATION
 40
0.0
  9
$THICKNESS
 40
0.0
  9
$LIMCHECK
 70
     0
  9
$CHAMFERA
 40
0.0
  9
$CHAMFERB
 40
0.0
  9
$CHAMFERC
 40
0.0
  9
$CHAMFERD
 40
0.0
  9
$SKPOLY
 70
     0
  9
$TDCREATE
 40
2459909.483506944
  9
$TDUCREATE
 40
2459909.108506945
  9
$TDUPDATE
 40
2459909.483935185
  9
$TDUUPDATE
 40
2459909.108935185
  9
$TDINDWG
 40
0.0004282407
  9
$TDUSRTIMER
 40
0.0004282407
  9
$USRTIMER
 70
     1
  9
$ANGBASE
 50
0.0
  9
$ANGDIR
 70
     0
  9
$PDMODE
 70
     0
  9
$PDSIZE
 40
5.0
  9
$PLINEWID
 40
0.0
  9
$SPLFRAME
 70
     0
  9
$SPLINETYPE
 70
     6
  9
$SPLINESEGS
 70
     8
  9
$HANDSEED
  5
3BC
  9
$SURFTAB1
 70
     6
  9
$SURFTAB2
 70
     6
  9
$SURFTYPE
 70
     6
  9
$SURFU
 70
     6
  9
$SURFV
 70
     6
  9
$UCSBASE
  2

  9
$UCSNAME
  2

  9
$UCSORG
 10
0.0
 20
0.0
 30
0.0
  9
$UCSXDIR
 10
1.0
 20
0.0
 30
0.0
  9
$UCSYDIR
 10
0.0
 20
1.0
 30
0.0
  9
$UCSORTHOREF
  2

  9
$UCSORTHOVIEW
 70
     0
  9
$UCSORGTOP
 10
0.0
 20
0.0
 30
0.0
  9
$UCSORGBOTTOM
 10
0.0
 20
0.0
 30
0.0
  9
$UCSORGLEFT
 10
0.0
 20
0.0
 30
0.0
  9
$UCSORGRIGHT
 10
0.0
 20
0.0
 30
0.0
  9
$UCSORGFRONT
 10
0.0
 20
0.0
 30
0.0
  9
$UCSORGBACK
 10
0.0
 20
0.0
 30
0.0
  9
$PUCSBASE
  2

  9
$PUCSNAME
  2

  9
$PUCSORG
 10
0.0
 20
0.0
 30
0.0
  9
$PUCSXDIR
 10
1.0
 20
0.0
 30
0.0
  9
$PUCSYDIR
 10
0.0
 20
1.0
 30
0.0
  9
$PUCSORTHOREF
  2

  9
$PUCSORTHOVIEW
 70
     0
  9
$PUCSORGTOP
 10
0.0
 20
0.0
 30
0.0
  9
$PUCSORGBOTTOM
 10
0.0
 20
0.0
 30
0.0
  9
$PUCSORGLEFT
 10
0.0
 20
0.0
 30
0.0
  9
$PUCSORGRIGHT
 10
0.0
 20
0.0
 30
0.0
  9
$PUCSORGFRONT
 10
0.0
 20
0.0
 30
0.0
  9
$PUCSORGBACK
 10
0.0
 20
0.0
 30
0.0
  9
$USERI1
 70
     0
  9
$USERI2
 70
     0
  9
$USERI3
 70
     0
  9
$USERI4
 70
     0
  9
$USERI5
 70
     0
  9
$USERR1
 40
0.0
  9
$USERR2
 40
0.0
  9
$USERR3
 40
0.0
  9
$USERR4
 40
0.0
  9
$USERR5
 40
0.0
  9
$WORLDVIEW
 70
     1
  9
$SHADEDGE
 70
     3
  9
$SHADEDIF
 70
    70
  9
$TILEMODE
 70
     1
  9
$MAXACTVP
 70
    64
  9
$PINSBASE
 10
0.0
 20
0.0
 30
0.0
  9
$PLIMCHECK
 70
     0
  9
$PEXTMIN
 10
1.000000000000000E+20
 20
1.000000000000000E+20
 30
1.000000000000000E+20
  9
$PEXTMAX
 10
-1.000000000000000E+20
 20
-1.000000000000000E+20
 30
-1.000000000000000E+20
  9
$PLIMMIN
 10
0.0
 20
0.0
  9
$PLIMMAX
 10
12.0
 20
9.0
  9
$UNITMODE
 70
     0
  9
$VISRETAIN
 70
     1
  9
$PLINEGEN
 70
     0
  9
$PSLTSCALE
 70
     1
  9
$TREEDEPTH
 70
  3020
  9
$CMLSTYLE
  2
Standard
  9
$CMLJUST
 70
     0
  9
$CMLSCALE
 40
1.0
  9
$PROXYGRAPHICS
 70
     1
  9
$MEASUREMENT
 70
     0
  9
$CELWEIGHT
370
    -1
  9
$ENDCAPS
280
     0
  9
$JOINSTYLE
280
     0
  9
$LWDISPLAY
290
     0
  9
$INSUNITS
 70
     0
  9
$HYPERLINKBASE
  1

  9
$STYLESHEET
  1

  9
$XEDIT
290
     1
  9
$CEPSNTYPE
380
     0
  9
$PSTYLEMODE
290
     1
  9
$FINGERPRINTGUID
  2
{DD1B15CD-6AEE-9D4F-822A-ABC7B5B0AA17}
  9
$VERSIONGUID
  2
{493A5CE0-4F8D-644F-BBB7-88C0184CE074}
  9
$EXTNAMES
290
     1
  9
$PSVPSCALE
 40
0.0
  9
$OLESTARTUP
290
     0
  9
$SORTENTS
280
   127
  9
$INDEXCTL
280
     0
  9
$HIDETEXT
280
     0
  9
$XCLIPFRAME
290
     0
  9
$HALOGAP
280
     0
  9
$OBSCOLOR
 70
   257
  9
$OBSLTYPE
280
     0
  9
$INTERSECTIONDISPLAY
280
     0
  9
$INTERSECTIONCOLOR
 70
   257
  9
$DIMASSOC
280
     1
  9
$PROJECTNAME
  1

  0
ENDSEC
  0
SECTION
  2
CLASSES
  0
CLASS
  1
ACDBDICTIONARYWDFLT
  2
AcDbDictionaryWithDefault
  3
ObjectDBX Classes
 90
        0
 91
        1
280
     0
281
     0
  0
CLASS
  1
MATERIAL
  2
AcDbMaterial
  3
ObjectDBX Classes
 90
     1153
 91
        3
280
     0
281
     0
  0
CLASS
  1
VISUALSTYLE
  2
AcDbVisualStyle
  3
ObjectDBX Classes
 90
     4095
 91
       24
280
     0
281
     0
  0
CLASS
  1
SCALE
  2
AcDbScale
  3
ObjectDBX Classes
 90
     1153
 91
       17
280
     0
281
     0
  0
CLASS
  1
TABLESTYLE
  2
AcDbTableStyle
  3
ObjectDBX Classes
 90
     4095
 91
        1
280
     0
281
     0
  0
CLASS
  1
MLEADERSTYLE
  2
AcDbMLeaderStyle
  3
ACDB_MLEADERSTYLE_CLASS
 90
     4095
 91
        1
280
     0
281
     0
  0
CLASS
  1
ACDBSECTIONVIEWSTYLE
  2
AcDbSectionViewStyle
  3
ObjectDBX Classes
 90
     1025
 91
        1
280
     0
281
     0
  0
CLASS
  1
ACDBDETAILVIEWSTYLE
  2
AcDbDetailViewStyle
  3
ObjectDBX Classes
 90
     1025
 91
        1
280
     0
281
     0
  0
CLASS
  1
DICTIONARYVAR
  2
AcDbDictionaryVar
  3
ObjectDBX Classes
 90
        0
 91
        6
280
     0
281
     0
  0
CLASS
  1
CELLSTYLEMAP
  2
AcDbCellStyleMap
  3
ObjectDBX Classes
 90
     1152
 91
        1
280
     0
281
     0
  0
ENDSEC
  0
SECTION
  2
TABLES
  0
TABLE
  2
VPORT
  5
8
330
0
100
AcDbSymbolTable
 70
     1
  0
VPORT
  5
8C
330
8
100
AcDbSymbolTableRecord
100
AcDbViewportTableRecord
  2
*Active
 70
     0
 10
0.0
 20
0.0
 11
1.0
 21
1.0
 12
2100.16022706423
 22
1485.113303423991
 13
0.0
 23
0.0
 14
1.0
 24
1.0
 15
0.0
 25
0.0
 16
0.0
 26
0.0
 36
1.0
 17
0.0
 27
0.0
 37
0.0
 40
2992.43808647364
 41
2.360148514851485
 42
50.0
 43
0.0
 44
0.0
 50
0.0
 51
0.0
 71
     0
 72
   100
 73
     1
 74
     0
 75
     1
 76
     0
 77
     0
 78
     0
281
     0
 65
     1
110
0.0
120
0.0
130
0.0
111
1.0
121
0.0
131
0.0
112
0.0
122
1.0
132
0.0
 79
     0
146
0.0
1001
ACAD_NAV_VCDISPLAY
1070
     3
  0
ENDTAB
  0
TABLE
  2
LTYPE
  5
5
330
0
100
AcDbSymbolTable
 70
     9
  0
LTYPE
  5
5A
330
5
100
AcDbSymbolTableRecord
100
AcDbLinetypeTableRecord
  2
ByBlock
 70
     0
  3

 72
    65
 73
     0
 40
0.0
  0
LTYPE
  5
5B
330
5
100
AcDbSymbolTableRecord
100
AcDbLinetypeTableRecord
  2
ByLayer
 70
     0
  3

 72
    65
 73
     0
 40
0.0
  0
LTYPE
  5
5C
330
5
100
AcDbSymbolTableRecord
100
AcDbLinetypeTableRecord
  2
CONTINUOUS
 70
     0
  3
SolidLine
 72
    65
 73
     0
 40
0.0
  0
LTYPE
  5
73
330
5
100
AcDbSymbolTableRecord
100
AcDbLinetypeTableRecord
  2
DOT
 70
     0
  3
--  --  --  --  --  --  --  --     
 72
    65
 73
     2
 40
3.0
 49
1.0
 74
     0
 49
-2.0
 74
     0
  0
LTYPE
  5
74
330
5
100
AcDbSymbolTableRecord
100
AcDbLinetypeTableRecord
  2
DASHED
 70
     0
  3
----    ----    ----    ----    
 72
    65
 73
     2
 40
5.0
 49
2.0
 74
     0
 49
-3.0
 74
     0
  0
LTYPE
  5
75
330
5
100
AcDbSymbolTableRecord
100
AcDbLinetypeTableRecord
  2
DASHED2
 70
     0
  3
------  ------  ------  ------ 
 72
    65
 73
     2
 40
10.0
 49
4.0
 74
     0
 49
-6.0
 74
     0
  0
LTYPE
  5
76
330
5
100
AcDbSymbolTableRecord
100
AcDbLinetypeTableRecord
  2
CENTER
 70
     0
  3
----- - ----- - ----- - ----- - 
 72
    65
 73
     4
 40
10.0
 49
6.0
 74
     0
 49
-3.0
 74
     0
 49
1.0
 74
     0
 49
-3.0
 74
     0
  0
LTYPE
  5
77
330
5
100
AcDbSymbolTableRecord
100
AcDbLinetypeTableRecord
  2
CENTER2
 70
     0
  3
----------  --  ----------  -- 
 72
    65
 73
     4
 40
17.0
 49
12.0
 74
     0
 49
-5.0
 74
     0
 49
2.0
 74
     0
 49
-5.0
 74
     0
  0
LTYPE
  5
78
330
5
100
AcDbSymbolTableRecord
100
AcDbLinetypeTableRecord
  2
PHANTOM
 70
     0
  3
--- - - --- - - --- - - --- - -
 72
    65
 73
     6
 40
13.0
 49
5.0
 74
     0
 49
-3.0
 74
     0
 49
1.0
 74
     0
 49
-3.0
 74
     0
 49
1.0
 74
     0
 49
-3.0
 74
     0
  0
LTYPE
  5
79
330
5
100
AcDbSymbolTableRecord
100
AcDbLinetypeTableRecord
  2
PHANTOM2
 70
     0
  3
--------  -  -  --------  -  -
 72
    65
 73
     6
 40
20.0
 49
6.0
 74
     0
 49
-5.0
 74
     0
 49
2.0
 74
     0
 49
-5.0
 74
     0
 49
2.0
 74
     0
 49
-5.0
 74
     0
  0
LTYPE
  5
7A
330
5
100
AcDbSymbolTableRecord
100
AcDbLinetypeTableRecord
  2
HIDDEN
 70
     0
  3
-   -   -   -   -   -   -   -   
 72
    65
 73
     2
 40
3.0
 49
0.5
 74
     0
 49
-2.5
 74
     0
  0
ENDTAB
  0
TABLE
  2
LAYER
  5
2
330
0
100
AcDbSymbolTable
 70
    11
  0
LAYER
  5
54
102
{ACAD_XDICTIONARY
360
362
102
}
330
2
100
AcDbSymbolTableRecord
100
AcDbLayerTableRecord
  2
0
 70
     0
 62
     7
  6
CONTINUOUS
370
    -3
390
F
  0
LAYER
  5
7F
102
{ACAD_XDICTIONARY
360
364
102
}
330
2
100
AcDbSymbolTableRecord
100
AcDbLayerTableRecord
  2
2-0
 70
     0
 62
     7
  6
CONTINUOUS
370
    -3
390
F
  0
LAYER
  5
80
102
{ACAD_XDICTIONARY
360
366
102
}
330
2
100
AcDbSymbolTableRecord
100
AcDbLayerTableRecord
  2
3-0
 70
     0
 62
     7
  6
CONTINUOUS
370
    -3
390
F
  0
LAYER
  5
81
102
{ACAD_XDICTIONARY
360
368
102
}
330
2
100
AcDbSymbolTableRecord
100
AcDbLayerTableRecord
  2
4-0
 70
     0
 62
     7
  6
CONTINUOUS
370
    -3
390
F
  0
LAYER
  5
82
102
{ACAD_XDICTIONARY
360
36A
102
}
330
2
100
AcDbSymbolTableRecord
100
AcDbLayerTableRecord
  2
6-0
 70
     0
 62
    -7
  6
CONTINUOUS
370
    -3
390
F
  0
LAYER
  5
83
102
{ACAD_XDICTIONARY
360
36C
102
}
330
2
100
AcDbSymbolTableRecord
100
AcDbLayerTableRecord
  2
7-0
 70
     0
 62
    -7
  6
CONTINUOUS
370
    -3
390
F
  0
LAYER
  5
84
102
{ACAD_XDICTIONARY
360
36E
102
}
330
2
100
AcDbSymbolTableRecord
100
AcDbLayerTableRecord
  2
8-0
 70
     0
 62
     7
  6
CONTINUOUS
370
    -3
390
F
  0
LAYER
  5
85
102
{ACAD_XDICTIONARY
360
370
102
}
330
2
100
AcDbSymbolTableRecord
100
AcDbLayerTableRecord
  2
A-0
 70
     0
 62
     7
  6
CONTINUOUS
370
    -3
390
F
  0
LAYER
  5
86
102
{ACAD_XDICTIONARY
360
372
102
}
330
2
100
AcDbSymbolTableRecord
100
AcDbLayerTableRecord
  2
B-0
 70
     0
 62
     1
  6
CONTINUOUS
370
    -3
390
F
  0
LAYER
  5
87
102
{ACAD_XDICTIONARY
360
374
102
}
330
2
100
AcDbSymbolTableRecord
100
AcDbLayerTableRecord
  2
E-0
 70
     0
 62
     5
  6
CONTINUOUS
370
    -3
390
F
  0
LAYER
  5
8D
102
{ACAD_XDICTIONARY
360
376
102
}
330
2
100
AcDbSymbolTableRecord
100
AcDbLayerTableRecord
  2
1-0
 70
     0
 62
     7
  6
CONTINUOUS
370
    -3
390
F
  0
ENDTAB
  0
TABLE
  2
STYLE
  5
3
330
0
100
AcDbSymbolTable
 70
     6
  0
STYLE
  5
55
330
3
100
AcDbSymbolTableRecord
100
AcDbTextStyleTableRecord
  2
STANDARD
 70
     0
 40
0.0
 41
1.0
 50
0.0
 71
     0
 42
0.0
  3
txt.shx
  4
extfont.shx
  0
STYLE
  5
59
330
3
100
AcDbSymbolTableRecord
100
AcDbTextStyleTableRecord
  2
Annotative
 70
     0
 40
0.0
 41
1.0
 50
0.0
 71
     0
 42
0.2
  3
txt
  4

1001
AcadAnnotative
1000
AnnotativeData
1002
{
1070
     1
1070
     1
1002
}
  0
STYLE
  5
7B
330
3
100
AcDbSymbolTableRecord
100
AcDbTextStyleTableRecord
  2
TATEGAKI
 70
     4
 40
0.0
 41
1.0
 50
0.0
 71
     0
 42
0.0
  3
txt.shx
  4
extfont.shx
  0
STYLE
  5
7C
330
3
100
AcDbSymbolTableRecord
100
AcDbTextStyleTableRecord
  2
DIM
 70
     0
 40
0.0
 41
0.75
 50
0.0
 71
     0
 42
0.0
  3
txt.shx
  4
extfont.shx
  0
STYLE
  5
7D
330
3
100
AcDbSymbolTableRecord
100
AcDbTextStyleTableRecord
  2
_GOTHIC__
 70
     0
 40
0.0
 41
1.0
 50
0.0
 71
     0
 42
0.0
  3
MS Gothic
  4

  0
STYLE
  5
7E
330
3
100
AcDbSymbolTableRecord
100
AcDbTextStyleTableRecord
  2
_TATEGOTHIC_
 70
     4
 40
0.0
 41
1.0
 50
0.0
 71
     0
 42
0.0
  3
@MS Gothic
  4

  0
ENDTAB
  0
TABLE
  2
VIEW
  5
6
330
0
100
AcDbSymbolTable
 70
     0
  0
ENDTAB
  0
TABLE
  2
UCS
  5
7
330
0
100
AcDbSymbolTable
 70
     0
  0
ENDTAB
  0
TABLE
  2
APPID
  5
9
330
0
100
AcDbSymbolTable
 70
     4
  0
APPID
  5
56
330
9
100
AcDbSymbolTableRecord
100
AcDbRegAppTableRecord
  2
ACAD
 70
     0
  0
APPID
  5
5D
330
9
100
AcDbSymbolTableRecord
100
AcDbRegAppTableRecord
  2
AcadAnnotative
 70
     0
  0
APPID
  5
37F
330
9
100
AcDbSymbolTableRecord
100
AcDbRegAppTableRecord
  2
ACAD_NAV_VCDISPLAY
 70
     0
  0
APPID
  5
3B7
330
9
100
AcDbSymbolTableRecord
100
AcDbRegAppTableRecord
  2
ACAD_MLEADERVER
 70
     0
  0
ENDTAB
  0
TABLE
  2
DIMSTYLE
  5
A
330
0
100
AcDbSymbolTable
 70
     2
100
AcDbDimStyleTable
 71
     0
  0
DIMSTYLE
105
57
330
A
100
AcDbSymbolTableRecord
100
AcDbDimStyleTableRecord
  2
Standard
 70
     0
340
55
  0
DIMSTYLE
105
58
330
A
100
AcDbSymbolTableRecord
100
AcDbDimStyleTableRecord
  2
Annotative
 70
     0
340
55
1001
AcadAnnotative
1000
AnnotativeData
1002
{
1070
     1
1070
     1
1002
}
  0
ENDTAB
  0
TABLE
  2
BLOCK_RECORD
  5
1
330
0
100
AcDbSymbolTable
 70
     0
  0
BLOCK_RECORD
  5
6F
330
1
100
AcDbSymbolTableRecord
100
AcDbBlockTableRecord
  2
*Model_Space
340
72
  0
BLOCK_RECORD
  5
6B
330
1
100
AcDbSymbolTableRecord
100
AcDbBlockTableRecord
  2
*Paper_Space
340
6E
  0
ENDTAB
  0
ENDSEC
  0
SECTION
  2
BLOCKS
  0
BLOCK
  5
70
330
6F
100
AcDbEntity
  8
0
100
AcDbBlockBegin
  2
*Model_Space
 70
     0
 10
0.0
 20
0.0
 30
0.0
  3
*Model_Space
  1

  0
ENDBLK
  5
71
330
6F
100
AcDbEntity
  8
0
100
AcDbBlockEnd
  0
BLOCK
  5
6C
330
6B
100
AcDbEntity
 67
     1
  8
0
100
AcDbBlockBegin
  2
*Paper_Space
 70
     0
 10
0.0
 20
0.0
 30
0.0
  3
*Paper_Space
  1

  0
ENDBLK
  5
6D
330
6B
100
AcDbEntity
 67
     1
  8
0
100
AcDbBlockEnd
  0
ENDSEC
  0
SECTION
  2
ENTITIES
  0
LINE
  5
8E
330
6F
100
AcDbEntity
  8
1-0
  6
Continuous
 62
     7
100
AcDbLine
 10
0.192249006075
 20
0.13594751144
 30
0.0
 11
4200.192249006074
 21
0.13594751144
 31
0.0
  0
LINE
  5
8F
330
6F
100
AcDbEntity
  8
1-0
  6
Continuous
 62
     7
100
AcDbLine
 10
4200.192249006074
 20
0.13594751144
 30
0.0
 11
4200.192249006074
 21
2970.13594751144
 31
0.0
  0
LINE
  5
90
330
6F
100
AcDbEntity
  8
1-0
  6
Continuous
 62
     7
100
AcDbLine
 10
4200.192249006074
 20
2970.13594751144
 30
0.0
 11
0.192249006075
 21
2970.13594751144
 31
0.0
  0
LINE
  5
91
330
6F
100
AcDbEntity
  8
1-0
  6
Continuous
 62
     7
100
AcDbLine
 10
0.192249006075
 20
2970.13594751144
 30
0.0
 11
0.192249006075
 21
0.13594751144
 31
0.0
  0
LINE
  5
92
330
6F
100
AcDbEntity
  8
A-0
  6
Continuous
 62
     7
100
AcDbLine
 10
100.192249117636
 20
100.135947661757
 30
0.0
 11
4100.192249117636
 21
100.135947661757
 31
0.0
  0
LINE
  5
93
330
6F
100
AcDbEntity
  8
A-0
  6
Continuous
 62
     7
100
AcDbLine
 10
2500.192249117636
 20
300.135947661757
 30
0.0
 11
4100.192249117636
 21
300.135947661757
 31
0.0
  0
LINE
  5
94
330
6F
100
AcDbEntity
  8
8-0
  6
Continuous
 62
     7
100
AcDbLine
 10
2500.192249117636
 20
240.135947661757
 30
0.0
 11
3150.192249117636
 21
240.135947661757
 31
0.0
  0
LINE
  5
95
330
6F
100
AcDbEntity
  8
A-0
  6
Continuous
 62
     7
100
AcDbLine
 10
4100.192249117636
 20
100.135947661757
 30
0.0
 11
4100.192249117636
 21
2870.135947661757
 31
0.0
  0
LINE
  5
96
330
6F
100
AcDbEntity
  8
A-0
  6
Continuous
 62
     7
100
AcDbLine
 10
4100.192249117636
 20
2870.135947661757
 30
0.0
 11
100.192249117636
 21
2870.135947661757
 31
0.0
  0
LINE
  5
97
330
6F
100
AcDbEntity
  8
A-0
  6
Continuous
 62
     7
100
AcDbLine
 10
100.192249117636
 20
2870.135947661757
 30
0.0
 11
100.192249117636
 21
100.135947661757
 31
0.0
  0
LINE
  5
98
330
6F
100
AcDbEntity
  8
8-0
  6
Continuous
 62
     7
100
AcDbLine
 10
3150.192249117636
 20
100.135947661757
 30
0.0
 11
3150.192249117636
 21
300.135947661757
 31
0.0
  0
LINE
  5
99
330
6F
100
AcDbEntity
  8
A-0
  6
Continuous
 62
     7
100
AcDbLine
 10
2500.192249117636
 20
100.135947661757
 30
0.0
 11
2500.192249117636
 21
300.135947661757
 31
0.0
  0
TEXT
  5
9A
330
6F
100
AcDbEntity
  8
E-0
 62
     5
100
AcDbText
 10
2788.627
 20
252.667
 30
0.0
 40
31.104
  1
品番
100
AcDbText
  0
TEXT
  5
9B
330
6F
100
AcDbEntity
  8
E-0
 62
     5
100
AcDbText
 10
2660.519000000001
 20
147.99
 30
0.0
 40
51.84000000000001
  1
KMS-800
100
AcDbText
  0
TEXT
  5
9C
330
6F
100
AcDbEntity
  8
E-0
 62
     5
100
AcDbText
 10
3353.752
 20
192.4559999999999
 30
0.0
 40
62.208
  1
アイオ産業株式会社
100
AcDbText
  0
TEXT
  5
9D
330
6F
100
AcDbEntity
  8
E-0
 62
     5
100
AcDbText
 10
3428.133
 20
124.649
 30
0.0
 40
31.104
  1
アイオシステムキッチン事業部
100
AcDbText
  0
ARC
  5
9E
330
6F
100
AcDbEntity
  8
4-0
  6
Continuous
 62
     7
100
AcDbCircle
 10
3255.851787181495
 20
200.340113785673
 30
0.0
 40
63.242780745011
100
AcDbArc
 50
319.753
 51
220.247
  0
CIRCLE
  5
9F
330
6F
100
AcDbEntity
  8
4-0
  6
Continuous
 62
     7
100
AcDbCircle
 10
3255.851787181495
 20
200.340113785673
 30
0.0
 40
71.583047168806
  0
CIRCLE
  5
A0
330
6F
100
AcDbEntity
  8
4-0
  6
Continuous
 62
     7
100
AcDbCircle
 10
3255.851787181495
 20
200.340113785673
 30
0.0
 40
72.00006048999501
  0
CIRCLE
  5
A1
330
6F
100
AcDbEntity
  8
4-0
  6
Continuous
 62
     7
100
AcDbCircle
 10
3255.851787181495
 20
200.340113785673
 30
0.0
 40
72.41707381118499
  0
CIRCLE
  5
A2
330
6F
100
AcDbEntity
  8
4-0
  6
Continuous
 62
     7
100
AcDbCircle
 10
3255.851787181495
 20
200.340113785673
 30
0.0
 40
72.834087132375
  0
CIRCLE
  5
A3
330
6F
100
AcDbEntity
  8
4-0
  6
Continuous
 62
     7
100
AcDbCircle
 10
3255.851787181495
 20
200.340113785673
 30
0.0
 40
73.25110045356399
  0
CIRCLE
  5
A4
330
6F
100
AcDbEntity
  8
4-0
  6
Continuous
 62
     7
100
AcDbCircle
 10
3255.851787181495
 20
200.340113785673
 30
0.0
 40
73.459607114159
  0
CIRCLE
  5
A5
330
6F
100
AcDbEntity
  8
4-0
  6
Continuous
 62
     7
100
AcDbCircle
 10
3255.851787181495
 20
200.340113785673
 30
0.0
 40
73.04259379297
  0
CIRCLE
  5
A6
330
6F
100
AcDbEntity
  8
4-0
  6
Continuous
 62
     7
100
AcDbCircle
 10
3255.851787181495
 20
200.340113785673
 30
0.0
 40
72.62558047178
  0
CIRCLE
  5
A7
330
6F
100
AcDbEntity
  8
4-0
  6
Continuous
 62
     7
100
AcDbCircle
 10
3255.851787181495
 20
200.340113785673
 30
0.0
 40
72.20856715058999
  0
CIRCLE
  5
A8
330
6F
100
AcDbEntity
  8
4-0
  6
Continuous
 62
     7
100
AcDbCircle
 10
3255.851787181495
 20
200.340113785673
 30
0.0
 40
71.7915538294
  0
CIRCLE
  5
A9
330
6F
100
AcDbEntity
  8
4-0
  6
Continuous
 62
     7
100
AcDbCircle
 10
3255.851787181495
 20
200.340113785673
 30
0.0
 40
71.7915538294
  0
ARC
  5
AA
330
6F
100
AcDbEntity
  8
4-0
  6
Continuous
 62
     7
100
AcDbCircle
 10
3255.851787181495
 20
200.340113785673
 30
0.0
 40
63.451287405606
100
AcDbArc
 50
319.753
 51
220.247
  0
CIRCLE
  5
AB
330
6F
100
AcDbEntity
  8
4-0
  6
Continuous
 62
     7
100
AcDbCircle
 10
3255.851787181495
 20
200.340113785673
 30
0.0
 40
71.374540508211
  0
ARC
  5
AC
330
6F
100
AcDbEntity
  8
4-0
  6
Continuous
 62
     7
100
AcDbCircle
 10
3255.851787181495
 20
200.340113785673
 30
0.0
 40
63.03427408441599
100
AcDbArc
 50
319.753
 51
220.247
  0
TEXT
  5
AD
330
6F
100
AcDbEntity
  8
4-0
 62
     7
100
AcDbText
 10
3216.647
 20
142.334
 30
0.0
 40
48.64
  1
A
100
AcDbText
  0
TEXT
  5
AE
330
6F
100
AcDbEntity
  8
4-0
 62
     7
100
AcDbText
 10
3259.138
 20
142.437
 30
0.0
 40
48.64
  1
I
100
AcDbText
  0
TEXT
  5
AF
330
6F
100
AcDbEntity
  8
4-0
 62
     7
100
AcDbText
 10
3269.535999999999
 20
142.403
 30
0.0
 40
48.64
  1
O
100
AcDbText
  0
LINE
  5
B0
330
6F
100
AcDbEntity
  8
4-0
  6
Continuous
 62
     7
100
AcDbLine
 10
982.695788117636
 20
1448.697586661757
 30
0.0
 11
1782.695788117636
 21
1448.697586661757
 31
0.0
  0
LINE
  5
B1
330
6F
100
AcDbEntity
  8
4-0
  6
Continuous
 62
     7
100
AcDbLine
 10
986.195788117636
 20
1444.697586661757
 30
0.0
 11
1779.195788117636
 21
1444.697586661757
 31
0.0
  0
LINE
  5
B2
330
6F
100
AcDbEntity
  8
4-0
  6
Continuous
 62
     7
100
AcDbLine
 10
1782.695788117636
 20
1448.697586661757
 30
0.0
 11
1782.695788117636
 21
1048.697586661757
 31
0.0
  0
LINE
  5
B3
330
6F
100
AcDbEntity
  8
4-0
  6
Continuous
 62
     7
100
AcDbLine
 10
1779.195788117636
 20
1444.697586661757
 30
0.0
 11
1779.195788117636
 21
1023.697586661757
 31
0.0
  0
LINE
  5
B4
330
6F
100
AcDbEntity
  8
4-0
  6
DASHED2
 62
     7
100
AcDbLine
 10
1782.695788117636
 20
1048.697586661757
 30
0.0
 11
982.695788117636
 21
1048.697586661757
 31
0.0
  0
LINE
  5
B5
330
6F
100
AcDbEntity
  8
4-0
  6
Continuous
 62
     7
100
AcDbLine
 10
1782.695788117636
 20
1008.697586661757
 30
0.0
 11
1767.695788117636
 21
1008.697586661757
 31
0.0
  0
LINE
  5
B6
330
6F
100
AcDbEntity
  8
4-0
  6
Continuous
 62
     7
100
AcDbLine
 10
997.6957881176359
 20
1008.697586661757
 30
0.0
 11
982.695788117636
 21
1008.697586661757
 31
0.0
  0
LINE
  5
B7
330
6F
100
AcDbEntity
  8
4-0
  6
Continuous
 62
     7
100
AcDbLine
 10
982.695788117636
 20
1048.697586661757
 30
0.0
 11
982.695788117636
 21
1448.697586661757
 31
0.0
  0
LINE
  5
B8
330
6F
100
AcDbEntity
  8
4-0
  6
Continuous
 62
     7
100
AcDbLine
 10
986.195788117636
 20
1023.697586661757
 30
0.0
 11
986.195788117636
 21
1444.697586661757
 31
0.0
  0
LINE
  5
B9
330
6F
100
AcDbEntity
  8
4-0
  6
Continuous
 62
     7
100
AcDbLine
 10
982.695788117636
 20
1048.697586661757
 30
0.0
 11
982.695788117636
 21
748.697586661757
 31
0.0
  0
LINE
  5
BA
330
6F
100
AcDbEntity
  8
4-0
  6
Continuous
 62
     7
100
AcDbLine
 10
997.6957881176359
 20
1023.697586661757
 30
0.0
 11
997.6957881176359
 21
748.697586661757
 31
0.0
  0
LINE
  5
BB
330
6F
100
AcDbEntity
  8
4-0
  6
Continuous
 62
     7
100
AcDbLine
 10
982.695788117636
 20
748.697586661757
 30
0.0
 11
1782.695788117636
 21
748.697586661757
 31
0.0
  0
LINE
  5
BC
330
6F
100
AcDbEntity
  8
4-0
  6
Continuous
 62
     7
100
AcDbLine
 10
982.695788117636
 20
778.6975866617571
 30
0.0
 11
997.6957881176359
 21
778.6975866617571
 31
0.0
  0
LINE
  5
BD
330
6F
100
AcDbEntity
  8
4-0
  6
Continuous
 62
     7
100
AcDbLine
 10
1767.695788117636
 20
778.6975866617571
 30
0.0
 11
1782.695788117636
 21
778.6975866617571
 31
0.0
  0
LINE
  5
BE
330
6F
100
AcDbEntity
  8
4-0
  6
Continuous
 62
     7
100
AcDbLine
 10
997.6957881176359
 20
765.6975866617571
 30
0.0
 11
1767.695788117636
 21
765.6975866617571
 31
0.0
  0
LINE
  5
BF
330
6F
100
AcDbEntity
  8
4-0
  6
Continuous
 62
     7
100
AcDbLine
 10
1000.195788117636
 20
905.1975866617571
 30
0.0
 11
1767.695788117636
 21
905.1975866617571
 31
0.0
  0
LINE
  5
C0
330
6F
100
AcDbEntity
  8
4-0
  6
Continuous
 62
     7
100
AcDbLine
 10
997.6957881176359
 20
920.1975866617571
 30
0.0
 11
1767.695788117636
 21
920.1975866617571
 31
0.0
  0
LINE
  5
C1
330
6F
100
AcDbEntity
  8
4-0
  6
Continuous
 62
     7
100
AcDbLine
 10
1782.695788117636
 20
748.697586661757
 30
0.0
 11
1782.695788117636
 21
1048.697586661757
 31
0.0
  0
LINE
  5
C2
330
6F
100
AcDbEntity
  8
4-0
  6
Continuous
 62
     7
100
AcDbLine
 10
1767.695788117636
 20
748.697586661757
 30
0.0
 11
1767.695788117636
 21
1023.697586661757
 31
0.0
  0
LINE
  5
C3
330
6F
100
AcDbEntity
  8
4-0
  6
Continuous
 62
     7
100
AcDbLine
 10
1382.695788117636
 20
1444.697586661757
 30
0.0
 11
1382.695788117636
 21
1023.697586661757
 31
0.0
  0
LINE
  5
C4
330
6F
100
AcDbEntity
  8
4-0
  6
DASHED2
 62
     7
100
AcDbLine
 10
1779.195788117636
 20
1256.197586661757
 30
0.0
 11
986.195788117636
 21
1256.197586661757
 31
0.0
  0
LINE
  5
C5
330
6F
100
AcDbEntity
  8
4-0
  6
DASHED2
 62
     7
100
AcDbLine
 10
1779.195788117636
 20
1241.197586661757
 30
0.0
 11
986.195788117636
 21
1241.197586661757
 31
0.0
  0
LINE
  5
C6
330
6F
100
AcDbEntity
  8
4-0
  6
Continuous
 62
     7
100
AcDbLine
 10
997.6957881176359
 20
773.197586661757
 30
0.0
 11
1767.695788117636
 21
773.197586661757
 31
0.0
  0
LINE
  5
C7
330
6F
100
AcDbEntity
  8
4-0
  6
Continuous
 62
     7
100
AcDbLine
 10
997.6957881176359
 20
788.1975866617571
 30
0.0
 11
1767.695788117636
 21
788.1975866617571
 31
0.0
  0
LINE
  5
C8
330
6F
100
AcDbEntity
  8
B-0
  6
Continuous
 62
     4
100
AcDbLine
 10
986.1957880060749
 20
1464.69758651144
 30
0.0
 11
986.1957880060749
 21
1548.68312851144
 31
0.0
  0
LINE
  5
C9
330
6F
100
AcDbEntity
  8
B-0
  6
Continuous
 62
     4
100
AcDbLine
 10
1779.195788006075
 20
1464.69758651144
 30
0.0
 11
1779.195788006075
 21
1548.68312851144
 31
0.0
  0
TEXT
  5
CA
330
6F
100
AcDbEntity
  8
B-0
 62
     4
100
AcDbText
 10
1351.918
 20
1549.303
 30
0.0
 40
36.288
  1
793
100
AcDbText
  0
LINE
  5
CB
330
6F
100
AcDbEntity
  8
B-0
  6
Continuous
 62
     4
100
AcDbLine
 10
1779.195787966555
 20
1548.683128945547
 30
0.0
 11
986.1957879665551
 21
1548.683128945547
 31
0.0
  0
CIRCLE
  5
CC
330
6F
100
AcDbEntity
  8
B-0
  6
Continuous
 62
     4
100
AcDbCircle
 10
1779.195787966555
 20
1548.683128945547
 30
0.0
 40
0.25
  0
CIRCLE
  5
CD
330
6F
100
AcDbEntity
  8
B-0
  6
Continuous
 62
     4
100
AcDbCircle
 10
1779.195787966555
 20
1548.683128945547
 30
0.0
 40
0.1875
  0
CIRCLE
  5
CE
330
6F
100
AcDbEntity
  8
B-0
  6
Continuous
 62
     4
100
AcDbCircle
 10
1779.195787966555
 20
1548.683128945547
 30
0.0
 40
0.125
  0
CIRCLE
  5
CF
330
6F
100
AcDbEntity
  8
B-0
  6
Continuous
 62
     4
100
AcDbCircle
 10
1779.195787966555
 20
1548.683128945547
 30
0.0
 40
0.0625
  0
CIRCLE
  5
D0
330
6F
100
AcDbEntity
  8
B-0
  6
Continuous
 62
     4
100
AcDbCircle
 10
986.1957879665551
 20
1548.683128945547
 30
0.0
 40
0.25
  0
CIRCLE
  5
D1
330
6F
100
AcDbEntity
  8
B-0
  6
Continuous
 62
     4
100
AcDbCircle
 10
986.1957879665551
 20
1548.683128945547
 30
0.0
 40
0.1875
  0
CIRCLE
  5
D2
330
6F
100
AcDbEntity
  8
B-0
  6
Continuous
 62
     4
100
AcDbCircle
 10
986.1957879665551
 20
1548.683128945547
 30
0.0
 40
0.125
  0
CIRCLE
  5
D3
330
6F
100
AcDbEntity
  8
B-0
  6
Continuous
 62
     4
100
AcDbCircle
 10
986.1957879665551
 20
1548.683128945547
 30
0.0
 40
0.0625
  0
LINE
  5
D4
330
6F
100
AcDbEntity
  8
B-0
  6
Continuous
 62
     4
100
AcDbLine
 10
982.6957880060749
 20
1468.69758651144
 30
0.0
 11
982.6957880060749
 21
1618.17380151144
 31
0.0
  0
LINE
  5
D5
330
6F
100
AcDbEntity
  8
B-0
  6
Continuous
 62
     4
100
AcDbLine
 10
1782.695788006075
 20
1468.69758651144
 30
0.0
 11
1782.695788006075
 21
1618.17380151144
 31
0.0
  0
TEXT
  5
D6
330
6F
100
AcDbEntity
  8
B-0
 62
     4
100
AcDbText
 10
1351.918
 20
1618.794
 30
0.0
 40
36.288
  1
800
100
AcDbText
  0
LINE
  5
D7
330
6F
100
AcDbEntity
  8
B-0
  6
Continuous
 62
     4
100
AcDbLine
 10
1782.695787966555
 20
1618.173801129747
 30
0.0
 11
982.6957879665551
 21
1618.173801129747
 31
0.0
  0
CIRCLE
  5
D8
330
6F
100
AcDbEntity
  8
B-0
  6
Continuous
 62
     4
100
AcDbCircle
 10
1782.695787966555
 20
1618.173801129747
 30
0.0
 40
0.25
  0
CIRCLE
  5
D9
330
6F
100
AcDbEntity
  8
B-0
  6
Continuous
 62
     4
100
AcDbCircle
 10
1782.695787966555
 20
1618.173801129747
 30
0.0
 40
0.1875
  0
CIRCLE
  5
DA
330
6F
100
AcDbEntity
  8
B-0
  6
Continuous
 62
     4
100
AcDbCircle
 10
1782.695787966555
 20
1618.173801129747
 30
0.0
 40
0.125
  0
CIRCLE
  5
DB
330
6F
100
AcDbEntity
  8
B-0
  6
Continuous
 62
     4
100
AcDbCircle
 10
1782.695787966555
 20
1618.173801129747
 30
0.0
 40
0.0625
  0
CIRCLE
  5
DC
330
6F
100
AcDbEntity
  8
B-0
  6
Continuous
 62
     4
100
AcDbCircle
 10
982.6957879665551
 20
1618.173801129747
 30
0.0
 40
0.25
  0
CIRCLE
  5
DD
330
6F
100
AcDbEntity
  8
B-0
  6
Continuous
 62
     4
100
AcDbCircle
 10
982.6957879665551
 20
1618.173801129747
 30
0.0
 40
0.1875
  0
CIRCLE
  5
DE
330
6F
100
AcDbEntity
  8
B-0
  6
Continuous
 62
     4
100
AcDbCircle
 10
982.6957879665551
 20
1618.173801129747
 30
0.0
 40
0.125
  0
CIRCLE
  5
DF
330
6F
100
AcDbEntity
  8
B-0
  6
Continuous
 62
     4
100
AcDbCircle
 10
982.6957879665551
 20
1618.173801129747
 30
0.0
 40
0.0625
  0
LINE
  5
E0
330
6F
100
AcDbEntity
  8
4-0
  6
Continuous
 62
     7
100
AcDbLine
 10
982.695788117636
 20
2015.346354661757
 30
0.0
 11
1782.695788117636
 21
2015.346354661757
 31
0.0
  0
LINE
  5
E1
330
6F
100
AcDbEntity
  8
4-0
  6
Continuous
 62
     7
100
AcDbLine
 10
982.695788117636
 20
2380.346354661757
 30
0.0
 11
1782.695788117636
 21
2380.346354661757
 31
0.0
  0
LINE
  5
E2
330
6F
100
AcDbEntity
  8
4-0
  6
Continuous
 62
     7
100
AcDbLine
 10
997.6957881176359
 20
2362.846354661757
 30
0.0
 11
1767.695788117636
 21
2362.846354661757
 31
0.0
  0
LINE
  5
E3
330
6F
100
AcDbEntity
  8
4-0
  6
DASHED2
 62
     7
100
AcDbLine
 10
1000.195788117636
 20
2132.846354661757
 30
0.0
 11
1765.195788117636
 21
2132.846354661757
 31
0.0
  0
LINE
  5
E4
330
6F
100
AcDbEntity
  8
4-0
  6
DASHED2
 62
     7
100
AcDbLine
 10
997.6957881176359
 20
2365.346354661757
 30
0.0
 11
1767.695788117636
 21
2365.346354661757
 31
0.0
  0
LINE
  5
E5
330
6F
100
AcDbEntity
  8
4-0
  6
Continuous
 62
     7
100
AcDbLine
 10
986.195788117636
 20
2013.346354661757
 30
0.0
 11
1779.195788117636
 21
2013.346354661757
 31
0.0
  0
LINE
  5
E6
330
6F
100
AcDbEntity
  8
4-0
  6
Continuous
 62
     7
100
AcDbLine
 10
986.195788117636
 20
1998.346354661757
 30
0.0
 11
1779.195788117636
 21
1998.346354661757
 31
0.0
  0
LINE
  5
E7
330
6F
100
AcDbEntity
  8
4-0
  6
Continuous
 62
     7
100
AcDbLine
 10
986.195788117636
 20
2013.346354661757
 30
0.0
 11
986.195788117636
 21
1998.346354661757
 31
0.0
  0
LINE
  5
E8
330
6F
100
AcDbEntity
  8
4-0
  6
Continuous
 62
     7
100
AcDbLine
 10
1779.195788117636
 20
2013.346354661757
 30
0.0
 11
1779.195788117636
 21
1998.346354661757
 31
0.0
  0
LINE
  5
E9
330
6F
100
AcDbEntity
  8
4-0
  6
Continuous
 62
     7
100
AcDbLine
 10
1382.695788117636
 20
1998.346354661757
 30
0.0
 11
1382.695788117636
 21
2013.346354661757
 31
0.0
  0
LINE
  5
EA
330
6F
100
AcDbEntity
  8
4-0
  6
Continuous
 62
     7
100
AcDbLine
 10
982.695788117636
 20
2380.346354661757
 30
0.0
 11
982.695788117636
 21
2015.346354661757
 31
0.0
  0
LINE
  5
EB
330
6F
100
AcDbEntity
  8
4-0
  6
Continuous
 62
     7
100
AcDbLine
 10
997.6957881176359
 20
2380.346354661757
 30
0.0
 11
997.6957881176359
 21
2015.346354661757
 31
0.0
  0
LINE
  5
EC
330
6F
100
AcDbEntity
  8
4-0
  6
Continuous
 62
     7
100
AcDbLine
 10
1782.695788117636
 20
2015.346354661757
 30
0.0
 11
1782.695788117636
 21
2380.346354661757
 31
0.0
  0
LINE
  5
ED
330
6F
100
AcDbEntity
  8
4-0
  6
Continuous
 62
     7
100
AcDbLine
 10
1767.695788117636
 20
2015.346354661757
 30
0.0
 11
1767.695788117636
 21
2380.346354661757
 31
0.0
  0
LINE
  5
EE
330
6F
100
AcDbEntity
  8
4-0
  6
DASHED2
 62
     7
100
AcDbLine
 10
1017.695788117636
 20
2380.346354661757
 30
0.0
 11
1017.695788117636
 21
2365.346354661757
 31
0.0
  0
LINE
  5
EF
330
6F
100
AcDbEntity
  8
4-0
  6
Continuous
 62
     7
100
AcDbLine
 10
1747.695788117636
 20
2380.346354661757
 30
0.0
 11
1747.695788117636
 21
2365.346354661757
 31
0.0
  0
LINE
  5
F0
330
6F
100
AcDbEntity
  8
4-0
  6
Continuous
 62
     7
100
AcDbLine
 10
1017.695788117636
 20
2380.346354661757
 30
0.0
 11
997.6957881176359
 21
2365.346354661757
 31
0.0
  0
LINE
  5
F1
330
6F
100
AcDbEntity
  8
4-0
  6
Continuous
 62
     7
100
AcDbLine
 10
1767.695788117636
 20
2380.346354661757
 30
0.0
 11
1747.695788117636
 21
2365.346354661757
 31
0.0
  0
LINE
  5
F2
330
6F
100
AcDbEntity
  8
B-0
  6
Continuous
 62
     4
100
AcDbLine
 10
982.6957880060749
 20
2400.34635551144
 30
0.0
 11
982.6957880060749
 21
2480.34635551144
 31
0.0
  0
LINE
  5
F3
330
6F
100
AcDbEntity
  8
B-0
  6
Continuous
 62
     4
100
AcDbLine
 10
997.695788006075
 20
2400.34635551144
 30
0.0
 11
997.695788006075
 21
2480.34635551144
 31
0.0
  0
LINE
  5
F4
330
6F
100
AcDbEntity
  8
B-0
  6
Continuous
 62
     4
100
AcDbLine
 10
972.695788006075
 20
2480.34635551144
 30
0.0
 11
962.695788006075
 21
2480.34635551144
 31
0.0
  0
LINE
  5
F5
330
6F
100
AcDbEntity
  8
B-0
  6
Continuous
 62
     4
100
AcDbLine
 10
1007.695788006075
 20
2480.34635551144
 30
0.0
 11
1017.695788006075
 21
2480.34635551144
 31
0.0
  0
LINE
  5
F6
330
6F
100
AcDbEntity
  8
B-0
  6
Continuous
 62
     4
100
AcDbLine
 10
990.1957880060749
 20
2480.34635551144
 30
0.0
 11
982.3310180060749
 21
2512.753162511441
 31
0.0
  0
LINE
  5
F7
330
6F
100
AcDbEntity
  8
B-0
  6
Continuous
 62
     4
100
AcDbLine
 10
982.3310180060749
 20
2512.753162511441
 30
0.0
 11
923.9553830060749
 21
2512.753162511441
 31
0.0
  0
TEXT
  5
F8
330
6F
100
AcDbEntity
  8
B-0
 62
     4
100
AcDbText
 10
933.566
 20
2513.373
 30
0.0
 40
36.288
  1
15
100
AcDbText
  0
LINE
  5
F9
330
6F
100
AcDbEntity
  8
B-0
  6
Continuous
 62
     4
100
AcDbLine
 10
982.6957880060749
 20
2480.34635551144
 30
0.0
 11
997.695788006075
 21
2480.34635551144
 31
0.0
  0
LINE
  5
FA
330
6F
100
AcDbEntity
  8
B-0
  6
Continuous
 62
     4
100
AcDbLine
 10
982.6957880060749
 20
2480.34635551144
 30
0.0
 11
997.695788006075
 21
2480.34635551144
 31
0.0
  0
CIRCLE
  5
FB
330
6F
100
AcDbEntity
  8
B-0
  6
Continuous
 62
     4
100
AcDbCircle
 10
982.6957879665551
 20
2480.346355013644
 30
0.0
 40
0.25
  0
CIRCLE
  5
FC
330
6F
100
AcDbEntity
  8
B-0
  6
Continuous
 62
     4
100
AcDbCircle
 10
982.6957879665551
 20
2480.346355013644
 30
0.0
 40
0.1875
  0
CIRCLE
  5
FD
330
6F
100
AcDbEntity
  8
B-0
  6
Continuous
 62
     4
100
AcDbCircle
 10
982.6957879665551
 20
2480.346355013644
 30
0.0
 40
0.125
  0
CIRCLE
  5
FE
330
6F
100
AcDbEntity
  8
B-0
  6
Continuous
 62
     4
100
AcDbCircle
 10
982.6957879665551
 20
2480.346355013644
 30
0.0
 40
0.0625
  0
ARC
  5
FF
330
6F
100
AcDbEntity
  8
B-0
 62
     4
100
AcDbCircle
 10
982.6957879665551
 20
2480.351355013644
 30
0.0
 40
2.5
100
AcDbArc
 50
0.1145914065300158
 51
180.114591405945
  0
LINE
  5
100
330
6F
100
AcDbEntity
  8
B-0
 62
     4
100
AcDbLine
 10
977.695787966555
 20
2480.346355013644
 30
0.0
 11
972.6957879665549
 21
2480.346355013644
 31
0.0
  0
CIRCLE
  5
101
330
6F
100
AcDbEntity
  8
B-0
  6
Continuous
 62
     4
100
AcDbCircle
 10
997.6957879665549
 20
2480.346355013644
 30
0.0
 40
0.25
  0
CIRCLE
  5
102
330
6F
100
AcDbEntity
  8
B-0
  6
Continuous
 62
     4
100
AcDbCircle
 10
997.6957879665549
 20
2480.346355013644
 30
0.0
 40
0.1875
  0
CIRCLE
  5
103
330
6F
100
AcDbEntity
  8
B-0
  6
Continuous
 62
     4
100
AcDbCircle
 10
997.6957879665549
 20
2480.346355013644
 30
0.0
 40
0.125
  0
CIRCLE
  5
104
330
6F
100
AcDbEntity
  8
B-0
  6
Continuous
 62
     4
100
AcDbCircle
 10
997.6957879665549
 20
2480.346355013644
 30
0.0
 40
0.0625
  0
ARC
  5
105
330
6F
100
AcDbEntity
  8
B-0
 62
     4
100
AcDbCircle
 10
997.6957879665549
 20
2480.341355013644
 30
0.0
 40
2.5
100
AcDbArc
 50
180.1145914065301
 51
0.1145914059449637
  0
LINE
  5
106
330
6F
100
AcDbEntity
  8
B-0
 62
     4
100
AcDbLine
 10
1002.695787966555
 20
2480.346355013695
 30
0.0
 11
1007.695787966555
 21
2480.346355013746
 31
0.0
  0
LINE
  5
107
330
6F
100
AcDbEntity
  8
B-0
  6
Continuous
 62
     4
100
AcDbLine
 10
997.695788006075
 20
2400.34635551144
 30
0.0
 11
997.695788006075
 21
2480.34635551144
 31
0.0
  0
LINE
  5
108
330
6F
100
AcDbEntity
  8
B-0
  6
Continuous
 62
     4
100
AcDbLine
 10
1017.695788006075
 20
2400.34635551144
 30
0.0
 11
1017.695788006075
 21
2480.34635551144
 31
0.0
  0
TEXT
  5
109
330
6F
100
AcDbEntity
  8
B-0
 62
     4
100
AcDbText
 10
1028.655
 20
2513.466
 30
0.0
 40
36.288
  1
20
100
AcDbText
  0
LINE
  5
10A
330
6F
100
AcDbEntity
  8
B-0
  6
Continuous
 62
     4
100
AcDbLine
 10
1017.695787966555
 20
2480.346355013644
 30
0.0
 11
997.6957879665549
 21
2480.346355013644
 31
0.0
  0
CIRCLE
  5
10B
330
6F
100
AcDbEntity
  8
B-0
  6
Continuous
 62
     4
100
AcDbCircle
 10
1017.695787966555
 20
2480.346355013644
 30
0.0
 40
0.25
  0
CIRCLE
  5
10C
330
6F
100
AcDbEntity
  8
B-0
  6
Continuous
 62
     4
100
AcDbCircle
 10
1017.695787966555
 20
2480.346355013644
 30
0.0
 40
0.1875
  0
CIRCLE
  5
10D
330
6F
100
AcDbEntity
  8
B-0
  6
Continuous
 62
     4
100
AcDbCircle
 10
1017.695787966555
 20
2480.346355013644
 30
0.0
 40
0.125
  0
CIRCLE
  5
10E
330
6F
100
AcDbEntity
  8
B-0
  6
Continuous
 62
     4
100
AcDbCircle
 10
1017.695787966555
 20
2480.346355013644
 30
0.0
 40
0.0625
  0
CIRCLE
  5
10F
330
6F
100
AcDbEntity
  8
B-0
  6
Continuous
 62
     4
100
AcDbCircle
 10
997.6957879665549
 20
2480.346355013644
 30
0.0
 40
0.25
  0
CIRCLE
  5
110
330
6F
100
AcDbEntity
  8
B-0
  6
Continuous
 62
     4
100
AcDbCircle
 10
997.6957879665549
 20
2480.346355013644
 30
0.0
 40
0.1875
  0
CIRCLE
  5
111
330
6F
100
AcDbEntity
  8
B-0
  6
Continuous
 62
     4
100
AcDbCircle
 10
997.6957879665549
 20
2480.346355013644
 30
0.0
 40
0.125
  0
CIRCLE
  5
112
330
6F
100
AcDbEntity
  8
B-0
  6
Continuous
 62
     4
100
AcDbCircle
 10
997.6957879665549
 20
2480.346355013644
 30
0.0
 40
0.0625
  0
LINE
  5
113
330
6F
100
AcDbEntity
  8
B-0
  6
Continuous
 62
     4
100
AcDbLine
 10
1747.695788006075
 20
2400.34635551144
 30
0.0
 11
1747.695788006075
 21
2480.34635551144
 31
0.0
  0
LINE
  5
114
330
6F
100
AcDbEntity
  8
B-0
  6
Continuous
 62
     4
100
AcDbLine
 10
1767.695788006075
 20
2400.34635551144
 30
0.0
 11
1767.695788006075
 21
2480.34635551144
 31
0.0
  0
LINE
  5
115
330
6F
100
AcDbEntity
  8
B-0
  6
Continuous
 62
     4
100
AcDbLine
 10
1737.695788006075
 20
2480.34635551144
 30
0.0
 11
1727.695788006075
 21
2480.34635551144
 31
0.0
  0
LINE
  5
116
330
6F
100
AcDbEntity
  8
B-0
  6
Continuous
 62
     4
100
AcDbLine
 10
1777.695788006075
 20
2480.34635551144
 30
0.0
 11
1787.695788006075
 21
2480.34635551144
 31
0.0
  0
LINE
  5
117
330
6F
100
AcDbEntity
  8
B-0
  6
Continuous
 62
     4
100
AcDbLine
 10
1757.695788006075
 20
2480.34635551144
 30
0.0
 11
1745.168615006075
 21
2512.88457051144
 31
0.0
  0
LINE
  5
118
330
6F
100
AcDbEntity
  8
B-0
  6
Continuous
 62
     4
100
AcDbLine
 10
1745.168615006075
 20
2512.88457051144
 30
0.0
 11
1683.595011006075
 21
2512.88457051144
 31
0.0
  0
TEXT
  5
119
330
6F
100
AcDbEntity
  8
B-0
 62
     4
100
AcDbText
 10
1694.804
 20
2513.505
 30
0.0
 40
36.288
  1
20
100
AcDbText
  0
LINE
  5
11A
330
6F
100
AcDbEntity
  8
B-0
  6
Continuous
 62
     4
100
AcDbLine
 10
1747.695788006075
 20
2480.34635551144
 30
0.0
 11
1767.695788006075
 21
2480.34635551144
 31
0.0
  0
LINE
  5
11B
330
6F
100
AcDbEntity
  8
B-0
  6
Continuous
 62
     4
100
AcDbLine
 10
1747.695788006075
 20
2480.34635551144
 30
0.0
 11
1767.695788006075
 21
2480.34635551144
 31
0.0
  0
CIRCLE
  5
11C
330
6F
100
AcDbEntity
  8
B-0
  6
Continuous
 62
     4
100
AcDbCircle
 10
1747.695787966555
 20
2480.346355013644
 30
0.0
 40
0.25
  0
CIRCLE
  5
11D
330
6F
100
AcDbEntity
  8
B-0
  6
Continuous
 62
     4
100
AcDbCircle
 10
1747.695787966555
 20
2480.346355013644
 30
0.0
 40
0.1875
  0
CIRCLE
  5
11E
330
6F
100
AcDbEntity
  8
B-0
  6
Continuous
 62
     4
100
AcDbCircle
 10
1747.695787966555
 20
2480.346355013644
 30
0.0
 40
0.125
  0
CIRCLE
  5
11F
330
6F
100
AcDbEntity
  8
B-0
  6
Continuous
 62
     4
100
AcDbCircle
 10
1747.695787966555
 20
2480.346355013644
 30
0.0
 40
0.0625
  0
ARC
  5
120
330
6F
100
AcDbEntity
  8
B-0
 62
     4
100
AcDbCircle
 10
1747.695787966555
 20
2480.351355013644
 30
0.0
 40
2.5
100
AcDbArc
 50
0.1145914065300158
 51
180.114591405945
  0
LINE
  5
121
330
6F
100
AcDbEntity
  8
B-0
 62
     4
100
AcDbLine
 10
1742.695787966555
 20
2480.346355013644
 30
0.0
 11
1737.695787966555
 21
2480.346355013644
 31
0.0
  0
CIRCLE
  5
122
330
6F
100
AcDbEntity
  8
B-0
  6
Continuous
 62
     4
100
AcDbCircle
 10
1767.695787966555
 20
2480.346355013644
 30
0.0
 40
0.25
  0
CIRCLE
  5
123
330
6F
100
AcDbEntity
  8
B-0
  6
Continuous
 62
     4
100
AcDbCircle
 10
1767.695787966555
 20
2480.346355013644
 30
0.0
 40
0.1875
  0
CIRCLE
  5
124
330
6F
100
AcDbEntity
  8
B-0
  6
Continuous
 62
     4
100
AcDbCircle
 10
1767.695787966555
 20
2480.346355013644
 30
0.0
 40
0.125
  0
CIRCLE
  5
125
330
6F
100
AcDbEntity
  8
B-0
  6
Continuous
 62
     4
100
AcDbCircle
 10
1767.695787966555
 20
2480.346355013644
 30
0.0
 40
0.0625
  0
ARC
  5
126
330
6F
100
AcDbEntity
  8
B-0
 62
     4
100
AcDbCircle
 10
1767.695787966555
 20
2480.341355013644
 30
0.0
 40
2.5
100
AcDbArc
 50
180.1145914065301
 51
0.1145914059449637
  0
LINE
  5
127
330
6F
100
AcDbEntity
  8
B-0
 62
     4
100
AcDbLine
 10
1772.695787966554
 20
2480.346355013695
 30
0.0
 11
1777.695787966555
 21
2480.346355013746
 31
0.0
  0
LINE
  5
128
330
6F
100
AcDbEntity
  8
B-0
  6
Continuous
 62
     4
100
AcDbLine
 10
1767.695788006075
 20
2400.34635551144
 30
0.0
 11
1767.695788006075
 21
2480.34635551144
 31
0.0
  0
LINE
  5
129
330
6F
100
AcDbEntity
  8
B-0
  6
Continuous
 62
     4
100
AcDbLine
 10
1782.695788006075
 20
2400.34635551144
 30
0.0
 11
1782.695788006075
 21
2480.34635551144
 31
0.0
  0
TEXT
  5
12A
330
6F
100
AcDbEntity
  8
B-0
 62
     4
100
AcDbText
 10
1794.556
 20
2513.466
 30
0.0
 40
36.288
  1
15
100
AcDbText
  0
LINE
  5
12B
330
6F
100
AcDbEntity
  8
B-0
  6
Continuous
 62
     4
100
AcDbLine
 10
1782.695787966555
 20
2480.346355013644
 30
0.0
 11
1767.695787966555
 21
2480.346355013644
 31
0.0
  0
CIRCLE
  5
12C
330
6F
100
AcDbEntity
  8
B-0
  6
Continuous
 62
     4
100
AcDbCircle
 10
1782.695787966555
 20
2480.346355013644
 30
0.0
 40
0.25
  0
CIRCLE
  5
12D
330
6F
100
AcDbEntity
  8
B-0
  6
Continuous
 62
     4
100
AcDbCircle
 10
1782.695787966555
 20
2480.346355013644
 30
0.0
 40
0.1875
  0
CIRCLE
  5
12E
330
6F
100
AcDbEntity
  8
B-0
  6
Continuous
 62
     4
100
AcDbCircle
 10
1782.695787966555
 20
2480.346355013644
 30
0.0
 40
0.125
  0
CIRCLE
  5
12F
330
6F
100
AcDbEntity
  8
B-0
  6
Continuous
 62
     4
100
AcDbCircle
 10
1782.695787966555
 20
2480.346355013644
 30
0.0
 40
0.0625
  0
CIRCLE
  5
130
330
6F
100
AcDbEntity
  8
B-0
  6
Continuous
 62
     4
100
AcDbCircle
 10
1767.695787966555
 20
2480.346355013644
 30
0.0
 40
0.25
  0
CIRCLE
  5
131
330
6F
100
AcDbEntity
  8
B-0
  6
Continuous
 62
     4
100
AcDbCircle
 10
1767.695787966555
 20
2480.346355013644
 30
0.0
 40
0.1875
  0
CIRCLE
  5
132
330
6F
100
AcDbEntity
  8
B-0
  6
Continuous
 62
     4
100
AcDbCircle
 10
1767.695787966555
 20
2480.346355013644
 30
0.0
 40
0.125
  0
CIRCLE
  5
133
330
6F
100
AcDbEntity
  8
B-0
  6
Continuous
 62
     4
100
AcDbCircle
 10
1767.695787966555
 20
2480.346355013644
 30
0.0
 40
0.0625
  0
LINE
  5
134
330
6F
100
AcDbEntity
  8
B-0
  6
Continuous
 62
     4
100
AcDbLine
 10
962.695788006075
 20
2380.34635551144
 30
0.0
 11
832.6957880060749
 21
2380.34635551144
 31
0.0
  0
LINE
  5
135
330
6F
100
AcDbEntity
  8
B-0
  6
Continuous
 62
     4
100
AcDbLine
 10
962.695788006075
 20
2015.34635551144
 30
0.0
 11
832.6957880060749
 21
2015.34635551144
 31
0.0
  0
TEXT
  5
136
330
6F
100
AcDbEntity
  8
B-0
 62
     4
100
AcDbText
 10
832.0759999999999
 20
2164.246
 30
0.0
 40
36.288
  1
365
 50
90.0
100
AcDbText
  0
LINE
  5
137
330
6F
100
AcDbEntity
  8
B-0
  6
Continuous
 62
     4
100
AcDbLine
 10
832.6957879665551
 20
2015.346355013644
 30
0.0
 11
832.6957879665551
 21
2380.346355013644
 31
0.0
  0
CIRCLE
  5
138
330
6F
100
AcDbEntity
  8
B-0
  6
Continuous
 62
     4
100
AcDbCircle
 10
832.6957879665551
 20
2015.346355013644
 30
0.0
 40
0.25
  0
CIRCLE
  5
139
330
6F
100
AcDbEntity
  8
B-0
  6
Continuous
 62
     4
100
AcDbCircle
 10
832.6957879665551
 20
2015.346355013644
 30
0.0
 40
0.1875
  0
CIRCLE
  5
13A
330
6F
100
AcDbEntity
  8
B-0
  6
Continuous
 62
     4
100
AcDbCircle
 10
832.6957879665551
 20
2015.346355013644
 30
0.0
 40
0.125
  0
CIRCLE
  5
13B
330
6F
100
AcDbEntity
  8
B-0
  6
Continuous
 62
     4
100
AcDbCircle
 10
832.6957879665551
 20
2015.346355013644
 30
0.0
 40
0.0625
  0
CIRCLE
  5
13C
330
6F
100
AcDbEntity
  8
B-0
  6
Continuous
 62
     4
100
AcDbCircle
 10
832.6957879665551
 20
2380.346355013644
 30
0.0
 40
0.25
  0
CIRCLE
  5
13D
330
6F
100
AcDbEntity
  8
B-0
  6
Continuous
 62
     4
100
AcDbCircle
 10
832.6957879665551
 20
2380.346355013644
 30
0.0
 40
0.1875
  0
CIRCLE
  5
13E
330
6F
100
AcDbEntity
  8
B-0
  6
Continuous
 62
     4
100
AcDbCircle
 10
832.6957879665551
 20
2380.346355013644
 30
0.0
 40
0.125
  0
CIRCLE
  5
13F
330
6F
100
AcDbEntity
  8
B-0
  6
Continuous
 62
     4
100
AcDbCircle
 10
832.6957879665551
 20
2380.346355013644
 30
0.0
 40
0.0625
  0
LINE
  5
140
330
6F
100
AcDbEntity
  8
B-0
  6
Continuous
 62
     4
100
AcDbLine
 10
962.695788006075
 20
2380.34635551144
 30
0.0
 11
732.6957880060749
 21
2380.34635551144
 31
0.0
  0
LINE
  5
141
330
6F
100
AcDbEntity
  8
B-0
  6
Continuous
 62
     4
100
AcDbLine
 10
966.195788006075
 20
1998.34635551144
 30
0.0
 11
732.6957880060749
 21
1998.34635551144
 31
0.0
  0
TEXT
  5
142
330
6F
100
AcDbEntity
  8
B-0
 62
     4
100
AcDbText
 10
732.0759999999999
 20
2155.746
 30
0.0
 40
36.288
  1
382
 50
90.0
100
AcDbText
  0
LINE
  5
143
330
6F
100
AcDbEntity
  8
B-0
  6
Continuous
 62
     4
100
AcDbLine
 10
732.695787966555
 20
1998.346355013644
 30
0.0
 11
732.695787966555
 21
2380.346355013644
 31
0.0
  0
CIRCLE
  5
144
330
6F
100
AcDbEntity
  8
B-0
  6
Continuous
 62
     4
100
AcDbCircle
 10
732.695787966555
 20
1998.346355013644
 30
0.0
 40
0.25
  0
CIRCLE
  5
145
330
6F
100
AcDbEntity
  8
B-0
  6
Continuous
 62
     4
100
AcDbCircle
 10
732.695787966555
 20
1998.346355013644
 30
0.0
 40
0.1875
  0
CIRCLE
  5
146
330
6F
100
AcDbEntity
  8
B-0
  6
Continuous
 62
     4
100
AcDbCircle
 10
732.695787966555
 20
1998.346355013644
 30
0.0
 40
0.125
  0
CIRCLE
  5
147
330
6F
100
AcDbEntity
  8
B-0
  6
Continuous
 62
     4
100
AcDbCircle
 10
732.695787966555
 20
1998.346355013644
 30
0.0
 40
0.0625
  0
CIRCLE
  5
148
330
6F
100
AcDbEntity
  8
B-0
  6
Continuous
 62
     4
100
AcDbCircle
 10
732.695787966555
 20
2380.346355013644
 30
0.0
 40
0.25
  0
CIRCLE
  5
149
330
6F
100
AcDbEntity
  8
B-0
  6
Continuous
 62
     4
100
AcDbCircle
 10
732.695787966555
 20
2380.346355013644
 30
0.0
 40
0.1875
  0
CIRCLE
  5
14A
330
6F
100
AcDbEntity
  8
B-0
  6
Continuous
 62
     4
100
AcDbCircle
 10
732.695787966555
 20
2380.346355013644
 30
0.0
 40
0.125
  0
CIRCLE
  5
14B
330
6F
100
AcDbEntity
  8
B-0
  6
Continuous
 62
     4
100
AcDbCircle
 10
732.695787966555
 20
2380.346355013644
 30
0.0
 40
0.0625
  0
LINE
  5
14C
330
6F
100
AcDbEntity
  8
B-0
  6
Continuous
 62
     4
100
AcDbLine
 10
982.6957880060749
 20
2400.34635551144
 30
0.0
 11
982.6957880060749
 21
2580.34635551144
 31
0.0
  0
LINE
  5
14D
330
6F
100
AcDbEntity
  8
B-0
  6
Continuous
 62
     4
100
AcDbLine
 10
1782.695788006075
 20
2400.34635551144
 30
0.0
 11
1782.695788006075
 21
2580.34635551144
 31
0.0
  0
TEXT
  5
14E
330
6F
100
AcDbEntity
  8
B-0
 62
     4
100
AcDbText
 10
1351.918
 20
2580.966
 30
0.0
 40
36.288
  1
800
100
AcDbText
  0
LINE
  5
14F
330
6F
100
AcDbEntity
  8
B-0
  6
Continuous
 62
     4
100
AcDbLine
 10
1782.695787966555
 20
2580.346355013644
 30
0.0
 11
982.6957879665551
 21
2580.346355013644
 31
0.0
  0
CIRCLE
  5
150
330
6F
100
AcDbEntity
  8
B-0
  6
Continuous
 62
     4
100
AcDbCircle
 10
1782.695787966555
 20
2580.346355013644
 30
0.0
 40
0.25
  0
CIRCLE
  5
151
330
6F
100
AcDbEntity
  8
B-0
  6
Continuous
 62
     4
100
AcDbCircle
 10
1782.695787966555
 20
2580.346355013644
 30
0.0
 40
0.1875
  0
CIRCLE
  5
152
330
6F
100
AcDbEntity
  8
B-0
  6
Continuous
 62
     4
100
AcDbCircle
 10
1782.695787966555
 20
2580.346355013644
 30
0.0
 40
0.125
  0
CIRCLE
  5
153
330
6F
100
AcDbEntity
  8
B-0
  6
Continuous
 62
     4
100
AcDbCircle
 10
1782.695787966555
 20
2580.346355013644
 30
0.0
 40
0.0625
  0
CIRCLE
  5
154
330
6F
100
AcDbEntity
  8
B-0
  6
Continuous
 62
     4
100
AcDbCircle
 10
982.6957879665551
 20
2580.346355013644
 30
0.0
 40
0.25
  0
CIRCLE
  5
155
330
6F
100
AcDbEntity
  8
B-0
  6
Continuous
 62
     4
100
AcDbCircle
 10
982.6957879665551
 20
2580.346355013644
 30
0.0
 40
0.1875
  0
CIRCLE
  5
156
330
6F
100
AcDbEntity
  8
B-0
  6
Continuous
 62
     4
100
AcDbCircle
 10
982.6957879665551
 20
2580.346355013644
 30
0.0
 40
0.125
  0
CIRCLE
  5
157
330
6F
100
AcDbEntity
  8
B-0
  6
Continuous
 62
     4
100
AcDbCircle
 10
982.6957879665551
 20
2580.346355013644
 30
0.0
 40
0.0625
  0
LINE
  5
158
330
6F
100
AcDbEntity
  8
B-0
  6
Continuous
 62
     4
100
AcDbLine
 10
962.695788006075
 20
920.19758651144
 30
0.0
 11
932.6957880060749
 21
920.19758651144
 31
0.0
  0
LINE
  5
159
330
6F
100
AcDbEntity
  8
B-0
  6
Continuous
 62
     4
100
AcDbLine
 10
962.695788006075
 20
905.19758651144
 30
0.0
 11
932.6957880060749
 21
905.19758651144
 31
0.0
  0
TEXT
  5
15A
330
6F
100
AcDbEntity
  8
B-0
 62
     4
100
AcDbText
 10
899.576
 20
929.235
 30
0.0
 40
36.288
  1
15
 50
90.0
100
AcDbText
  0
LINE
  5
15B
330
6F
100
AcDbEntity
  8
B-0
  6
Continuous
 62
     4
100
AcDbLine
 10
932.695787966556
 20
905.1975867651069
 30
0.0
 11
932.695787966556
 21
920.197586765107
 31
0.0
  0
CIRCLE
  5
15C
330
6F
100
AcDbEntity
  8
B-0
  6
Continuous
 62
     4
100
AcDbCircle
 10
932.695787966556
 20
905.1975867651069
 30
0.0
 40
0.25
  0
CIRCLE
  5
15D
330
6F
100
AcDbEntity
  8
B-0
  6
Continuous
 62
     4
100
AcDbCircle
 10
932.695787966556
 20
905.1975867651069
 30
0.0
 40
0.1875
  0
CIRCLE
  5
15E
330
6F
100
AcDbEntity
  8
B-0
  6
Continuous
 62
     4
100
AcDbCircle
 10
932.695787966556
 20
905.1975867651069
 30
0.0
 40
0.125
  0
CIRCLE
  5
15F
330
6F
100
AcDbEntity
  8
B-0
  6
Continuous
 62
     4
100
AcDbCircle
 10
932.695787966556
 20
905.1975867651069
 30
0.0
 40
0.0625
  0
CIRCLE
  5
160
330
6F
100
AcDbEntity
  8
B-0
  6
Continuous
 62
     4
100
AcDbCircle
 10
932.695787966556
 20
920.197586765107
 30
0.0
 40
0.25
  0
CIRCLE
  5
161
330
6F
100
AcDbEntity
  8
B-0
  6
Continuous
 62
     4
100
AcDbCircle
 10
932.695787966556
 20
920.197586765107
 30
0.0
 40
0.1875
  0
CIRCLE
  5
162
330
6F
100
AcDbEntity
  8
B-0
  6
Continuous
 62
     4
100
AcDbCircle
 10
932.695787966556
 20
920.197586765107
 30
0.0
 40
0.125
  0
CIRCLE
  5
163
330
6F
100
AcDbEntity
  8
B-0
  6
Continuous
 62
     4
100
AcDbCircle
 10
932.695787966556
 20
920.197586765107
 30
0.0
 40
0.0625
  0
LINE
  5
164
330
6F
100
AcDbEntity
  8
B-0
  6
Continuous
 62
     4
100
AcDbLine
 10
962.695788006075
 20
748.69758651144
 30
0.0
 11
932.6957880060749
 21
748.69758651144
 31
0.0
  0
LINE
  5
165
330
6F
100
AcDbEntity
  8
B-0
  6
Continuous
 62
     4
100
AcDbLine
 10
962.401318006075
 20
765.69758651144
 30
0.0
 11
932.6957880060749
 21
765.69758651144
 31
0.0
  0
TEXT
  5
166
330
6F
100
AcDbEntity
  8
B-0
 62
     4
100
AcDbText
 10
899.576
 20
773.5579999999999
 30
0.0
 40
36.288
  1
17
 50
90.0
100
AcDbText
  0
LINE
  5
167
330
6F
100
AcDbEntity
  8
B-0
  6
Continuous
 62
     4
100
AcDbLine
 10
932.6957879665551
 20
765.697586765107
 30
0.0
 11
932.6957879665551
 21
748.6975867651069
 31
0.0
  0
CIRCLE
  5
168
330
6F
100
AcDbEntity
  8
B-0
  6
Continuous
 62
     4
100
AcDbCircle
 10
932.6957879665551
 20
765.697586765107
 30
0.0
 40
0.25
  0
CIRCLE
  5
169
330
6F
100
AcDbEntity
  8
B-0
  6
Continuous
 62
     4
100
AcDbCircle
 10
932.6957879665551
 20
765.697586765107
 30
0.0
 40
0.1875
  0
CIRCLE
  5
16A
330
6F
100
AcDbEntity
  8
B-0
  6
Continuous
 62
     4
100
AcDbCircle
 10
932.6957879665551
 20
765.697586765107
 30
0.0
 40
0.125
  0
CIRCLE
  5
16B
330
6F
100
AcDbEntity
  8
B-0
  6
Continuous
 62
     4
100
AcDbCircle
 10
932.6957879665551
 20
765.697586765107
 30
0.0
 40
0.0625
  0
CIRCLE
  5
16C
330
6F
100
AcDbEntity
  8
B-0
  6
Continuous
 62
     4
100
AcDbCircle
 10
932.6957879665551
 20
748.6975867651069
 30
0.0
 40
0.25
  0
CIRCLE
  5
16D
330
6F
100
AcDbEntity
  8
B-0
  6
Continuous
 62
     4
100
AcDbCircle
 10
932.6957879665551
 20
748.6975867651069
 30
0.0
 40
0.1875
  0
CIRCLE
  5
16E
330
6F
100
AcDbEntity
  8
B-0
  6
Continuous
 62
     4
100
AcDbCircle
 10
932.6957879665551
 20
748.6975867651069
 30
0.0
 40
0.125
  0
CIRCLE
  5
16F
330
6F
100
AcDbEntity
  8
B-0
  6
Continuous
 62
     4
100
AcDbCircle
 10
932.6957879665551
 20
748.6975867651069
 30
0.0
 40
0.0625
  0
TEXT
  5
170
330
6F
100
AcDbEntity
  8
E-0
 62
     5
100
AcDbText
 10
1232.226
 20
797.286
 30
0.0
 40
25.92
  1
ステンレスポールφ19
100
AcDbText
  0
LINE
  5
171
330
6F
100
AcDbEntity
  8
B-0
  6
Continuous
 62
     4
100
AcDbLine
 10
962.695788006075
 20
1448.69758651144
 30
0.0
 11
832.6957880060749
 21
1448.69758651144
 31
0.0
  0
LINE
  5
172
330
6F
100
AcDbEntity
  8
B-0
  6
Continuous
 62
     4
100
AcDbLine
 10
962.695788006075
 20
1048.69758651144
 30
0.0
 11
832.6957880060749
 21
1048.69758651144
 31
0.0
  0
TEXT
  5
173
330
6F
100
AcDbEntity
  8
B-0
 62
     4
100
AcDbText
 10
832.0759999999999
 20
1215.098
 30
0.0
 40
36.288
  1
400
 50
90.0
100
AcDbText
  0
LINE
  5
174
330
6F
100
AcDbEntity
  8
B-0
  6
Continuous
 62
     4
100
AcDbLine
 10
832.6957879665551
 20
1048.697586765108
 30
0.0
 11
832.6957879665551
 21
1448.69758676511
 31
0.0
  0
CIRCLE
  5
175
330
6F
100
AcDbEntity
  8
B-0
  6
Continuous
 62
     4
100
AcDbCircle
 10
832.6957879665551
 20
1048.697586765108
 30
0.0
 40
0.25
  0
CIRCLE
  5
176
330
6F
100
AcDbEntity
  8
B-0
  6
Continuous
 62
     4
100
AcDbCircle
 10
832.6957879665551
 20
1048.697586765108
 30
0.0
 40
0.1875
  0
CIRCLE
  5
177
330
6F
100
AcDbEntity
  8
B-0
  6
Continuous
 62
     4
100
AcDbCircle
 10
832.6957879665551
 20
1048.697586765108
 30
0.0
 40
0.125
  0
CIRCLE
  5
178
330
6F
100
AcDbEntity
  8
B-0
  6
Continuous
 62
     4
100
AcDbCircle
 10
832.6957879665551
 20
1048.697586765108
 30
0.0
 40
0.0625
  0
CIRCLE
  5
179
330
6F
100
AcDbEntity
  8
B-0
  6
Continuous
 62
     4
100
AcDbCircle
 10
832.6957879665551
 20
1448.69758676511
 30
0.0
 40
0.25
  0
CIRCLE
  5
17A
330
6F
100
AcDbEntity
  8
B-0
  6
Continuous
 62
     4
100
AcDbCircle
 10
832.6957879665551
 20
1448.69758676511
 30
0.0
 40
0.1875
  0
CIRCLE
  5
17B
330
6F
100
AcDbEntity
  8
B-0
  6
Continuous
 62
     4
100
AcDbCircle
 10
832.6957879665551
 20
1448.69758676511
 30
0.0
 40
0.125
  0
CIRCLE
  5
17C
330
6F
100
AcDbEntity
  8
B-0
  6
Continuous
 62
     4
100
AcDbCircle
 10
832.6957879665551
 20
1448.69758676511
 30
0.0
 40
0.0625
  0
LINE
  5
17D
330
6F
100
AcDbEntity
  8
B-0
  6
Continuous
 62
     4
100
AcDbLine
 10
962.695788006075
 20
1048.69758651144
 30
0.0
 11
832.6957880060749
 21
1048.69758651144
 31
0.0
  0
LINE
  5
17E
330
6F
100
AcDbEntity
  8
B-0
  6
Continuous
 62
     4
100
AcDbLine
 10
962.695788006075
 20
748.69758651144
 30
0.0
 11
832.6957880060749
 21
748.69758651144
 31
0.0
  0
TEXT
  5
17F
330
6F
100
AcDbEntity
  8
B-0
 62
     4
100
AcDbText
 10
832.0759999999999
 20
865.098
 30
0.0
 40
36.288
  1
300
 50
90.0
100
AcDbText
  0
LINE
  5
180
330
6F
100
AcDbEntity
  8
B-0
  6
Continuous
 62
     4
100
AcDbLine
 10
832.6957879665551
 20
748.6975867651069
 30
0.0
 11
832.6957879665551
 21
1048.697586765108
 31
0.0
  0
CIRCLE
  5
181
330
6F
100
AcDbEntity
  8
B-0
  6
Continuous
 62
     4
100
AcDbCircle
 10
832.6957879665551
 20
748.6975867651069
 30
0.0
 40
0.25
  0
CIRCLE
  5
182
330
6F
100
AcDbEntity
  8
B-0
  6
Continuous
 62
     4
100
AcDbCircle
 10
832.6957879665551
 20
748.6975867651069
 30
0.0
 40
0.1875
  0
CIRCLE
  5
183
330
6F
100
AcDbEntity
  8
B-0
  6
Continuous
 62
     4
100
AcDbCircle
 10
832.6957879665551
 20
748.6975867651069
 30
0.0
 40
0.125
  0
CIRCLE
  5
184
330
6F
100
AcDbEntity
  8
B-0
  6
Continuous
 62
     4
100
AcDbCircle
 10
832.6957879665551
 20
748.6975867651069
 30
0.0
 40
0.0625
  0
CIRCLE
  5
185
330
6F
100
AcDbEntity
  8
B-0
  6
Continuous
 62
     4
100
AcDbCircle
 10
832.6957879665551
 20
1048.697586765108
 30
0.0
 40
0.25
  0
CIRCLE
  5
186
330
6F
100
AcDbEntity
  8
B-0
  6
Continuous
 62
     4
100
AcDbCircle
 10
832.6957879665551
 20
1048.697586765108
 30
0.0
 40
0.1875
  0
CIRCLE
  5
187
330
6F
100
AcDbEntity
  8
B-0
  6
Continuous
 62
     4
100
AcDbCircle
 10
832.6957879665551
 20
1048.697586765108
 30
0.0
 40
0.125
  0
CIRCLE
  5
188
330
6F
100
AcDbEntity
  8
B-0
  6
Continuous
 62
     4
100
AcDbCircle
 10
832.6957879665551
 20
1048.697586765108
 30
0.0
 40
0.0625
  0
LINE
  5
189
330
6F
100
AcDbEntity
  8
B-0
  6
Continuous
 62
     4
100
AcDbLine
 10
962.695788006075
 20
1448.69758651144
 30
0.0
 11
732.6957880060749
 21
1448.69758651144
 31
0.0
  0
LINE
  5
18A
330
6F
100
AcDbEntity
  8
B-0
  6
Continuous
 62
     4
100
AcDbLine
 10
962.695788006075
 20
748.69758651144
 30
0.0
 11
732.6957880060749
 21
748.69758651144
 31
0.0
  0
TEXT
  5
18B
330
6F
100
AcDbEntity
  8
B-0
 62
     4
100
AcDbText
 10
732.0759999999999
 20
1065.098
 30
0.0
 40
36.288
  1
700
 50
90.0
100
AcDbText
  0
LINE
  5
18C
330
6F
100
AcDbEntity
  8
B-0
  6
Continuous
 62
     4
100
AcDbLine
 10
732.695787966555
 20
748.6975867651088
 30
0.0
 11
732.695787966555
 21
1448.69758676511
 31
0.0
  0
CIRCLE
  5
18D
330
6F
100
AcDbEntity
  8
B-0
  6
Continuous
 62
     4
100
AcDbCircle
 10
732.695787966555
 20
748.6975867651088
 30
0.0
 40
0.25
  0
CIRCLE
  5
18E
330
6F
100
AcDbEntity
  8
B-0
  6
Continuous
 62
     4
100
AcDbCircle
 10
732.695787966555
 20
748.6975867651088
 30
0.0
 40
0.1875
  0
CIRCLE
  5
18F
330
6F
100
AcDbEntity
  8
B-0
  6
Continuous
 62
     4
100
AcDbCircle
 10
732.695787966555
 20
748.6975867651088
 30
0.0
 40
0.125
  0
CIRCLE
  5
190
330
6F
100
AcDbEntity
  8
B-0
  6
Continuous
 62
     4
100
AcDbCircle
 10
732.695787966555
 20
748.6975867651088
 30
0.0
 40
0.0625
  0
CIRCLE
  5
191
330
6F
100
AcDbEntity
  8
B-0
  6
Continuous
 62
     4
100
AcDbCircle
 10
732.695787966555
 20
1448.69758676511
 30
0.0
 40
0.25
  0
CIRCLE
  5
192
330
6F
100
AcDbEntity
  8
B-0
  6
Continuous
 62
     4
100
AcDbCircle
 10
732.695787966555
 20
1448.69758676511
 30
0.0
 40
0.1875
  0
CIRCLE
  5
193
330
6F
100
AcDbEntity
  8
B-0
  6
Continuous
 62
     4
100
AcDbCircle
 10
732.695787966555
 20
1448.69758676511
 30
0.0
 40
0.125
  0
CIRCLE
  5
194
330
6F
100
AcDbEntity
  8
B-0
  6
Continuous
 62
     4
100
AcDbCircle
 10
732.695787966555
 20
1448.69758676511
 30
0.0
 40
0.0625
  0
LINE
  5
195
330
6F
100
AcDbEntity
  8
B-0
  6
Continuous
 62
     4
100
AcDbLine
 10
982.6957880060749
 20
728.69758651144
 30
0.0
 11
982.6957880060749
 21
648.69758651144
 31
0.0
  0
LINE
  5
196
330
6F
100
AcDbEntity
  8
B-0
  6
Continuous
 62
     4
100
AcDbLine
 10
997.695788006075
 20
728.69758651144
 30
0.0
 11
997.695788006075
 21
648.69758651144
 31
0.0
  0
TEXT
  5
197
330
6F
100
AcDbEntity
  8
B-0
 62
     4
100
AcDbText
 10
1020.056
 20
581.8179999999999
 30
0.0
 40
36.288
  1
15
100
AcDbText
  0
LINE
  5
198
330
6F
100
AcDbEntity
  8
B-0
  6
Continuous
 62
     4
100
AcDbLine
 10
997.6957879665549
 20
648.6975867651069
 30
0.0
 11
982.6957879665551
 21
648.6975867651069
 31
0.0
  0
CIRCLE
  5
199
330
6F
100
AcDbEntity
  8
B-0
  6
Continuous
 62
     4
100
AcDbCircle
 10
997.6957879665549
 20
648.6975867651069
 30
0.0
 40
0.25
  0
CIRCLE
  5
19A
330
6F
100
AcDbEntity
  8
B-0
  6
Continuous
 62
     4
100
AcDbCircle
 10
997.6957879665549
 20
648.6975867651069
 30
0.0
 40
0.1875
  0
CIRCLE
  5
19B
330
6F
100
AcDbEntity
  8
B-0
  6
Continuous
 62
     4
100
AcDbCircle
 10
997.6957879665549
 20
648.6975867651069
 30
0.0
 40
0.125
  0
CIRCLE
  5
19C
330
6F
100
AcDbEntity
  8
B-0
  6
Continuous
 62
     4
100
AcDbCircle
 10
997.6957879665549
 20
648.6975867651069
 30
0.0
 40
0.0625
  0
CIRCLE
  5
19D
330
6F
100
AcDbEntity
  8
B-0
  6
Continuous
 62
     4
100
AcDbCircle
 10
982.6957879665551
 20
648.6975867651069
 30
0.0
 40
0.25
  0
CIRCLE
  5
19E
330
6F
100
AcDbEntity
  8
B-0
  6
Continuous
 62
     4
100
AcDbCircle
 10
982.6957879665551
 20
648.6975867651069
 30
0.0
 40
0.1875
  0
CIRCLE
  5
19F
330
6F
100
AcDbEntity
  8
B-0
  6
Continuous
 62
     4
100
AcDbCircle
 10
982.6957879665551
 20
648.6975867651069
 30
0.0
 40
0.125
  0
CIRCLE
  5
1A0
330
6F
100
AcDbEntity
  8
B-0
  6
Continuous
 62
     4
100
AcDbCircle
 10
982.6957879665551
 20
648.6975867651069
 30
0.0
 40
0.0625
  0
LINE
  5
1A1
330
6F
100
AcDbEntity
  8
B-0
  6
Continuous
 62
     4
100
AcDbLine
 10
1767.695788006075
 20
728.69758651144
 30
0.0
 11
1767.695788006075
 21
648.69758651144
 31
0.0
  0
LINE
  5
1A2
330
6F
100
AcDbEntity
  8
B-0
  6
Continuous
 62
     4
100
AcDbLine
 10
1782.695788006075
 20
728.69758651144
 30
0.0
 11
1782.695788006075
 21
648.69758651144
 31
0.0
  0
TEXT
  5
1A3
330
6F
100
AcDbEntity
  8
B-0
 62
     4
100
AcDbText
 10
1805.056
 20
581.8179999999999
 30
0.0
 40
36.288
  1
15
100
AcDbText
  0
LINE
  5
1A4
330
6F
100
AcDbEntity
  8
B-0
  6
Continuous
 62
     4
100
AcDbLine
 10
1782.695787966555
 20
648.6975867651089
 30
0.0
 11
1767.695787966555
 21
648.6975867651089
 31
0.0
  0
CIRCLE
  5
1A5
330
6F
100
AcDbEntity
  8
B-0
  6
Continuous
 62
     4
100
AcDbCircle
 10
1782.695787966555
 20
648.6975867651089
 30
0.0
 40
0.25
  0
CIRCLE
  5
1A6
330
6F
100
AcDbEntity
  8
B-0
  6
Continuous
 62
     4
100
AcDbCircle
 10
1782.695787966555
 20
648.6975867651089
 30
0.0
 40
0.1875
  0
CIRCLE
  5
1A7
330
6F
100
AcDbEntity
  8
B-0
  6
Continuous
 62
     4
100
AcDbCircle
 10
1782.695787966555
 20
648.6975867651089
 30
0.0
 40
0.125
  0
CIRCLE
  5
1A8
330
6F
100
AcDbEntity
  8
B-0
  6
Continuous
 62
     4
100
AcDbCircle
 10
1782.695787966555
 20
648.6975867651089
 30
0.0
 40
0.0625
  0
CIRCLE
  5
1A9
330
6F
100
AcDbEntity
  8
B-0
  6
Continuous
 62
     4
100
AcDbCircle
 10
1767.695787966555
 20
648.6975867651089
 30
0.0
 40
0.25
  0
CIRCLE
  5
1AA
330
6F
100
AcDbEntity
  8
B-0
  6
Continuous
 62
     4
100
AcDbCircle
 10
1767.695787966555
 20
648.6975867651089
 30
0.0
 40
0.1875
  0
CIRCLE
  5
1AB
330
6F
100
AcDbEntity
  8
B-0
  6
Continuous
 62
     4
100
AcDbCircle
 10
1767.695787966555
 20
648.6975867651089
 30
0.0
 40
0.125
  0
CIRCLE
  5
1AC
330
6F
100
AcDbEntity
  8
B-0
  6
Continuous
 62
     4
100
AcDbCircle
 10
1767.695787966555
 20
648.6975867651089
 30
0.0
 40
0.0625
  0
LINE
  5
1AD
330
6F
100
AcDbEntity
  8
B-0
  6
Continuous
 62
     4
100
AcDbLine
 10
1782.695788006075
 20
728.69758651144
 30
0.0
 11
1782.695788006075
 21
548.69758651144
 31
0.0
  0
LINE
  5
1AE
330
6F
100
AcDbEntity
  8
B-0
  6
Continuous
 62
     4
100
AcDbLine
 10
982.6957880060749
 20
728.69758651144
 30
0.0
 11
982.6957880060749
 21
548.69758651144
 31
0.0
  0
TEXT
  5
1AF
330
6F
100
AcDbEntity
  8
B-0
 62
     4
100
AcDbText
 10
1351.918
 20
549.3179999999999
 30
0.0
 40
36.288
  1
800
100
AcDbText
  0
LINE
  5
1B0
330
6F
100
AcDbEntity
  8
B-0
  6
Continuous
 62
     4
100
AcDbLine
 10
982.6957879665551
 20
548.6975867651089
 30
0.0
 11
1782.695787966555
 21
548.6975867651089
 31
0.0
  0
CIRCLE
  5
1B1
330
6F
100
AcDbEntity
  8
B-0
  6
Continuous
 62
     4
100
AcDbCircle
 10
982.6957879665551
 20
548.6975867651089
 30
0.0
 40
0.25
  0
CIRCLE
  5
1B2
330
6F
100
AcDbEntity
  8
B-0
  6
Continuous
 62
     4
100
AcDbCircle
 10
982.6957879665551
 20
548.6975867651089
 30
0.0
 40
0.1875
  0
CIRCLE
  5
1B3
330
6F
100
AcDbEntity
  8
B-0
  6
Continuous
 62
     4
100
AcDbCircle
 10
982.6957879665551
 20
548.6975867651089
 30
0.0
 40
0.125
  0
CIRCLE
  5
1B4
330
6F
100
AcDbEntity
  8
B-0
  6
Continuous
 62
     4
100
AcDbCircle
 10
982.6957879665551
 20
548.6975867651089
 30
0.0
 40
0.0625
  0
CIRCLE
  5
1B5
330
6F
100
AcDbEntity
  8
B-0
  6
Continuous
 62
     4
100
AcDbCircle
 10
1782.695787966555
 20
548.6975867651089
 30
0.0
 40
0.25
  0
CIRCLE
  5
1B6
330
6F
100
AcDbEntity
  8
B-0
  6
Continuous
 62
     4
100
AcDbCircle
 10
1782.695787966555
 20
548.6975867651089
 30
0.0
 40
0.1875
  0
CIRCLE
  5
1B7
330
6F
100
AcDbEntity
  8
B-0
  6
Continuous
 62
     4
100
AcDbCircle
 10
1782.695787966555
 20
548.6975867651089
 30
0.0
 40
0.125
  0
CIRCLE
  5
1B8
330
6F
100
AcDbEntity
  8
B-0
  6
Continuous
 62
     4
100
AcDbCircle
 10
1782.695787966555
 20
548.6975867651089
 30
0.0
 40
0.0625
  0
LINE
  5
1B9
330
6F
100
AcDbEntity
  8
B-0
  6
Continuous
 62
     4
100
AcDbLine
 10
997.695788006075
 20
728.69758651144
 30
0.0
 11
997.695788006075
 21
648.69758651144
 31
0.0
  0
LINE
  5
1BA
330
6F
100
AcDbEntity
  8
B-0
  6
Continuous
 62
     4
100
AcDbLine
 10
1767.695788006075
 20
728.69758651144
 30
0.0
 11
1767.695788006075
 21
648.69758651144
 31
0.0
  0
TEXT
  5
1BB
330
6F
100
AcDbEntity
  8
B-0
 62
     4
100
AcDbText
 10
1351.918
 20
649.3179999999999
 30
0.0
 40
36.288
  1
770
100
AcDbText
  0
LINE
  5
1BC
330
6F
100
AcDbEntity
  8
B-0
  6
Continuous
 62
     4
100
AcDbLine
 10
1767.695787966555
 20
648.6975867651089
 30
0.0
 11
997.6957879665549
 21
648.6975867651089
 31
0.0
  0
CIRCLE
  5
1BD
330
6F
100
AcDbEntity
  8
B-0
  6
Continuous
 62
     4
100
AcDbCircle
 10
1767.695787966555
 20
648.6975867651089
 30
0.0
 40
0.25
  0
CIRCLE
  5
1BE
330
6F
100
AcDbEntity
  8
B-0
  6
Continuous
 62
     4
100
AcDbCircle
 10
1767.695787966555
 20
648.6975867651089
 30
0.0
 40
0.1875
  0
CIRCLE
  5
1BF
330
6F
100
AcDbEntity
  8
B-0
  6
Continuous
 62
     4
100
AcDbCircle
 10
1767.695787966555
 20
648.6975867651089
 30
0.0
 40
0.125
  0
CIRCLE
  5
1C0
330
6F
100
AcDbEntity
  8
B-0
  6
Continuous
 62
     4
100
AcDbCircle
 10
1767.695787966555
 20
648.6975867651089
 30
0.0
 40
0.0625
  0
CIRCLE
  5
1C1
330
6F
100
AcDbEntity
  8
B-0
  6
Continuous
 62
     4
100
AcDbCircle
 10
997.6957879665549
 20
648.6975867651089
 30
0.0
 40
0.25
  0
CIRCLE
  5
1C2
330
6F
100
AcDbEntity
  8
B-0
  6
Continuous
 62
     4
100
AcDbCircle
 10
997.6957879665549
 20
648.6975867651089
 30
0.0
 40
0.1875
  0
CIRCLE
  5
1C3
330
6F
100
AcDbEntity
  8
B-0
  6
Continuous
 62
     4
100
AcDbCircle
 10
997.6957879665549
 20
648.6975867651089
 30
0.0
 40
0.125
  0
CIRCLE
  5
1C4
330
6F
100
AcDbEntity
  8
B-0
  6
Continuous
 62
     4
100
AcDbCircle
 10
997.6957879665549
 20
648.6975867651089
 30
0.0
 40
0.0625
  0
LINE
  5
1C5
330
6F
100
AcDbEntity
  8
B-0
  6
Continuous
 62
     4
100
AcDbLine
 10
966.195788006075
 20
1444.69758651144
 30
0.0
 11
932.8242560060749
 21
1444.69758651144
 31
0.0
  0
LINE
  5
1C6
330
6F
100
AcDbEntity
  8
B-0
  6
Continuous
 62
     4
100
AcDbLine
 10
966.195788006075
 20
1023.69758651144
 30
0.0
 11
932.8242560060749
 21
1023.69758651144
 31
0.0
  0
TEXT
  5
1C7
330
6F
100
AcDbEntity
  8
B-0
 62
     4
100
AcDbText
 10
932.2039999999999
 20
1200.598
 30
0.0
 40
36.288
  1
421
 50
90.0
100
AcDbText
  0
LINE
  5
1C8
330
6F
100
AcDbEntity
  8
B-0
  6
Continuous
 62
     4
100
AcDbLine
 10
932.824255580973
 20
1023.697586765108
 30
0.0
 11
932.824255580973
 21
1444.697586765108
 31
0.0
  0
CIRCLE
  5
1C9
330
6F
100
AcDbEntity
  8
B-0
  6
Continuous
 62
     4
100
AcDbCircle
 10
932.824255580973
 20
1023.697586765108
 30
0.0
 40
0.25
  0
CIRCLE
  5
1CA
330
6F
100
AcDbEntity
  8
B-0
  6
Continuous
 62
     4
100
AcDbCircle
 10
932.824255580973
 20
1023.697586765108
 30
0.0
 40
0.1875
  0
CIRCLE
  5
1CB
330
6F
100
AcDbEntity
  8
B-0
  6
Continuous
 62
     4
100
AcDbCircle
 10
932.824255580973
 20
1023.697586765108
 30
0.0
 40
0.125
  0
CIRCLE
  5
1CC
330
6F
100
AcDbEntity
  8
B-0
  6
Continuous
 62
     4
100
AcDbCircle
 10
932.824255580973
 20
1023.697586765108
 30
0.0
 40
0.0625
  0
CIRCLE
  5
1CD
330
6F
100
AcDbEntity
  8
B-0
  6
Continuous
 62
     4
100
AcDbCircle
 10
932.824255580973
 20
1444.697586765108
 30
0.0
 40
0.25
  0
CIRCLE
  5
1CE
330
6F
100
AcDbEntity
  8
B-0
  6
Continuous
 62
     4
100
AcDbCircle
 10
932.824255580973
 20
1444.697586765108
 30
0.0
 40
0.1875
  0
CIRCLE
  5
1CF
330
6F
100
AcDbEntity
  8
B-0
  6
Continuous
 62
     4
100
AcDbCircle
 10
932.824255580973
 20
1444.697586765108
 30
0.0
 40
0.125
  0
CIRCLE
  5
1D0
330
6F
100
AcDbEntity
  8
B-0
  6
Continuous
 62
     4
100
AcDbCircle
 10
932.824255580973
 20
1444.697586765108
 30
0.0
 40
0.0625
  0
LINE
  5
1D1
330
6F
100
AcDbEntity
  8
4-0
  6
CENTER
 62
     8
100
AcDbLine
 10
1382.695788117636
 20
1444.697586661757
 30
0.0
 11
986.195788117636
 21
1234.197586661757
 31
0.0
  0
LINE
  5
1D2
330
6F
100
AcDbEntity
  8
4-0
  6
CENTER
 62
     8
100
AcDbLine
 10
986.195788117636
 20
1234.197586661757
 30
0.0
 11
1382.695788117636
 21
1023.697586661757
 31
0.0
  0
LINE
  5
1D3
330
6F
100
AcDbEntity
  8
4-0
  6
CENTER
 62
     8
100
AcDbLine
 10
1382.695788117636
 20
1023.697586661757
 30
0.0
 11
1779.195788117636
 21
1234.197586661757
 31
0.0
  0
LINE
  5
1D4
330
6F
100
AcDbEntity
  8
4-0
  6
CENTER
 62
     8
100
AcDbLine
 10
1779.195788117636
 20
1234.197586661757
 30
0.0
 11
1382.695788117636
 21
1444.697586661757
 31
0.0
  0
LINE
  5
1D5
330
6F
100
AcDbEntity
  8
4-0
  6
Continuous
 62
     7
100
AcDbLine
 10
1779.195788117636
 20
1023.697586661757
 30
0.0
 11
986.195788117636
 21
1023.697586661757
 31
0.0
  0
LINE
  5
1D6
330
6F
100
AcDbEntity
  8
E-0
  6
Continuous
 62
     5
100
AcDbLine
 10
3168.365078117636
 20
2705.306023661757
 30
0.0
 11
3168.365078117636
 21
2055.334023661757
 31
0.0
  0
LINE
  5
1D7
330
6F
100
AcDbEntity
  8
E-0
  6
Continuous
 62
     5
100
AcDbLine
 10
3898.688878117636
 20
2705.306023661757
 30
0.0
 11
3898.688878117636
 21
2055.334023661757
 31
0.0
  0
LINE
  5
1D8
330
6F
100
AcDbEntity
  8
E-0
  6
Continuous
 62
     5
100
AcDbLine
 10
2874.493455117636
 20
2705.306023661757
 30
0.0
 11
2874.493455117636
 21
2055.334023661757
 31
0.0
  0
LINE
  5
1D9
330
6F
100
AcDbEntity
  8
E-0
  6
Continuous
 62
     5
100
AcDbLine
 10
3066.896711117636
 20
2705.306023661757
 30
0.0
 11
3066.896711117636
 21
2405.318023661757
 31
0.0
  0
LINE
  5
1DA
330
6F
100
AcDbEntity
  8
E-0
  6
Continuous
 62
     5
100
AcDbLine
 10
2874.493455117636
 20
2105.330023661757
 30
0.0
 11
3898.688878117636
 21
2105.330023661757
 31
0.0
  0
LINE
  5
1DB
330
6F
100
AcDbEntity
  8
E-0
  6
Continuous
 62
     5
100
AcDbLine
 10
2874.493455117636
 20
2055.334023661757
 30
0.0
 11
3898.688878117636
 21
2055.334023661757
 31
0.0
  0
LINE
  5
1DC
330
6F
100
AcDbEntity
  8
E-0
  6
Continuous
 62
     5
100
AcDbLine
 10
2874.493455117636
 20
2255.324023661757
 30
0.0
 11
3898.688878117636
 21
2255.324023661757
 31
0.0
  0
LINE
  5
1DD
330
6F
100
AcDbEntity
  8
E-0
  6
Continuous
 62
     5
100
AcDbLine
 10
2874.493455117636
 20
2155.328023661757
 30
0.0
 11
3898.688878117636
 21
2155.328023661757
 31
0.0
  0
LINE
  5
1DE
330
6F
100
AcDbEntity
  8
E-0
  6
Continuous
 62
     5
100
AcDbLine
 10
2874.493455117636
 20
2205.326023661757
 30
0.0
 11
3898.688878117636
 21
2205.326023661757
 31
0.0
  0
LINE
  5
1DF
330
6F
100
AcDbEntity
  8
E-0
  6
Continuous
 62
     5
100
AcDbLine
 10
2874.493455117636
 20
2505.314023661757
 30
0.0
 11
3898.688878117636
 21
2505.314023661757
 31
0.0
  0
LINE
  5
1E0
330
6F
100
AcDbEntity
  8
E-0
  6
Continuous
 62
     5
100
AcDbLine
 10
2874.493455117636
 20
2605.314023661757
 30
0.0
 11
3898.688878117636
 21
2605.314023661757
 31
0.0
  0
LINE
  5
1E1
330
6F
100
AcDbEntity
  8
E-0
  6
Continuous
 62
     5
100
AcDbLine
 10
2874.493455117636
 20
2405.318023661757
 30
0.0
 11
3898.688878117636
 21
2405.318023661757
 31
0.0
  0
LINE
  5
1E2
330
6F
100
AcDbEntity
  8
E-0
  6
Continuous
 62
     5
100
AcDbLine
 10
2874.493455117636
 20
2355.320023661757
 30
0.0
 11
3898.688878117636
 21
2355.320023661757
 31
0.0
  0
TEXT
  5
1E3
330
6F
100
AcDbEntity
  8
E-0
 62
     5
100
AcDbText
 10
3071.965
 20
2417.763
 30
0.0
 40
25.92
  1
最下部
100
AcDbText
  0
TEXT
  5
1E4
330
6F
100
AcDbEntity
  8
E-0
 62
     5
100
AcDbText
 10
3071.945
 20
2467.761
 30
0.0
 40
25.92
  1
中間棚
100
AcDbText
  0
TEXT
  5
1E5
330
6F
100
AcDbEntity
  8
E-0
 62
     5
100
AcDbText
 10
2914.083
 20
2267.769
 30
0.0
 40
25.92
  1
棚板
100
AcDbText
  0
TEXT
  5
1E6
330
6F
100
AcDbEntity
  8
E-0
 62
     5
100
AcDbText
 10
2914.083
 20
2117.775
 30
0.0
 40
25.92
  1
取っ手
100
AcDbText
  0
TEXT
  5
1E7
330
6F
100
AcDbEntity
  8
E-0
 62
     5
100
AcDbText
 10
2914.083
 20
2067.779
 30
0.0
 40
25.92
  1
棚ダボ
100
AcDbText
  0
TEXT
  5
1E8
330
6F
100
AcDbEntity
  8
E-0
 62
     5
100
AcDbText
 10
2914.083
 20
2167.773
 30
0.0
 40
25.92
  1
丁番
100
AcDbText
  0
TEXT
  5
1E9
330
6F
100
AcDbEntity
  8
E-0
 62
     5
100
AcDbText
 10
2914.083
 20
2217.771
 30
0.0
 40
25.92
  1
木口処理
100
AcDbText
  0
TEXT
  5
1EA
330
6F
100
AcDbEntity
  8
E-0
 62
     5
100
AcDbText
 10
2914.083
 20
2367.765
 30
0.0
 40
25.92
  1
扉
100
AcDbText
  0
TEXT
  5
1EB
330
6F
100
AcDbEntity
  8
E-0
 62
     5
100
AcDbText
 10
2914.083
 20
2317.767
 30
0.0
 40
25.92
  1
背板
100
AcDbText
  0
TEXT
  5
1EC
330
6F
100
AcDbEntity
  8
E-0
 62
     5
100
AcDbText
 10
2914.083
 20
2467.761
 30
0.0
 40
25.92
  1
地板
100
AcDbText
  0
TEXT
  5
1ED
330
6F
100
AcDbEntity
  8
E-0
 62
     5
100
AcDbText
 10
3198.492
 20
2267.769
 30
0.0
 40
25.92
  1
プレコートパーチクルボード
100
AcDbText
  0
TEXT
  5
1EE
330
6F
100
AcDbEntity
  8
E-0
 62
     5
100
AcDbText
 10
3198.492
 20
2117.775
 30
0.0
 40
25.92
  1
レバーラッチ
100
AcDbText
  0
TEXT
  5
1EF
330
6F
100
AcDbEntity
  8
E-0
 62
     5
100
AcDbText
 10
3198.492
 20
2217.771
 30
0.0
 40
25.92
  1
同系色エッジテープ貼り
100
AcDbText
  0
TEXT
  5
1F0
330
6F
100
AcDbEntity
  8
E-0
 62
     5
100
AcDbText
 10
3086.835
 20
2667.753
 30
0.0
 40
25.92
  1
外部
100
AcDbText
  0
TEXT
  5
1F1
330
6F
100
AcDbEntity
  8
E-0
 62
     5
100
AcDbText
 10
3086.835
 20
2617.755
 30
0.0
 40
25.92
  1
内部
100
AcDbText
  0
TEXT
  5
1F2
330
6F
100
AcDbEntity
  8
E-0
 62
     5
100
AcDbText
 10
3086.835
 20
2567.757
 30
0.0
 40
25.92
  1
外部
100
AcDbText
  0
TEXT
  5
1F3
330
6F
100
AcDbEntity
  8
E-0
 62
     5
100
AcDbText
 10
3086.835
 20
2517.759
 30
0.0
 40
25.92
  1
内部
100
AcDbText
  0
LINE
  5
1F4
330
6F
100
AcDbEntity
  8
E-0
  6
Continuous
 62
     5
100
AcDbLine
 10
2874.493455117636
 20
2705.306023661757
 30
0.0
 11
3898.688878117636
 21
2705.306023661757
 31
0.0
  0
TEXT
  5
1F5
330
6F
100
AcDbEntity
  8
E-0
 62
     5
100
AcDbText
 10
2914.083
 20
2567.757
 30
0.0
 40
25.92
  1
天板
100
AcDbText
  0
TEXT
  5
1F6
330
6F
100
AcDbEntity
  8
E-0
 62
     5
100
AcDbText
 10
2914.083
 20
2667.753
 30
0.0
 40
25.92
  1
側板
100
AcDbText
  0
LINE
  5
1F7
330
6F
100
AcDbEntity
  8
E-0
  6
Continuous
 62
     5
100
AcDbLine
 10
2874.493455117636
 20
2305.322023661757
 30
0.0
 11
3898.688878117636
 21
2305.322023661757
 31
0.0
  0
TEXT
  5
1F8
330
6F
100
AcDbEntity
  8
E-0
 62
     5
100
AcDbText
 10
3199.132
 20
2637.656
 30
0.0
 40
25.92
  1
プレコートパーチクルボード
100
AcDbText
  0
TEXT
  5
1F9
330
6F
100
AcDbEntity
  8
E-0
 62
     5
100
AcDbText
 10
3197.91
 20
2421.679000000001
 30
0.0
 40
25.92
  1
ポリ合板
100
AcDbText
  0
TEXT
  5
1FA
330
6F
100
AcDbEntity
  8
E-0
 62
     5
100
AcDbText
 10
3198.483
 20
2367.037
 30
0.0
 40
25.92
  1
プレコートパーチクルボード　鏡面仕上げ
100
AcDbText
  0
TEXT
  5
1FB
330
6F
100
AcDbEntity
  8
E-0
 62
     5
100
AcDbText
 10
3206.948
 20
2065.703
 30
0.0
 40
25.92
  1
L型差込ダボ、32ｍｍピッチ
100
AcDbText
  0
TEXT
  5
1FC
330
6F
100
AcDbEntity
  8
E-0
 62
     5
100
AcDbText
 10
2915.441
 20
1953.893
 30
0.0
 40
25.92
  1
※　弊社製品はすべてF☆☆☆☆に対応しております。
100
AcDbText
  0
TEXT
  5
1FD
330
6F
100
AcDbEntity
  8
E-0
 62
     5
100
AcDbText
 10
3198.593
 20
2167.38
 30
0.0
 40
25.92
  1
スライドヒンジ
100
AcDbText
  0
TEXT
  5
1FE
330
6F
100
AcDbEntity
  8
E-0
 62
     5
100
AcDbText
 10
3195.431
 20
2541.978
 30
0.0
 40
25.92
  1
プレコートパーチクルボード
100
AcDbText
  0
TEXT
  5
1FF
330
6F
100
AcDbEntity
  8
E-0
 62
     5
100
AcDbText
 10
3968.458
 20
48.743
 30
0.0
 40
31.104
  1
2022.12
100
AcDbText
  0
LINE
  5
200
330
6F
100
AcDbEntity
  8
4-0
  6
Continuous
 62
     7
100
AcDbLine
 10
2882.689561117636
 20
1448.697586661757
 30
0.0
 11
2882.689561117636
 21
1048.697586661757
 31
0.0
  0
LINE
  5
201
330
6F
100
AcDbEntity
  8
4-0
  6
DASHED2
 62
     7
100
AcDbLine
 10
2897.189561117636
 20
1448.697586661757
 30
0.0
 11
2897.189561117636
 21
1048.697586661757
 31
0.0
  0
LINE
  5
202
330
6F
100
AcDbEntity
  8
4-0
  6
DASHED2
 62
     7
100
AcDbLine
 10
2899.689561117636
 20
1448.697586661757
 30
0.0
 11
2899.689561117636
 21
1048.697586661757
 31
0.0
  0
LINE
  5
203
330
6F
100
AcDbEntity
  8
4-0
  6
Continuous
 62
     7
100
AcDbLine
 10
3247.689561117636
 20
1448.697586661757
 30
0.0
 11
3247.689561117636
 21
1048.697586661757
 31
0.0
  0
LINE
  5
204
330
6F
100
AcDbEntity
  8
4-0
  6
Continuous
 62
     7
100
AcDbLine
 10
2882.689561117636
 20
1448.697586661757
 30
0.0
 11
3247.689561117636
 21
1448.697586661757
 31
0.0
  0
LINE
  5
205
330
6F
100
AcDbEntity
  8
4-0
  6
DASHED2
 62
     7
100
AcDbLine
 10
2882.689561117636
 20
1383.697586661757
 30
0.0
 11
2897.189561117636
 21
1383.697586661757
 31
0.0
  0
LINE
  5
206
330
6F
100
AcDbEntity
  8
4-0
  6
DASHED2
 62
     7
100
AcDbLine
 10
2900.189561117636
 20
1433.697586661757
 30
0.0
 11
3247.689561117636
 21
1433.697586661757
 31
0.0
  0
LINE
  5
207
330
6F
100
AcDbEntity
  8
4-0
  6
DASHED2
 62
     7
100
AcDbLine
 10
2900.189561117636
 20
1433.697586661757
 30
0.0
 11
3247.689561117636
 21
1433.697586661757
 31
0.0
  0
LINE
  5
208
330
6F
100
AcDbEntity
  8
4-0
  6
Continuous
 62
     7
100
AcDbLine
 10
3222.689561117636
 20
1048.697586661757
 30
0.0
 11
3247.689561117636
 21
1048.697586661757
 31
0.0
  0
LINE
  5
209
330
6F
100
AcDbEntity
  8
4-0
  6
DASHED2
 62
     7
100
AcDbLine
 10
2900.189561117636
 20
1063.697586661757
 30
0.0
 11
3247.689561117636
 21
1063.697586661757
 31
0.0
  0
LINE
  5
20A
330
6F
100
AcDbEntity
  8
4-0
  6
Continuous
 62
     7
100
AcDbLine
 10
2882.689561117636
 20
1048.697586661757
 30
0.0
 11
2882.689561117636
 21
748.697586661757
 31
0.0
  0
LINE
  5
20B
330
6F
100
AcDbEntity
  8
4-0
  6
DASHED2
 62
     7
100
AcDbLine
 10
2897.189561117636
 20
1048.697586661757
 30
0.0
 11
2897.189561117636
 21
766.1975866617571
 31
0.0
  0
LINE
  5
20C
330
6F
100
AcDbEntity
  8
4-0
  6
DASHED2
 62
     7
100
AcDbLine
 10
2899.689561117636
 20
1048.697586661757
 30
0.0
 11
2899.689561117636
 21
766.1975866617571
 31
0.0
  0
LINE
  5
20D
330
6F
100
AcDbEntity
  8
4-0
  6
Continuous
 62
     7
100
AcDbLine
 10
3182.689561117636
 20
778.6975866617571
 30
0.0
 11
3182.689561117636
 21
1008.697586661757
 31
0.0
  0
ARC
  5
20E
330
6F
100
AcDbEntity
  8
4-0
  6
Continuous
 62
     7
100
AcDbCircle
 10
3222.689561117636
 20
1008.697586661757
 30
0.0
 40
40.0
100
AcDbArc
 50
90.0
 51
180.0
  0
LINE
  5
20F
330
6F
100
AcDbEntity
  8
4-0
  6
DASHED2
 62
     7
100
AcDbLine
 10
3202.689561117636
 20
1048.697586661757
 30
0.0
 11
2882.689561117636
 21
1048.697586661757
 31
0.0
  0
LINE
  5
210
330
6F
100
AcDbEntity
  8
4-0
  6
DASHED2
 62
     7
100
AcDbLine
 10
2897.189561117636
 20
1118.697586661757
 30
0.0
 11
2882.689561117636
 21
1118.697586661757
 31
0.0
  0
LINE
  5
211
330
6F
100
AcDbEntity
  8
4-0
  6
Continuous
 62
     7
100
AcDbLine
 10
3247.689561117636
 20
1448.697586661757
 30
0.0
 11
3247.689561117636
 21
1444.697586661757
 31
0.0
  0
LINE
  5
212
330
6F
100
AcDbEntity
  8
4-0
  6
Continuous
 62
     7
100
AcDbLine
 10
3249.689561117636
 20
1444.697586661757
 30
0.0
 11
3249.689561117636
 21
1049.697586661757
 31
0.0
  0
LINE
  5
213
330
6F
100
AcDbEntity
  8
4-0
  6
Continuous
 62
     7
100
AcDbLine
 10
3264.689561117636
 20
1049.697586661757
 30
0.0
 11
3264.689561117636
 21
1444.697586661757
 31
0.0
  0
LINE
  5
214
330
6F
100
AcDbEntity
  8
4-0
  6
Continuous
 62
     7
100
AcDbLine
 10
3264.689561117636
 20
1444.697586661757
 30
0.0
 11
3249.689561117636
 21
1444.697586661757
 31
0.0
  0
LINE
  5
215
330
6F
100
AcDbEntity
  8
4-0
  6
Continuous
 62
     7
100
AcDbLine
 10
2882.689561117636
 20
748.697586661757
 30
0.0
 11
3152.689561117636
 21
748.697586661757
 31
0.0
  0
ARC
  5
216
330
6F
100
AcDbEntity
  8
4-0
  6
Continuous
 62
     7
100
AcDbCircle
 10
3152.689561117636
 20
778.6975866617571
 30
0.0
 40
30.0
100
AcDbArc
 50
270.0
 51
0.0
  0
LINE
  5
217
330
6F
100
AcDbEntity
  8
4-0
  6
DASHED2
 62
     7
100
AcDbLine
 10
2882.689561117636
 20
765.6975866617571
 30
0.0
 11
3122.689561117636
 21
765.6975866617571
 31
0.0
  0
LINE
  5
218
330
6F
100
AcDbEntity
  8
4-0
  6
DASHED2
 62
     7
100
AcDbLine
 10
2882.689561117636
 20
785.697586661757
 30
0.0
 11
2897.189561117636
 21
785.697586661757
 31
0.0
  0
LINE
  5
219
330
6F
100
AcDbEntity
  8
B-0
  6
Continuous
 62
     4
100
AcDbLine
 10
3247.689561006075
 20
1468.69758651144
 30
0.0
 11
3247.689561006075
 21
1548.43654451144
 31
0.0
  0
LINE
  5
21A
330
6F
100
AcDbEntity
  8
B-0
  6
Continuous
 62
     4
100
AcDbLine
 10
3249.689561006075
 20
1464.69758651144
 30
0.0
 11
3249.689561006075
 21
1548.43654451144
 31
0.0
  0
LINE
  5
21B
330
6F
100
AcDbEntity
  8
B-0
  6
Continuous
 62
     4
100
AcDbLine
 10
3237.689561006075
 20
1548.43654451144
 30
0.0
 11
3227.689561006075
 21
1548.43654451144
 31
0.0
  0
LINE
  5
21C
330
6F
100
AcDbEntity
  8
B-0
  6
Continuous
 62
     4
100
AcDbLine
 10
3259.689561006075
 20
1548.43654451144
 30
0.0
 11
3269.689561006075
 21
1548.43654451144
 31
0.0
  0
LINE
  5
21D
330
6F
100
AcDbEntity
  8
B-0
  6
Continuous
 62
     4
100
AcDbLine
 10
3248.689561006075
 20
1548.43654451144
 30
0.0
 11
3233.928890006075
 21
1577.13937351144
 31
0.0
  0
LINE
  5
21E
330
6F
100
AcDbEntity
  8
B-0
  6
Continuous
 62
     4
100
AcDbLine
 10
3233.928890006075
 20
1577.13937351144
 30
0.0
 11
3195.807063006075
 21
1577.13937351144
 31
0.0
  0
TEXT
  5
21F
330
6F
100
AcDbEntity
  8
B-0
 62
     4
100
AcDbText
 10
3206.49
 20
1577.759
 30
0.0
 40
36.288
  1
2
100
AcDbText
  0
LINE
  5
220
330
6F
100
AcDbEntity
  8
B-0
  6
Continuous
 62
     4
100
AcDbLine
 10
3247.689561006075
 20
1548.43654451144
 30
0.0
 11
3249.689561006075
 21
1548.43654451144
 31
0.0
  0
LINE
  5
221
330
6F
100
AcDbEntity
  8
B-0
  6
Continuous
 62
     4
100
AcDbLine
 10
3247.689561006075
 20
1548.43654451144
 30
0.0
 11
3249.689561006075
 21
1548.43654451144
 31
0.0
  0
CIRCLE
  5
222
330
6F
100
AcDbEntity
  8
B-0
  6
Continuous
 62
     4
100
AcDbCircle
 10
3247.689561137671
 20
1548.436544448488
 30
0.0
 40
0.25
  0
CIRCLE
  5
223
330
6F
100
AcDbEntity
  8
B-0
  6
Continuous
 62
     4
100
AcDbCircle
 10
3247.689561137671
 20
1548.436544448488
 30
0.0
 40
0.1875
  0
CIRCLE
  5
224
330
6F
100
AcDbEntity
  8
B-0
  6
Continuous
 62
     4
100
AcDbCircle
 10
3247.689561137671
 20
1548.436544448488
 30
0.0
 40
0.125
  0
CIRCLE
  5
225
330
6F
100
AcDbEntity
  8
B-0
  6
Continuous
 62
     4
100
AcDbCircle
 10
3247.689561137671
 20
1548.436544448488
 30
0.0
 40
0.0625
  0
ARC
  5
226
330
6F
100
AcDbEntity
  8
B-0
 62
     4
100
AcDbCircle
 10
3247.689561137671
 20
1548.441544448488
 30
0.0
 40
2.5
100
AcDbArc
 50
0.1145914065300158
 51
180.114591405945
  0
LINE
  5
227
330
6F
100
AcDbEntity
  8
B-0
 62
     4
100
AcDbLine
 10
3242.689561137671
 20
1548.436544448488
 30
0.0
 11
3237.689561137671
 21
1548.436544448488
 31
0.0
  0
CIRCLE
  5
228
330
6F
100
AcDbEntity
  8
B-0
  6
Continuous
 62
     4
100
AcDbCircle
 10
3249.689561137672
 20
1548.436544448488
 30
0.0
 40
0.25
  0
CIRCLE
  5
229
330
6F
100
AcDbEntity
  8
B-0
  6
Continuous
 62
     4
100
AcDbCircle
 10
3249.689561137672
 20
1548.436544448488
 30
0.0
 40
0.1875
  0
CIRCLE
  5
22A
330
6F
100
AcDbEntity
  8
B-0
  6
Continuous
 62
     4
100
AcDbCircle
 10
3249.689561137672
 20
1548.436544448488
 30
0.0
 40
0.125
  0
CIRCLE
  5
22B
330
6F
100
AcDbEntity
  8
B-0
  6
Continuous
 62
     4
100
AcDbCircle
 10
3249.689561137672
 20
1548.436544448488
 30
0.0
 40
0.0625
  0
ARC
  5
22C
330
6F
100
AcDbEntity
  8
B-0
 62
     4
100
AcDbCircle
 10
3249.689561137672
 20
1548.431544448488
 30
0.0
 40
2.5
100
AcDbArc
 50
180.1145914065301
 51
0.1145914059449637
  0
LINE
  5
22D
330
6F
100
AcDbEntity
  8
B-0
 62
     4
100
AcDbLine
 10
3254.689561137672
 20
1548.436544448539
 30
0.0
 11
3259.689561137673
 21
1548.43654444859
 31
0.0
  0
LINE
  5
22E
330
6F
100
AcDbEntity
  8
B-0
  6
Continuous
 62
     4
100
AcDbLine
 10
2882.689561006074
 20
1468.69758651144
 30
0.0
 11
2882.689561006074
 21
1655.22330551144
 31
0.0
  0
LINE
  5
22F
330
6F
100
AcDbEntity
  8
B-0
  6
Continuous
 62
     4
100
AcDbLine
 10
3264.689561006075
 20
1464.69758651144
 30
0.0
 11
3264.689561006075
 21
1655.22330551144
 31
0.0
  0
TEXT
  5
230
330
6F
100
AcDbEntity
  8
B-0
 62
     4
100
AcDbText
 10
3042.912000000001
 20
1655.843
 30
0.0
 40
36.288
  1
382
100
AcDbText
  0
LINE
  5
231
330
6F
100
AcDbEntity
  8
B-0
  6
Continuous
 62
     4
100
AcDbLine
 10
3264.689561137671
 20
1655.223305444285
 30
0.0
 11
2882.689561137671
 21
1655.223305444285
 31
0.0
  0
CIRCLE
  5
232
330
6F
100
AcDbEntity
  8
B-0
  6
Continuous
 62
     4
100
AcDbCircle
 10
3264.689561137671
 20
1655.223305444285
 30
0.0
 40
0.25
  0
CIRCLE
  5
233
330
6F
100
AcDbEntity
  8
B-0
  6
Continuous
 62
     4
100
AcDbCircle
 10
3264.689561137671
 20
1655.223305444285
 30
0.0
 40
0.1875
  0
CIRCLE
  5
234
330
6F
100
AcDbEntity
  8
B-0
  6
Continuous
 62
     4
100
AcDbCircle
 10
3264.689561137671
 20
1655.223305444285
 30
0.0
 40
0.125
  0
CIRCLE
  5
235
330
6F
100
AcDbEntity
  8
B-0
  6
Continuous
 62
     4
100
AcDbCircle
 10
3264.689561137671
 20
1655.223305444285
 30
0.0
 40
0.0625
  0
CIRCLE
  5
236
330
6F
100
AcDbEntity
  8
B-0
  6
Continuous
 62
     4
100
AcDbCircle
 10
2882.689561137671
 20
1655.223305444285
 30
0.0
 40
0.25
  0
CIRCLE
  5
237
330
6F
100
AcDbEntity
  8
B-0
  6
Continuous
 62
     4
100
AcDbCircle
 10
2882.689561137671
 20
1655.223305444285
 30
0.0
 40
0.1875
  0
CIRCLE
  5
238
330
6F
100
AcDbEntity
  8
B-0
  6
Continuous
 62
     4
100
AcDbCircle
 10
2882.689561137671
 20
1655.223305444285
 30
0.0
 40
0.125
  0
CIRCLE
  5
239
330
6F
100
AcDbEntity
  8
B-0
  6
Continuous
 62
     4
100
AcDbCircle
 10
2882.689561137671
 20
1655.223305444285
 30
0.0
 40
0.0625
  0
CIRCLE
  5
23A
330
6F
100
AcDbEntity
  8
4-0
  6
Continuous
 62
     7
100
AcDbCircle
 10
2940.189561117636
 20
1264.197586661757
 30
0.0
 40
2.5
  0
CIRCLE
  5
23B
330
6F
100
AcDbEntity
  8
4-0
  6
Continuous
 62
     7
100
AcDbCircle
 10
3176.189561117636
 20
1264.197586661757
 30
0.0
 40
2.5
  0
CIRCLE
  5
23C
330
6F
100
AcDbEntity
  8
4-0
  6
Continuous
 62
     7
100
AcDbCircle
 10
2940.189561117636
 20
1296.197586661757
 30
0.0
 40
2.5
  0
CIRCLE
  5
23D
330
6F
100
AcDbEntity
  8
4-0
  6
Continuous
 62
     7
100
AcDbCircle
 10
3176.189561117636
 20
1296.197586661757
 30
0.0
 40
2.5
  0
CIRCLE
  5
23E
330
6F
100
AcDbEntity
  8
4-0
  6
Continuous
 62
     7
100
AcDbCircle
 10
2940.189561117636
 20
1232.197586661757
 30
0.0
 40
2.5
  0
CIRCLE
  5
23F
330
6F
100
AcDbEntity
  8
4-0
  6
Continuous
 62
     7
100
AcDbCircle
 10
3176.189561117636
 20
1232.197586661757
 30
0.0
 40
2.5
  0
LINE
  5
240
330
6F
100
AcDbEntity
  8
1-0
  6
DASHED2
 62
     7
100
AcDbLine
 10
2900.189561117636
 20
1266.697586661757
 30
0.0
 11
3190.189561117636
 21
1266.697586661757
 31
0.0
  0
LINE
  5
241
330
6F
100
AcDbEntity
  8
1-0
  6
DASHED2
 62
     7
100
AcDbLine
 10
2900.189561117636
 20
1283.697586661757
 30
0.0
 11
3190.189561117636
 21
1283.697586661757
 31
0.0
  0
LINE
  5
242
330
6F
100
AcDbEntity
  8
1-0
  6
DASHED2
 62
     7
100
AcDbLine
 10
3190.189561117636
 20
1283.697586661757
 30
0.0
 11
3190.189561117636
 21
1266.697586661757
 31
0.0
  0
CIRCLE
  5
243
330
6F
100
AcDbEntity
  8
1-0
  6
Continuous
 62
     7
100
AcDbCircle
 10
2929.689561117636
 20
905.1975866617571
 30
0.0
 40
2.5
  0
LINE
  5
244
330
6F
100
AcDbEntity
  8
4-0
  6
DASHED2
 62
     7
100
AcDbLine
 10
3122.689561117636
 20
765.6975866617571
 30
0.0
 11
3122.689561117636
 21
748.697586661757
 31
0.0
  0
CIRCLE
  5
245
330
6F
100
AcDbEntity
  8
4-0
  6
Continuous
 62
     7
100
AcDbCircle
 10
3107.689561117636
 20
905.1975866617571
 30
0.0
 40
2.5
  0
CIRCLE
  5
246
330
6F
100
AcDbEntity
  8
4-0
  6
Continuous
 62
     7
100
AcDbCircle
 10
2929.689561117636
 20
937.1975866617571
 30
0.0
 40
2.5
  0
CIRCLE
  5
247
330
6F
100
AcDbEntity
  8
4-0
  6
Continuous
 62
     7
100
AcDbCircle
 10
3107.689561117636
 20
937.1975866617571
 30
0.0
 40
2.5
  0
CIRCLE
  5
248
330
6F
100
AcDbEntity
  8
4-0
  6
Continuous
 62
     7
100
AcDbCircle
 10
2929.689561117636
 20
873.197586661757
 30
0.0
 40
2.5
  0
CIRCLE
  5
249
330
6F
100
AcDbEntity
  8
4-0
  6
Continuous
 62
     7
100
AcDbCircle
 10
3107.689561117636
 20
873.197586661757
 30
0.0
 40
2.5
  0
LINE
  5
24A
330
6F
100
AcDbEntity
  8
4-0
  6
DASHED2
 62
     7
100
AcDbLine
 10
2899.689561117636
 20
907.6975866617571
 30
0.0
 11
3122.189561117636
 21
907.6975866617571
 31
0.0
  0
LINE
  5
24B
330
6F
100
AcDbEntity
  8
4-0
  6
DASHED2
 62
     7
100
AcDbLine
 10
2899.689561117636
 20
922.6975866617571
 30
0.0
 11
3122.189561117636
 21
922.6975866617571
 31
0.0
  0
LINE
  5
24C
330
6F
100
AcDbEntity
  8
4-0
  6
DASHED2
 62
     7
100
AcDbLine
 10
3122.189561117636
 20
922.6975866617571
 30
0.0
 11
3122.189561117636
 21
907.6975866617571
 31
0.0
  0
LINE
  5
24D
330
6F
100
AcDbEntity
  8
4-0
  6
DASHED2
 62
     7
100
AcDbLine
 10
2897.189561117636
 20
1448.697586661757
 30
0.0
 11
2882.689561117636
 21
1383.697586661757
 31
0.0
  0
LINE
  5
24E
330
6F
100
AcDbEntity
  8
4-0
  6
DASHED2
 62
     7
100
AcDbLine
 10
2897.189561117636
 20
785.697586661757
 30
0.0
 11
2882.689561117636
 21
765.6975866617571
 31
0.0
  0
CIRCLE
  5
24F
330
6F
100
AcDbEntity
  8
4-0
  6
Continuous
 62
     7
100
AcDbCircle
 10
3162.689561117636
 20
778.6975866617571
 30
0.0
 40
9.5
  0
LINE
  5
250
330
6F
100
AcDbEntity
  8
B-0
  6
Continuous
 62
     4
100
AcDbLine
 10
2900.189561006074
 20
1246.69758651144
 30
0.0
 11
2900.189561006074
 21
1195.53159751144
 31
0.0
  0
LINE
  5
251
330
6F
100
AcDbEntity
  8
B-0
  6
Continuous
 62
     4
100
AcDbLine
 10
3190.189561006075
 20
1246.69758651144
 30
0.0
 11
3190.189561006075
 21
1195.53159751144
 31
0.0
  0
TEXT
  5
252
330
6F
100
AcDbEntity
  8
B-0
 62
     4
100
AcDbText
 10
3014.412
 20
1196.152
 30
0.0
 40
36.288
  1
290
100
AcDbText
  0
LINE
  5
253
330
6F
100
AcDbEntity
  8
B-0
  6
Continuous
 62
     4
100
AcDbLine
 10
3190.189561137671
 20
1195.531597588436
 30
0.0
 11
2900.189561137671
 21
1195.531597588436
 31
0.0
  0
CIRCLE
  5
254
330
6F
100
AcDbEntity
  8
B-0
  6
Continuous
 62
     4
100
AcDbCircle
 10
3190.189561137671
 20
1195.531597588436
 30
0.0
 40
0.25
  0
CIRCLE
  5
255
330
6F
100
AcDbEntity
  8
B-0
  6
Continuous
 62
     4
100
AcDbCircle
 10
3190.189561137671
 20
1195.531597588436
 30
0.0
 40
0.1875
  0
CIRCLE
  5
256
330
6F
100
AcDbEntity
  8
B-0
  6
Continuous
 62
     4
100
AcDbCircle
 10
3190.189561137671
 20
1195.531597588436
 30
0.0
 40
0.125
  0
CIRCLE
  5
257
330
6F
100
AcDbEntity
  8
B-0
  6
Continuous
 62
     4
100
AcDbCircle
 10
3190.189561137671
 20
1195.531597588436
 30
0.0
 40
0.0625
  0
CIRCLE
  5
258
330
6F
100
AcDbEntity
  8
B-0
  6
Continuous
 62
     4
100
AcDbCircle
 10
2900.189561137671
 20
1195.531597588436
 30
0.0
 40
0.25
  0
CIRCLE
  5
259
330
6F
100
AcDbEntity
  8
B-0
  6
Continuous
 62
     4
100
AcDbCircle
 10
2900.189561137671
 20
1195.531597588436
 30
0.0
 40
0.1875
  0
CIRCLE
  5
25A
330
6F
100
AcDbEntity
  8
B-0
  6
Continuous
 62
     4
100
AcDbCircle
 10
2900.189561137671
 20
1195.531597588436
 30
0.0
 40
0.125
  0
CIRCLE
  5
25B
330
6F
100
AcDbEntity
  8
B-0
  6
Continuous
 62
     4
100
AcDbCircle
 10
2900.189561137671
 20
1195.531597588436
 30
0.0
 40
0.0625
  0
LINE
  5
25C
330
6F
100
AcDbEntity
  8
B-0
  6
Continuous
 62
     4
100
AcDbLine
 10
2899.689561006075
 20
887.6975865114401
 30
0.0
 11
2899.689561006075
 21
842.7375505114399
 31
0.0
  0
LINE
  5
25D
330
6F
100
AcDbEntity
  8
B-0
  6
Continuous
 62
     4
100
AcDbLine
 10
3122.189561006075
 20
887.44758651144
 30
0.0
 11
3122.189561006075
 21
842.7375505114399
 31
0.0
  0
TEXT
  5
25E
330
6F
100
AcDbEntity
  8
B-0
 62
     4
100
AcDbText
 10
2957.762000000001
 20
843.358
 30
0.0
 40
36.288
  1
222.5
100
AcDbText
  0
LINE
  5
25F
330
6F
100
AcDbEntity
  8
B-0
  6
Continuous
 62
     4
100
AcDbLine
 10
3122.189561137671
 20
842.7375503325869
 30
0.0
 11
2899.689561137671
 21
842.7375503325869
 31
0.0
  0
CIRCLE
  5
260
330
6F
100
AcDbEntity
  8
B-0
  6
Continuous
 62
     4
100
AcDbCircle
 10
3122.189561137671
 20
842.7375503325869
 30
0.0
 40
0.25
  0
CIRCLE
  5
261
330
6F
100
AcDbEntity
  8
B-0
  6
Continuous
 62
     4
100
AcDbCircle
 10
3122.189561137671
 20
842.7375503325869
 30
0.0
 40
0.1875
  0
CIRCLE
  5
262
330
6F
100
AcDbEntity
  8
B-0
  6
Continuous
 62
     4
100
AcDbCircle
 10
3122.189561137671
 20
842.7375503325869
 30
0.0
 40
0.125
  0
CIRCLE
  5
263
330
6F
100
AcDbEntity
  8
B-0
  6
Continuous
 62
     4
100
AcDbCircle
 10
3122.189561137671
 20
842.7375503325869
 30
0.0
 40
0.0625
  0
CIRCLE
  5
264
330
6F
100
AcDbEntity
  8
B-0
  6
Continuous
 62
     4
100
AcDbCircle
 10
2899.689561137671
 20
842.7375503325869
 30
0.0
 40
0.25
  0
CIRCLE
  5
265
330
6F
100
AcDbEntity
  8
B-0
  6
Continuous
 62
     4
100
AcDbCircle
 10
2899.689561137671
 20
842.7375503325869
 30
0.0
 40
0.1875
  0
CIRCLE
  5
266
330
6F
100
AcDbEntity
  8
B-0
  6
Continuous
 62
     4
100
AcDbCircle
 10
2899.689561137671
 20
842.7375503325869
 30
0.0
 40
0.125
  0
CIRCLE
  5
267
330
6F
100
AcDbEntity
  8
B-0
  6
Continuous
 62
     4
100
AcDbCircle
 10
2899.689561137671
 20
842.7375503325869
 30
0.0
 40
0.0625
  0
LINE
  5
268
330
6F
100
AcDbEntity
  8
4-0
  6
DASHED2
 62
     7
100
AcDbLine
 10
2897.189561117636
 20
1118.697586661757
 30
0.0
 11
2882.689561117636
 21
1048.697586661757
 31
0.0
  0
LINE
  5
269
330
6F
100
AcDbEntity
  8
B-0
  6
Continuous
 62
     4
100
AcDbLine
 10
3249.689561006075
 20
1464.69758651144
 30
0.0
 11
3249.689561006075
 21
1548.43654451144
 31
0.0
  0
LINE
  5
26A
330
6F
100
AcDbEntity
  8
B-0
  6
Continuous
 62
     4
100
AcDbLine
 10
3264.689561006075
 20
1464.69758651144
 30
0.0
 11
3264.689561006075
 21
1548.43654451144
 31
0.0
  0
LINE
  5
26B
330
6F
100
AcDbEntity
  8
B-0
  6
Continuous
 62
     4
100
AcDbLine
 10
3239.689561006075
 20
1548.43654451144
 30
0.0
 11
3229.689561006074
 21
1548.43654451144
 31
0.0
  0
LINE
  5
26C
330
6F
100
AcDbEntity
  8
B-0
  6
Continuous
 62
     4
100
AcDbLine
 10
3274.689561006075
 20
1548.43654451144
 30
0.0
 11
3284.689561006075
 21
1548.43654451144
 31
0.0
  0
LINE
  5
26D
330
6F
100
AcDbEntity
  8
B-0
  6
Continuous
 62
     4
100
AcDbLine
 10
3257.189561006075
 20
1548.43654451144
 30
0.0
 11
3274.717267006075
 21
1576.62447051144
 31
0.0
  0
LINE
  5
26E
330
6F
100
AcDbEntity
  8
B-0
  6
Continuous
 62
     4
100
AcDbLine
 10
3274.717267006075
 20
1576.62447051144
 30
0.0
 11
3333.092902006075
 21
1576.62447051144
 31
0.0
  0
TEXT
  5
26F
330
6F
100
AcDbEntity
  8
B-0
 62
     4
100
AcDbText
 10
3284.327000000001
 20
1577.244
 30
0.0
 40
36.288
  1
15
100
AcDbText
  0
LINE
  5
270
330
6F
100
AcDbEntity
  8
B-0
  6
Continuous
 62
     4
100
AcDbLine
 10
3249.689561006075
 20
1548.43654451144
 30
0.0
 11
3264.689561006075
 21
1548.43654451144
 31
0.0
  0
LINE
  5
271
330
6F
100
AcDbEntity
  8
B-0
  6
Continuous
 62
     4
100
AcDbLine
 10
3249.689561006075
 20
1548.43654451144
 30
0.0
 11
3264.689561006075
 21
1548.43654451144
 31
0.0
  0
CIRCLE
  5
272
330
6F
100
AcDbEntity
  8
B-0
  6
Continuous
 62
     4
100
AcDbCircle
 10
3249.689561137672
 20
1548.436544448488
 30
0.0
 40
0.25
  0
CIRCLE
  5
273
330
6F
100
AcDbEntity
  8
B-0
  6
Continuous
 62
     4
100
AcDbCircle
 10
3249.689561137672
 20
1548.436544448488
 30
0.0
 40
0.1875
  0
CIRCLE
  5
274
330
6F
100
AcDbEntity
  8
B-0
  6
Continuous
 62
     4
100
AcDbCircle
 10
3249.689561137672
 20
1548.436544448488
 30
0.0
 40
0.125
  0
CIRCLE
  5
275
330
6F
100
AcDbEntity
  8
B-0
  6
Continuous
 62
     4
100
AcDbCircle
 10
3249.689561137672
 20
1548.436544448488
 30
0.0
 40
0.0625
  0
ARC
  5
276
330
6F
100
AcDbEntity
  8
B-0
 62
     4
100
AcDbCircle
 10
3249.689561137672
 20
1548.441544448488
 30
0.0
 40
2.5
100
AcDbArc
 50
0.1145914065300158
 51
180.114591405945
  0
LINE
  5
277
330
6F
100
AcDbEntity
  8
B-0
 62
     4
100
AcDbLine
 10
3244.689561137672
 20
1548.436544448488
 30
0.0
 11
3239.689561137672
 21
1548.436544448488
 31
0.0
  0
CIRCLE
  5
278
330
6F
100
AcDbEntity
  8
B-0
  6
Continuous
 62
     4
100
AcDbCircle
 10
3264.689561137671
 20
1548.436544448488
 30
0.0
 40
0.25
  0
CIRCLE
  5
279
330
6F
100
AcDbEntity
  8
B-0
  6
Continuous
 62
     4
100
AcDbCircle
 10
3264.689561137671
 20
1548.436544448488
 30
0.0
 40
0.1875
  0
CIRCLE
  5
27A
330
6F
100
AcDbEntity
  8
B-0
  6
Continuous
 62
     4
100
AcDbCircle
 10
3264.689561137671
 20
1548.436544448488
 30
0.0
 40
0.125
  0
CIRCLE
  5
27B
330
6F
100
AcDbEntity
  8
B-0
  6
Continuous
 62
     4
100
AcDbCircle
 10
3264.689561137671
 20
1548.436544448488
 30
0.0
 40
0.0625
  0
ARC
  5
27C
330
6F
100
AcDbEntity
  8
B-0
 62
     4
100
AcDbCircle
 10
3264.689561137671
 20
1548.431544448488
 30
0.0
 40
2.5
100
AcDbArc
 50
180.1145914065301
 51
0.1145914059449637
  0
LINE
  5
27D
330
6F
100
AcDbEntity
  8
B-0
 62
     4
100
AcDbLine
 10
3269.689561137671
 20
1548.436544448539
 30
0.0
 11
3274.689561137671
 21
1548.43654444859
 31
0.0
  0
LINE
  5
27E
330
6F
100
AcDbEntity
  8
B-0
  6
Continuous
 62
     4
100
AcDbLine
 10
3247.689561006075
 20
1468.69758651144
 30
0.0
 11
3247.689561006075
 21
1548.43654451144
 31
0.0
  0
LINE
  5
27F
330
6F
100
AcDbEntity
  8
B-0
  6
Continuous
 62
     4
100
AcDbLine
 10
2899.689561006075
 20
1468.69758651144
 30
0.0
 11
2899.689561006075
 21
1548.43654451144
 31
0.0
  0
TEXT
  5
280
330
6F
100
AcDbEntity
  8
B-0
 62
     4
100
AcDbText
 10
3042.912000000001
 20
1549.057
 30
0.0
 40
36.288
  1
348
100
AcDbText
  0
LINE
  5
281
330
6F
100
AcDbEntity
  8
B-0
  6
Continuous
 62
     4
100
AcDbLine
 10
2899.689561137671
 20
1548.436544448488
 30
0.0
 11
3247.689561137671
 21
1548.436544448488
 31
0.0
  0
CIRCLE
  5
282
330
6F
100
AcDbEntity
  8
B-0
  6
Continuous
 62
     4
100
AcDbCircle
 10
2899.689561137671
 20
1548.436544448488
 30
0.0
 40
0.25
  0
CIRCLE
  5
283
330
6F
100
AcDbEntity
  8
B-0
  6
Continuous
 62
     4
100
AcDbCircle
 10
2899.689561137671
 20
1548.436544448488
 30
0.0
 40
0.1875
  0
CIRCLE
  5
284
330
6F
100
AcDbEntity
  8
B-0
  6
Continuous
 62
     4
100
AcDbCircle
 10
2899.689561137671
 20
1548.436544448488
 30
0.0
 40
0.125
  0
CIRCLE
  5
285
330
6F
100
AcDbEntity
  8
B-0
  6
Continuous
 62
     4
100
AcDbCircle
 10
2899.689561137671
 20
1548.436544448488
 30
0.0
 40
0.0625
  0
CIRCLE
  5
286
330
6F
100
AcDbEntity
  8
B-0
  6
Continuous
 62
     4
100
AcDbCircle
 10
3247.689561137671
 20
1548.436544448488
 30
0.0
 40
0.25
  0
CIRCLE
  5
287
330
6F
100
AcDbEntity
  8
B-0
  6
Continuous
 62
     4
100
AcDbCircle
 10
3247.689561137671
 20
1548.436544448488
 30
0.0
 40
0.1875
  0
CIRCLE
  5
288
330
6F
100
AcDbEntity
  8
B-0
  6
Continuous
 62
     4
100
AcDbCircle
 10
3247.689561137671
 20
1548.436544448488
 30
0.0
 40
0.125
  0
CIRCLE
  5
289
330
6F
100
AcDbEntity
  8
B-0
  6
Continuous
 62
     4
100
AcDbCircle
 10
3247.689561137671
 20
1548.436544448488
 30
0.0
 40
0.0625
  0
LINE
  5
28A
330
6F
100
AcDbEntity
  8
B-0
  6
Continuous
 62
     4
100
AcDbLine
 10
2899.689561006075
 20
1468.69758651144
 30
0.0
 11
2899.689561006075
 21
1548.43654451144
 31
0.0
  0
LINE
  5
28B
330
6F
100
AcDbEntity
  8
B-0
  6
Continuous
 62
     4
100
AcDbLine
 10
2882.689561006074
 20
1468.69758651144
 30
0.0
 11
2882.689561006074
 21
1548.43654451144
 31
0.0
  0
LINE
  5
28C
330
6F
100
AcDbEntity
  8
B-0
  6
Continuous
 62
     4
100
AcDbLine
 10
2909.689561006075
 20
1548.43654451144
 30
0.0
 11
2919.689561006075
 21
1548.43654451144
 31
0.0
  0
LINE
  5
28D
330
6F
100
AcDbEntity
  8
B-0
  6
Continuous
 62
     4
100
AcDbLine
 10
2872.689561006075
 20
1548.43654451144
 30
0.0
 11
2862.689561006075
 21
1548.43654451144
 31
0.0
  0
LINE
  5
28E
330
6F
100
AcDbEntity
  8
B-0
  6
Continuous
 62
     4
100
AcDbLine
 10
2891.189561006075
 20
1548.43654451144
 30
0.0
 11
2859.453988006075
 21
1578.19937251144
 31
0.0
  0
LINE
  5
28F
330
6F
100
AcDbEntity
  8
B-0
  6
Continuous
 62
     4
100
AcDbLine
 10
2859.453988006075
 20
1578.19937251144
 30
0.0
 11
2801.433683006075
 21
1578.19937251144
 31
0.0
  0
TEXT
  5
290
330
6F
100
AcDbEntity
  8
B-0
 62
     4
100
AcDbText
 10
2810.866
 20
1578.819
 30
0.0
 40
36.288
  1
17
100
AcDbText
  0
LINE
  5
291
330
6F
100
AcDbEntity
  8
B-0
  6
Continuous
 62
     4
100
AcDbLine
 10
2899.689561006075
 20
1548.43654451144
 30
0.0
 11
2882.689561006074
 21
1548.43654451144
 31
0.0
  0
LINE
  5
292
330
6F
100
AcDbEntity
  8
B-0
  6
Continuous
 62
     4
100
AcDbLine
 10
2899.689561006075
 20
1548.43654451144
 30
0.0
 11
2882.689561006074
 21
1548.43654451144
 31
0.0
  0
CIRCLE
  5
293
330
6F
100
AcDbEntity
  8
B-0
  6
Continuous
 62
     4
100
AcDbCircle
 10
2899.689561137671
 20
1548.436544448488
 30
0.0
 40
0.25
  0
CIRCLE
  5
294
330
6F
100
AcDbEntity
  8
B-0
  6
Continuous
 62
     4
100
AcDbCircle
 10
2899.689561137671
 20
1548.436544448488
 30
0.0
 40
0.1875
  0
CIRCLE
  5
295
330
6F
100
AcDbEntity
  8
B-0
  6
Continuous
 62
     4
100
AcDbCircle
 10
2899.689561137671
 20
1548.436544448488
 30
0.0
 40
0.125
  0
CIRCLE
  5
296
330
6F
100
AcDbEntity
  8
B-0
  6
Continuous
 62
     4
100
AcDbCircle
 10
2899.689561137671
 20
1548.436544448488
 30
0.0
 40
0.0625
  0
ARC
  5
297
330
6F
100
AcDbEntity
  8
B-0
 62
     4
100
AcDbCircle
 10
2899.689561137671
 20
1548.431544448488
 30
0.0
 40
2.5
100
AcDbArc
 50
180.1145914065301
 51
0.1145914059449637
  0
LINE
  5
298
330
6F
100
AcDbEntity
  8
B-0
 62
     4
100
AcDbLine
 10
2904.689561137671
 20
1548.436544448539
 30
0.0
 11
2909.689561137671
 21
1548.43654444859
 31
0.0
  0
CIRCLE
  5
299
330
6F
100
AcDbEntity
  8
B-0
  6
Continuous
 62
     4
100
AcDbCircle
 10
2882.689561137671
 20
1548.436544448488
 30
0.0
 40
0.25
  0
CIRCLE
  5
29A
330
6F
100
AcDbEntity
  8
B-0
  6
Continuous
 62
     4
100
AcDbCircle
 10
2882.689561137671
 20
1548.436544448488
 30
0.0
 40
0.1875
  0
CIRCLE
  5
29B
330
6F
100
AcDbEntity
  8
B-0
  6
Continuous
 62
     4
100
AcDbCircle
 10
2882.689561137671
 20
1548.436544448488
 30
0.0
 40
0.125
  0
CIRCLE
  5
29C
330
6F
100
AcDbEntity
  8
B-0
  6
Continuous
 62
     4
100
AcDbCircle
 10
2882.689561137671
 20
1548.436544448488
 30
0.0
 40
0.0625
  0
ARC
  5
29D
330
6F
100
AcDbEntity
  8
B-0
 62
     4
100
AcDbCircle
 10
2882.689561137671
 20
1548.441544448488
 30
0.0
 40
2.5
100
AcDbArc
 50
0.1145914065300158
 51
180.114591405945
  0
LINE
  5
29E
330
6F
100
AcDbEntity
  8
B-0
 62
     4
100
AcDbLine
 10
2877.689561137671
 20
1548.436544448488
 30
0.0
 11
2872.689561137671
 21
1548.436544448488
 31
0.0
  0
LINE
  5
29F
330
6F
100
AcDbEntity
  8
B-0
  6
Continuous
 62
     4
100
AcDbLine
 10
2862.689561006075
 20
1448.69758651144
 30
0.0
 11
2782.726378006075
 21
1448.69758651144
 31
0.0
  0
LINE
  5
2A0
330
6F
100
AcDbEntity
  8
B-0
  6
Continuous
 62
     4
100
AcDbLine
 10
2879.689561006075
 20
1433.69758651144
 30
0.0
 11
2782.726378006075
 21
1433.69758651144
 31
0.0
  0
TEXT
  5
2A1
330
6F
100
AcDbEntity
  8
B-0
 62
     4
100
AcDbText
 10
2749.606
 20
1457.735
 30
0.0
 40
36.288
  1
15
 50
90.0
100
AcDbText
  0
LINE
  5
2A2
330
6F
100
AcDbEntity
  8
B-0
  6
Continuous
 62
     4
100
AcDbLine
 10
2782.726378066989
 20
1433.69758676511
 30
0.0
 11
2782.726378066989
 21
1448.697586765111
 31
0.0
  0
CIRCLE
  5
2A3
330
6F
100
AcDbEntity
  8
B-0
  6
Continuous
 62
     4
100
AcDbCircle
 10
2782.726378066989
 20
1433.69758676511
 30
0.0
 40
0.25
  0
CIRCLE
  5
2A4
330
6F
100
AcDbEntity
  8
B-0
  6
Continuous
 62
     4
100
AcDbCircle
 10
2782.726378066989
 20
1433.69758676511
 30
0.0
 40
0.1875
  0
CIRCLE
  5
2A5
330
6F
100
AcDbEntity
  8
B-0
  6
Continuous
 62
     4
100
AcDbCircle
 10
2782.726378066989
 20
1433.69758676511
 30
0.0
 40
0.125
  0
CIRCLE
  5
2A6
330
6F
100
AcDbEntity
  8
B-0
  6
Continuous
 62
     4
100
AcDbCircle
 10
2782.726378066989
 20
1433.69758676511
 30
0.0
 40
0.0625
  0
CIRCLE
  5
2A7
330
6F
100
AcDbEntity
  8
B-0
  6
Continuous
 62
     4
100
AcDbCircle
 10
2782.726378066989
 20
1448.697586765111
 30
0.0
 40
0.25
  0
CIRCLE
  5
2A8
330
6F
100
AcDbEntity
  8
B-0
  6
Continuous
 62
     4
100
AcDbCircle
 10
2782.726378066989
 20
1448.697586765111
 30
0.0
 40
0.1875
  0
CIRCLE
  5
2A9
330
6F
100
AcDbEntity
  8
B-0
  6
Continuous
 62
     4
100
AcDbCircle
 10
2782.726378066989
 20
1448.697586765111
 30
0.0
 40
0.125
  0
CIRCLE
  5
2AA
330
6F
100
AcDbEntity
  8
B-0
  6
Continuous
 62
     4
100
AcDbCircle
 10
2782.726378066989
 20
1448.697586765111
 30
0.0
 40
0.0625
  0
LINE
  5
2AB
330
6F
100
AcDbEntity
  8
B-0
  6
Continuous
 62
     4
100
AcDbLine
 10
2862.689561006075
 20
1448.69758651144
 30
0.0
 11
2842.226439006075
 21
1448.69758651144
 31
0.0
  0
LINE
  5
2AC
330
6F
100
AcDbEntity
  8
B-0
  6
Continuous
 62
     4
100
AcDbLine
 10
2862.689561006075
 20
1383.69758651144
 30
0.0
 11
2842.226439006075
 21
1383.69758651144
 31
0.0
  0
LINE
  5
2AD
330
6F
100
AcDbEntity
  8
B-0
  6
Continuous
 62
     4
100
AcDbLine
 10
2842.226439006075
 20
1438.69758651144
 30
0.0
 11
2842.226439006075
 21
1393.69758651144
 31
0.0
  0
TEXT
  5
2AE
330
6F
100
AcDbEntity
  8
B-0
 62
     4
100
AcDbText
 10
2843.007
 20
1384.163
 30
0.0
 40
36.288
  1
65
 50
90.0
100
AcDbText
  0
CIRCLE
  5
2AF
330
6F
100
AcDbEntity
  8
B-0
  6
Continuous
 62
     4
100
AcDbCircle
 10
2842.22643877529
 20
1448.697586765108
 30
0.0
 40
0.25
  0
CIRCLE
  5
2B0
330
6F
100
AcDbEntity
  8
B-0
  6
Continuous
 62
     4
100
AcDbCircle
 10
2842.22643877529
 20
1448.697586765108
 30
0.0
 40
0.1875
  0
CIRCLE
  5
2B1
330
6F
100
AcDbEntity
  8
B-0
  6
Continuous
 62
     4
100
AcDbCircle
 10
2842.22643877529
 20
1448.697586765108
 30
0.0
 40
0.125
  0
CIRCLE
  5
2B2
330
6F
100
AcDbEntity
  8
B-0
  6
Continuous
 62
     4
100
AcDbCircle
 10
2842.22643877529
 20
1448.697586765108
 30
0.0
 40
0.0625
  0
ARC
  5
2B3
330
6F
100
AcDbEntity
  8
B-0
 62
     4
100
AcDbCircle
 10
2842.22143877529
 20
1448.697586765108
 30
0.0
 40
2.5
100
AcDbArc
 50
90.11459140653
 51
270.114591405945
  0
LINE
  5
2B4
330
6F
100
AcDbEntity
  8
B-0
 62
     4
100
AcDbLine
 10
2842.226438775315
 20
1443.697586765108
 30
0.0
 11
2842.226438775341
 21
1438.697586765108
 31
0.0
  0
CIRCLE
  5
2B5
330
6F
100
AcDbEntity
  8
B-0
  6
Continuous
 62
     4
100
AcDbCircle
 10
2842.22643877529
 20
1383.69758676511
 30
0.0
 40
0.25
  0
CIRCLE
  5
2B6
330
6F
100
AcDbEntity
  8
B-0
  6
Continuous
 62
     4
100
AcDbCircle
 10
2842.22643877529
 20
1383.69758676511
 30
0.0
 40
0.1875
  0
CIRCLE
  5
2B7
330
6F
100
AcDbEntity
  8
B-0
  6
Continuous
 62
     4
100
AcDbCircle
 10
2842.22643877529
 20
1383.69758676511
 30
0.0
 40
0.125
  0
CIRCLE
  5
2B8
330
6F
100
AcDbEntity
  8
B-0
  6
Continuous
 62
     4
100
AcDbCircle
 10
2842.22643877529
 20
1383.69758676511
 30
0.0
 40
0.0625
  0
ARC
  5
2B9
330
6F
100
AcDbEntity
  8
B-0
 62
     4
100
AcDbCircle
 10
2842.23143877529
 20
1383.69758676511
 30
0.0
 40
2.5
100
AcDbArc
 50
270.1145914065301
 51
90.11459140594496
  0
LINE
  5
2BA
330
6F
100
AcDbEntity
  8
B-0
 62
     4
100
AcDbLine
 10
2842.226438775213
 20
1388.69758676511
 30
0.0
 11
2842.226438775137
 21
1393.69758676511
 31
0.0
  0
LINE
  5
2BB
330
6F
100
AcDbEntity
  8
B-0
  6
Continuous
 62
     4
100
AcDbLine
 10
2880.189561006075
 20
1433.69758651144
 30
0.0
 11
2782.404092006075
 21
1433.69758651144
 31
0.0
  0
LINE
  5
2BC
330
6F
100
AcDbEntity
  8
B-0
  6
Continuous
 62
     4
100
AcDbLine
 10
2879.689561006075
 20
1063.69758651144
 30
0.0
 11
2782.404092006075
 21
1063.69758651144
 31
0.0
  0
TEXT
  5
2BD
330
6F
100
AcDbEntity
  8
B-0
 62
     4
100
AcDbText
 10
2781.784
 20
1215.098
 30
0.0
 40
36.288
  1
370
 50
90.0
100
AcDbText
  0
LINE
  5
2BE
330
6F
100
AcDbEntity
  8
B-0
  6
Continuous
 62
     4
100
AcDbLine
 10
2782.404091720198
 20
1063.697586765109
 30
0.0
 11
2782.404091720198
 21
1433.69758676511
 31
0.0
  0
CIRCLE
  5
2BF
330
6F
100
AcDbEntity
  8
B-0
  6
Continuous
 62
     4
100
AcDbCircle
 10
2782.404091720198
 20
1063.697586765109
 30
0.0
 40
0.25
  0
CIRCLE
  5
2C0
330
6F
100
AcDbEntity
  8
B-0
  6
Continuous
 62
     4
100
AcDbCircle
 10
2782.404091720198
 20
1063.697586765109
 30
0.0
 40
0.1875
  0
CIRCLE
  5
2C1
330
6F
100
AcDbEntity
  8
B-0
  6
Continuous
 62
     4
100
AcDbCircle
 10
2782.404091720198
 20
1063.697586765109
 30
0.0
 40
0.125
  0
CIRCLE
  5
2C2
330
6F
100
AcDbEntity
  8
B-0
  6
Continuous
 62
     4
100
AcDbCircle
 10
2782.404091720198
 20
1063.697586765109
 30
0.0
 40
0.0625
  0
CIRCLE
  5
2C3
330
6F
100
AcDbEntity
  8
B-0
  6
Continuous
 62
     4
100
AcDbCircle
 10
2782.404091720198
 20
1433.69758676511
 30
0.0
 40
0.25
  0
CIRCLE
  5
2C4
330
6F
100
AcDbEntity
  8
B-0
  6
Continuous
 62
     4
100
AcDbCircle
 10
2782.404091720198
 20
1433.69758676511
 30
0.0
 40
0.1875
  0
CIRCLE
  5
2C5
330
6F
100
AcDbEntity
  8
B-0
  6
Continuous
 62
     4
100
AcDbCircle
 10
2782.404091720198
 20
1433.69758676511
 30
0.0
 40
0.125
  0
CIRCLE
  5
2C6
330
6F
100
AcDbEntity
  8
B-0
  6
Continuous
 62
     4
100
AcDbCircle
 10
2782.404091720198
 20
1433.69758676511
 30
0.0
 40
0.0625
  0
LINE
  5
2C7
330
6F
100
AcDbEntity
  8
B-0
  6
Continuous
 62
     4
100
AcDbLine
 10
2879.689561006075
 20
1063.69758651144
 30
0.0
 11
2782.904092006075
 21
1063.69758651144
 31
0.0
  0
LINE
  5
2C8
330
6F
100
AcDbEntity
  8
B-0
  6
Continuous
 62
     4
100
AcDbLine
 10
2862.689561006075
 20
1048.69758651144
 30
0.0
 11
2782.904092006075
 21
1048.69758651144
 31
0.0
  0
TEXT
  5
2C9
330
6F
100
AcDbEntity
  8
B-0
 62
     4
100
AcDbText
 10
2749.784
 20
1072.735
 30
0.0
 40
36.288
  1
15
 50
90.0
100
AcDbText
  0
LINE
  5
2CA
330
6F
100
AcDbEntity
  8
B-0
  6
Continuous
 62
     4
100
AcDbLine
 10
2782.904091720198
 20
1048.697586765111
 30
0.0
 11
2782.904091720198
 21
1063.697586765109
 31
0.0
  0
CIRCLE
  5
2CB
330
6F
100
AcDbEntity
  8
B-0
  6
Continuous
 62
     4
100
AcDbCircle
 10
2782.904091720198
 20
1048.697586765111
 30
0.0
 40
0.25
  0
CIRCLE
  5
2CC
330
6F
100
AcDbEntity
  8
B-0
  6
Continuous
 62
     4
100
AcDbCircle
 10
2782.904091720198
 20
1048.697586765111
 30
0.0
 40
0.1875
  0
CIRCLE
  5
2CD
330
6F
100
AcDbEntity
  8
B-0
  6
Continuous
 62
     4
100
AcDbCircle
 10
2782.904091720198
 20
1048.697586765111
 30
0.0
 40
0.125
  0
CIRCLE
  5
2CE
330
6F
100
AcDbEntity
  8
B-0
  6
Continuous
 62
     4
100
AcDbCircle
 10
2782.904091720198
 20
1048.697586765111
 30
0.0
 40
0.0625
  0
CIRCLE
  5
2CF
330
6F
100
AcDbEntity
  8
B-0
  6
Continuous
 62
     4
100
AcDbCircle
 10
2782.904091720198
 20
1063.697586765109
 30
0.0
 40
0.25
  0
CIRCLE
  5
2D0
330
6F
100
AcDbEntity
  8
B-0
  6
Continuous
 62
     4
100
AcDbCircle
 10
2782.904091720198
 20
1063.697586765109
 30
0.0
 40
0.1875
  0
CIRCLE
  5
2D1
330
6F
100
AcDbEntity
  8
B-0
  6
Continuous
 62
     4
100
AcDbCircle
 10
2782.904091720198
 20
1063.697586765109
 30
0.0
 40
0.125
  0
CIRCLE
  5
2D2
330
6F
100
AcDbEntity
  8
B-0
  6
Continuous
 62
     4
100
AcDbCircle
 10
2782.904091720198
 20
1063.697586765109
 30
0.0
 40
0.0625
  0
LINE
  5
2D3
330
6F
100
AcDbEntity
  8
B-0
  6
Continuous
 62
     4
100
AcDbLine
 10
2862.689561006075
 20
1048.69758651144
 30
0.0
 11
2782.904092006075
 21
1048.69758651144
 31
0.0
  0
LINE
  5
2D4
330
6F
100
AcDbEntity
  8
B-0
  6
Continuous
 62
     4
100
AcDbLine
 10
2862.689561006075
 20
765.69758651144
 30
0.0
 11
2782.904092006075
 21
765.69758651144
 31
0.0
  0
TEXT
  5
2D5
330
6F
100
AcDbEntity
  8
B-0
 62
     4
100
AcDbText
 10
2782.284000000001
 20
873.5980000000001
 30
0.0
 40
36.288
  1
283
 50
90.0
100
AcDbText
  0
LINE
  5
2D6
330
6F
100
AcDbEntity
  8
B-0
  6
Continuous
 62
     4
100
AcDbLine
 10
2782.904091720196
 20
765.6975867651088
 30
0.0
 11
2782.904091720196
 21
1048.69758676511
 31
0.0
  0
CIRCLE
  5
2D7
330
6F
100
AcDbEntity
  8
B-0
  6
Continuous
 62
     4
100
AcDbCircle
 10
2782.904091720196
 20
765.6975867651088
 30
0.0
 40
0.25
  0
CIRCLE
  5
2D8
330
6F
100
AcDbEntity
  8
B-0
  6
Continuous
 62
     4
100
AcDbCircle
 10
2782.904091720196
 20
765.6975867651088
 30
0.0
 40
0.1875
  0
CIRCLE
  5
2D9
330
6F
100
AcDbEntity
  8
B-0
  6
Continuous
 62
     4
100
AcDbCircle
 10
2782.904091720196
 20
765.6975867651088
 30
0.0
 40
0.125
  0
CIRCLE
  5
2DA
330
6F
100
AcDbEntity
  8
B-0
  6
Continuous
 62
     4
100
AcDbCircle
 10
2782.904091720196
 20
765.6975867651088
 30
0.0
 40
0.0625
  0
CIRCLE
  5
2DB
330
6F
100
AcDbEntity
  8
B-0
  6
Continuous
 62
     4
100
AcDbCircle
 10
2782.904091720196
 20
1048.69758676511
 30
0.0
 40
0.25
  0
CIRCLE
  5
2DC
330
6F
100
AcDbEntity
  8
B-0
  6
Continuous
 62
     4
100
AcDbCircle
 10
2782.904091720196
 20
1048.69758676511
 30
0.0
 40
0.1875
  0
CIRCLE
  5
2DD
330
6F
100
AcDbEntity
  8
B-0
  6
Continuous
 62
     4
100
AcDbCircle
 10
2782.904091720196
 20
1048.69758676511
 30
0.0
 40
0.125
  0
CIRCLE
  5
2DE
330
6F
100
AcDbEntity
  8
B-0
  6
Continuous
 62
     4
100
AcDbCircle
 10
2782.904091720196
 20
1048.69758676511
 30
0.0
 40
0.0625
  0
LINE
  5
2DF
330
6F
100
AcDbEntity
  8
B-0
  6
Continuous
 62
     4
100
AcDbLine
 10
2862.689561006075
 20
765.69758651144
 30
0.0
 11
2782.904092006075
 21
765.69758651144
 31
0.0
  0
LINE
  5
2E0
330
6F
100
AcDbEntity
  8
B-0
  6
Continuous
 62
     4
100
AcDbLine
 10
2862.689561006075
 20
748.69758651144
 30
0.0
 11
2782.904092006075
 21
748.69758651144
 31
0.0
  0
LINE
  5
2E1
330
6F
100
AcDbEntity
  8
B-0
  6
Continuous
 62
     4
100
AcDbLine
 10
2782.904092006075
 20
775.69758651144
 30
0.0
 11
2782.904092006075
 21
785.69758651144
 31
0.0
  0
LINE
  5
2E2
330
6F
100
AcDbEntity
  8
B-0
  6
Continuous
 62
     4
100
AcDbLine
 10
2782.904092006075
 20
738.69758651144
 30
0.0
 11
2782.904092006075
 21
728.69758651144
 31
0.0
  0
LINE
  5
2E3
330
6F
100
AcDbEntity
  8
B-0
  6
Continuous
 62
     4
100
AcDbLine
 10
2782.904092006075
 20
757.19758651144
 30
0.0
 11
2748.500162006076
 21
737.90791851144
 31
0.0
  0
LINE
  5
2E4
330
6F
100
AcDbEntity
  8
B-0
  6
Continuous
 62
     4
100
AcDbLine
 10
2748.500162006076
 20
737.90791851144
 30
0.0
 11
2748.500162006076
 21
679.88761451144
 31
0.0
  0
TEXT
  5
2E5
330
6F
100
AcDbEntity
  8
B-0
 62
     4
100
AcDbText
 10
2747.88
 20
686.498
 30
0.0
 40
36.288
  1
17
 50
90.0
100
AcDbText
  0
LINE
  5
2E6
330
6F
100
AcDbEntity
  8
B-0
  6
Continuous
 62
     4
100
AcDbLine
 10
2782.904092006075
 20
765.69758651144
 30
0.0
 11
2782.904092006075
 21
748.69758651144
 31
0.0
  0
LINE
  5
2E7
330
6F
100
AcDbEntity
  8
B-0
  6
Continuous
 62
     4
100
AcDbLine
 10
2782.904092006075
 20
765.69758651144
 30
0.0
 11
2782.904092006075
 21
748.69758651144
 31
0.0
  0
CIRCLE
  5
2E8
330
6F
100
AcDbEntity
  8
B-0
  6
Continuous
 62
     4
100
AcDbCircle
 10
2782.904091720196
 20
765.6975867651088
 30
0.0
 40
0.25
  0
CIRCLE
  5
2E9
330
6F
100
AcDbEntity
  8
B-0
  6
Continuous
 62
     4
100
AcDbCircle
 10
2782.904091720196
 20
765.6975867651088
 30
0.0
 40
0.1875
  0
CIRCLE
  5
2EA
330
6F
100
AcDbEntity
  8
B-0
  6
Continuous
 62
     4
100
AcDbCircle
 10
2782.904091720196
 20
765.6975867651088
 30
0.0
 40
0.125
  0
CIRCLE
  5
2EB
330
6F
100
AcDbEntity
  8
B-0
  6
Continuous
 62
     4
100
AcDbCircle
 10
2782.904091720196
 20
765.6975867651088
 30
0.0
 40
0.0625
  0
ARC
  5
2EC
330
6F
100
AcDbEntity
  8
B-0
 62
     4
100
AcDbCircle
 10
2782.909091720196
 20
765.6975867651088
 30
0.0
 40
2.5
100
AcDbArc
 50
270.1145914065301
 51
90.11459140594496
  0
LINE
  5
2ED
330
6F
100
AcDbEntity
  8
B-0
 62
     4
100
AcDbLine
 10
2782.904091720119
 20
770.6975867651089
 30
0.0
 11
2782.904091720042
 21
775.6975867651089
 31
0.0
  0
CIRCLE
  5
2EE
330
6F
100
AcDbEntity
  8
B-0
  6
Continuous
 62
     4
100
AcDbCircle
 10
2782.904091720196
 20
748.6975867651119
 30
0.0
 40
0.25
  0
CIRCLE
  5
2EF
330
6F
100
AcDbEntity
  8
B-0
  6
Continuous
 62
     4
100
AcDbCircle
 10
2782.904091720196
 20
748.6975867651119
 30
0.0
 40
0.1875
  0
CIRCLE
  5
2F0
330
6F
100
AcDbEntity
  8
B-0
  6
Continuous
 62
     4
100
AcDbCircle
 10
2782.904091720196
 20
748.6975867651119
 30
0.0
 40
0.125
  0
CIRCLE
  5
2F1
330
6F
100
AcDbEntity
  8
B-0
  6
Continuous
 62
     4
100
AcDbCircle
 10
2782.904091720196
 20
748.6975867651119
 30
0.0
 40
0.0625
  0
ARC
  5
2F2
330
6F
100
AcDbEntity
  8
B-0
 62
     4
100
AcDbCircle
 10
2782.899091720195
 20
748.6975867651119
 30
0.0
 40
2.5
100
AcDbArc
 50
90.11459140653
 51
270.114591405945
  0
LINE
  5
2F3
330
6F
100
AcDbEntity
  8
B-0
 62
     4
100
AcDbLine
 10
2782.904091720221
 20
743.697586765112
 30
0.0
 11
2782.904091720248
 21
738.6975867651119
 31
0.0
  0
LINE
  5
2F4
330
6F
100
AcDbEntity
  8
B-0
  6
Continuous
 62
     4
100
AcDbLine
 10
2862.689561006075
 20
785.69758651144
 30
0.0
 11
2865.576752006075
 21
785.69758651144
 31
0.0
  0
LINE
  5
2F5
330
6F
100
AcDbEntity
  8
B-0
  6
Continuous
 62
     4
100
AcDbLine
 10
2862.689561006075
 20
765.69758651144
 30
0.0
 11
2865.576752006075
 21
765.69758651144
 31
0.0
  0
TEXT
  5
2F6
330
6F
100
AcDbEntity
  8
B-0
 62
     4
100
AcDbText
 10
2832.457000000001
 20
793.8339999999999
 30
0.0
 40
36.288
  1
20
 50
90.0
100
AcDbText
  0
LINE
  5
2F7
330
6F
100
AcDbEntity
  8
B-0
  6
Continuous
 62
     4
100
AcDbLine
 10
2865.57675247397
 20
765.6975867651088
 30
0.0
 11
2865.57675247397
 21
785.6975867651089
 31
0.0
  0
CIRCLE
  5
2F8
330
6F
100
AcDbEntity
  8
B-0
  6
Continuous
 62
     4
100
AcDbCircle
 10
2865.57675247397
 20
765.6975867651088
 30
0.0
 40
0.25
  0
CIRCLE
  5
2F9
330
6F
100
AcDbEntity
  8
B-0
  6
Continuous
 62
     4
100
AcDbCircle
 10
2865.57675247397
 20
765.6975867651088
 30
0.0
 40
0.1875
  0
CIRCLE
  5
2FA
330
6F
100
AcDbEntity
  8
B-0
  6
Continuous
 62
     4
100
AcDbCircle
 10
2865.57675247397
 20
765.6975867651088
 30
0.0
 40
0.125
  0
CIRCLE
  5
2FB
330
6F
100
AcDbEntity
  8
B-0
  6
Continuous
 62
     4
100
AcDbCircle
 10
2865.57675247397
 20
765.6975867651088
 30
0.0
 40
0.0625
  0
CIRCLE
  5
2FC
330
6F
100
AcDbEntity
  8
B-0
  6
Continuous
 62
     4
100
AcDbCircle
 10
2865.57675247397
 20
785.6975867651089
 30
0.0
 40
0.25
  0
CIRCLE
  5
2FD
330
6F
100
AcDbEntity
  8
B-0
  6
Continuous
 62
     4
100
AcDbCircle
 10
2865.57675247397
 20
785.6975867651089
 30
0.0
 40
0.1875
  0
CIRCLE
  5
2FE
330
6F
100
AcDbEntity
  8
B-0
  6
Continuous
 62
     4
100
AcDbCircle
 10
2865.57675247397
 20
785.6975867651089
 30
0.0
 40
0.125
  0
CIRCLE
  5
2FF
330
6F
100
AcDbEntity
  8
B-0
  6
Continuous
 62
     4
100
AcDbCircle
 10
2865.57675247397
 20
785.6975867651089
 30
0.0
 40
0.0625
  0
LINE
  5
300
330
6F
100
AcDbEntity
  8
B-0
  6
Continuous
 62
     4
100
AcDbLine
 10
2862.689561006075
 20
1048.69758651144
 30
0.0
 11
2864.613778006075
 21
1048.69758651144
 31
0.0
  0
LINE
  5
301
330
6F
100
AcDbEntity
  8
B-0
  6
Continuous
 62
     4
100
AcDbLine
 10
2862.689561006075
 20
1118.69758651144
 30
0.0
 11
2864.613778006075
 21
1118.69758651144
 31
0.0
  0
LINE
  5
302
330
6F
100
AcDbEntity
  8
B-0
  6
Continuous
 62
     4
100
AcDbLine
 10
2864.613778006075
 20
1058.69758651144
 30
0.0
 11
2864.613778006075
 21
1108.69758651144
 31
0.0
  0
LINE
  5
303
330
6F
100
AcDbEntity
  8
B-0
  6
Continuous
 62
     4
100
AcDbLine
 10
2864.613778006075
 20
1083.69758651144
 30
0.0
 11
2835.379148006075
 21
1093.96334051144
 31
0.0
  0
LINE
  5
304
330
6F
100
AcDbEntity
  8
B-0
  6
Continuous
 62
     4
100
AcDbLine
 10
2835.379148006075
 20
1093.96334051144
 30
0.0
 11
2835.379148006075
 21
1154.82628451144
 31
0.0
  0
TEXT
  5
305
330
6F
100
AcDbEntity
  8
B-0
 62
     4
100
AcDbText
 10
2834.759
 20
1101.995
 30
0.0
 40
36.288
  1
70
 50
90.0
100
AcDbText
  0
CIRCLE
  5
306
330
6F
100
AcDbEntity
  8
B-0
  6
Continuous
 62
     4
100
AcDbCircle
 10
2864.61377801997
 20
1048.69758676511
 30
0.0
 40
0.25
  0
CIRCLE
  5
307
330
6F
100
AcDbEntity
  8
B-0
  6
Continuous
 62
     4
100
AcDbCircle
 10
2864.61377801997
 20
1048.69758676511
 30
0.0
 40
0.1875
  0
CIRCLE
  5
308
330
6F
100
AcDbEntity
  8
B-0
  6
Continuous
 62
     4
100
AcDbCircle
 10
2864.61377801997
 20
1048.69758676511
 30
0.0
 40
0.125
  0
CIRCLE
  5
309
330
6F
100
AcDbEntity
  8
B-0
  6
Continuous
 62
     4
100
AcDbCircle
 10
2864.61377801997
 20
1048.69758676511
 30
0.0
 40
0.0625
  0
ARC
  5
30A
330
6F
100
AcDbEntity
  8
B-0
 62
     4
100
AcDbCircle
 10
2864.618778019971
 20
1048.69758676511
 30
0.0
 40
2.5
100
AcDbArc
 50
270.1145914065301
 51
90.11459140594496
  0
LINE
  5
30B
330
6F
100
AcDbEntity
  8
B-0
 62
     4
100
AcDbLine
 10
2864.613778019894
 20
1053.69758676511
 30
0.0
 11
2864.613778019817
 21
1058.69758676511
 31
0.0
  0
CIRCLE
  5
30C
330
6F
100
AcDbEntity
  8
B-0
  6
Continuous
 62
     4
100
AcDbCircle
 10
2864.61377801997
 20
1118.697586765111
 30
0.0
 40
0.25
  0
CIRCLE
  5
30D
330
6F
100
AcDbEntity
  8
B-0
  6
Continuous
 62
     4
100
AcDbCircle
 10
2864.61377801997
 20
1118.697586765111
 30
0.0
 40
0.1875
  0
CIRCLE
  5
30E
330
6F
100
AcDbEntity
  8
B-0
  6
Continuous
 62
     4
100
AcDbCircle
 10
2864.61377801997
 20
1118.697586765111
 30
0.0
 40
0.125
  0
CIRCLE
  5
30F
330
6F
100
AcDbEntity
  8
B-0
  6
Continuous
 62
     4
100
AcDbCircle
 10
2864.61377801997
 20
1118.697586765111
 30
0.0
 40
0.0625
  0
ARC
  5
310
330
6F
100
AcDbEntity
  8
B-0
 62
     4
100
AcDbCircle
 10
2864.608778019971
 20
1118.697586765111
 30
0.0
 40
2.5
100
AcDbArc
 50
90.11459140653
 51
270.114591405945
  0
LINE
  5
311
330
6F
100
AcDbEntity
  8
B-0
 62
     4
100
AcDbLine
 10
2864.613778019996
 20
1113.697586765111
 30
0.0
 11
2864.613778020022
 21
1108.697586765111
 31
0.0
  0
LINE
  5
312
330
6F
100
AcDbEntity
  8
B-0
  6
Continuous
 62
     4
100
AcDbLine
 10
2882.689561006074
 20
728.69758651144
 30
0.0
 11
2882.689561006074
 21
648.69758651144
 31
0.0
  0
LINE
  5
313
330
6F
100
AcDbEntity
  8
B-0
  6
Continuous
 62
     4
100
AcDbLine
 10
3122.689561006075
 20
728.69758651144
 30
0.0
 11
3122.689561006075
 21
648.69758651144
 31
0.0
  0
TEXT
  5
314
330
6F
100
AcDbEntity
  8
B-0
 62
     4
100
AcDbText
 10
2971.912000000001
 20
649.3179999999999
 30
0.0
 40
36.288
  1
240
100
AcDbText
  0
LINE
  5
315
330
6F
100
AcDbEntity
  8
B-0
  6
Continuous
 62
     4
100
AcDbLine
 10
3122.689561137671
 20
648.69758676511
 30
0.0
 11
2882.689561137671
 21
648.69758676511
 31
0.0
  0
CIRCLE
  5
316
330
6F
100
AcDbEntity
  8
B-0
  6
Continuous
 62
     4
100
AcDbCircle
 10
3122.689561137671
 20
648.69758676511
 30
0.0
 40
0.25
  0
CIRCLE
  5
317
330
6F
100
AcDbEntity
  8
B-0
  6
Continuous
 62
     4
100
AcDbCircle
 10
3122.689561137671
 20
648.69758676511
 30
0.0
 40
0.1875
  0
CIRCLE
  5
318
330
6F
100
AcDbEntity
  8
B-0
  6
Continuous
 62
     4
100
AcDbCircle
 10
3122.689561137671
 20
648.69758676511
 30
0.0
 40
0.125
  0
CIRCLE
  5
319
330
6F
100
AcDbEntity
  8
B-0
  6
Continuous
 62
     4
100
AcDbCircle
 10
3122.689561137671
 20
648.69758676511
 30
0.0
 40
0.0625
  0
CIRCLE
  5
31A
330
6F
100
AcDbEntity
  8
B-0
  6
Continuous
 62
     4
100
AcDbCircle
 10
2882.689561137671
 20
648.69758676511
 30
0.0
 40
0.25
  0
CIRCLE
  5
31B
330
6F
100
AcDbEntity
  8
B-0
  6
Continuous
 62
     4
100
AcDbCircle
 10
2882.689561137671
 20
648.69758676511
 30
0.0
 40
0.1875
  0
CIRCLE
  5
31C
330
6F
100
AcDbEntity
  8
B-0
  6
Continuous
 62
     4
100
AcDbCircle
 10
2882.689561137671
 20
648.69758676511
 30
0.0
 40
0.125
  0
CIRCLE
  5
31D
330
6F
100
AcDbEntity
  8
B-0
  6
Continuous
 62
     4
100
AcDbCircle
 10
2882.689561137671
 20
648.69758676511
 30
0.0
 40
0.0625
  0
LINE
  5
31E
330
6F
100
AcDbEntity
  8
B-0
  6
Continuous
 62
     4
100
AcDbLine
 10
2882.689561006074
 20
728.69758651144
 30
0.0
 11
2882.689561006074
 21
548.69758651144
 31
0.0
  0
LINE
  5
31F
330
6F
100
AcDbEntity
  8
B-0
  6
Continuous
 62
     4
100
AcDbLine
 10
3182.689561006075
 20
758.69758651144
 30
0.0
 11
3182.689561006075
 21
548.69758651144
 31
0.0
  0
TEXT
  5
320
330
6F
100
AcDbEntity
  8
B-0
 62
     4
100
AcDbText
 10
3001.912000000001
 20
549.3179999999999
 30
0.0
 40
36.288
  1
300
100
AcDbText
  0
LINE
  5
321
330
6F
100
AcDbEntity
  8
B-0
  6
Continuous
 62
     4
100
AcDbLine
 10
3182.689561137678
 20
548.69758676511
 30
0.0
 11
2882.689561137671
 21
548.69758676511
 31
0.0
  0
CIRCLE
  5
322
330
6F
100
AcDbEntity
  8
B-0
  6
Continuous
 62
     4
100
AcDbCircle
 10
3182.689561137678
 20
548.69758676511
 30
0.0
 40
0.25
  0
CIRCLE
  5
323
330
6F
100
AcDbEntity
  8
B-0
  6
Continuous
 62
     4
100
AcDbCircle
 10
3182.689561137678
 20
548.69758676511
 30
0.0
 40
0.1875
  0
CIRCLE
  5
324
330
6F
100
AcDbEntity
  8
B-0
  6
Continuous
 62
     4
100
AcDbCircle
 10
3182.689561137678
 20
548.69758676511
 30
0.0
 40
0.125
  0
CIRCLE
  5
325
330
6F
100
AcDbEntity
  8
B-0
  6
Continuous
 62
     4
100
AcDbCircle
 10
3182.689561137678
 20
548.69758676511
 30
0.0
 40
0.0625
  0
CIRCLE
  5
326
330
6F
100
AcDbEntity
  8
B-0
  6
Continuous
 62
     4
100
AcDbCircle
 10
2882.689561137671
 20
548.69758676511
 30
0.0
 40
0.25
  0
CIRCLE
  5
327
330
6F
100
AcDbEntity
  8
B-0
  6
Continuous
 62
     4
100
AcDbCircle
 10
2882.689561137671
 20
548.69758676511
 30
0.0
 40
0.1875
  0
CIRCLE
  5
328
330
6F
100
AcDbEntity
  8
B-0
  6
Continuous
 62
     4
100
AcDbCircle
 10
2882.689561137671
 20
548.69758676511
 30
0.0
 40
0.125
  0
CIRCLE
  5
329
330
6F
100
AcDbEntity
  8
B-0
  6
Continuous
 62
     4
100
AcDbCircle
 10
2882.689561137671
 20
548.69758676511
 30
0.0
 40
0.0625
  0
LINE
  5
32A
330
6F
100
AcDbEntity
  8
E-0
  6
Continuous
 62
     5
100
AcDbLine
 10
3232.344719117636
 20
719.054509661757
 30
0.0
 11
3179.695702117637
 21
765.250756661757
 31
0.0
  0
LINE
  5
32B
330
6F
100
AcDbEntity
  8
E-0
  6
Continuous
 62
     5
100
AcDbLine
 10
3179.695702117637
 20
765.250756661757
 30
0.0
 11
3196.865875117636
 21
760.896309661757
 31
0.0
  0
TEXT
  5
32C
330
6F
100
AcDbEntity
  8
E-0
 62
     5
100
AcDbText
 10
3235.335
 20
721.0319999999999
 30
0.0
 40
25.92
  1
30R
100
AcDbText
  0
LINE
  5
32D
330
6F
100
AcDbEntity
  8
E-0
  6
Continuous
 62
     5
100
AcDbLine
 10
3232.344719117636
 20
719.054509661757
 30
0.0
 11
3291.208624117636
 21
719.054509661757
 31
0.0
  0
LINE
  5
32E
330
6F
100
AcDbEntity
  8
E-0
  6
Continuous
 62
     5
100
AcDbLine
 10
3245.862461117636
 20
989.531904661757
 30
0.0
 11
3193.213445117637
 21
1035.728151661757
 31
0.0
  0
LINE
  5
32F
330
6F
100
AcDbEntity
  8
E-0
  6
Continuous
 62
     5
100
AcDbLine
 10
3193.213445117637
 20
1035.728151661757
 30
0.0
 11
3210.383618117636
 21
1031.373704661757
 31
0.0
  0
LINE
  5
330
330
6F
100
AcDbEntity
  8
E-0
  6
Continuous
 62
     5
100
AcDbLine
 10
3245.862461117636
 20
989.531904661757
 30
0.0
 11
3304.726367117636
 21
989.531904661757
 31
0.0
  0
TEXT
  5
331
330
6F
100
AcDbEntity
  8
E-0
 62
     5
100
AcDbText
 10
3248.853
 20
991.51
 30
0.0
 40
25.92
  1
40R
100
AcDbText
  0
LINE
  5
332
330
6F
100
AcDbEntity
  8
3-0
  6
Continuous
 62
     7
100
AcDbLine
 10
3247.689561117636
 20
1448.697586661757
 30
0.0
 11
3247.689561117636
 21
1048.697586661757
 31
0.0
  0
LINE
  5
333
330
6F
100
AcDbEntity
  8
3-0
  6
Continuous
 62
     7
100
AcDbLine
 10
3222.689561117636
 20
1048.697586661757
 30
0.0
 11
3247.689561117636
 21
1048.697586661757
 31
0.0
  0
ARC
  5
334
330
6F
100
AcDbEntity
  8
3-0
  6
Continuous
 62
     7
100
AcDbCircle
 10
3222.689561117636
 20
1008.697586661757
 30
0.0
 40
40.0
100
AcDbArc
 50
90.0
 51
180.0
  0
LINE
  5
335
330
6F
100
AcDbEntity
  8
3-0
  6
Continuous
 62
     7
100
AcDbLine
 10
3249.689561117636
 20
1444.697586661757
 30
0.0
 11
3249.689561117636
 21
1023.697586661757
 31
0.0
  0
LINE
  5
336
330
6F
100
AcDbEntity
  8
3-0
  6
Continuous
 62
     7
100
AcDbLine
 10
3264.689561117636
 20
1023.697586661757
 30
0.0
 11
3264.689561117636
 21
1444.697586661757
 31
0.0
  0
LINE
  5
337
330
6F
100
AcDbEntity
  8
3-0
  6
Continuous
 62
     7
100
AcDbLine
 10
3249.689561117636
 20
1023.697586661757
 30
0.0
 11
3264.689561117636
 21
1023.697586661757
 31
0.0
  0
LINE
  5
338
330
6F
100
AcDbEntity
  8
3-0
  6
Continuous
 62
     7
100
AcDbLine
 10
3249.689561117636
 20
1023.697586661757
 30
0.0
 11
3264.689561117636
 21
1023.697586661757
 31
0.0
  0
LINE
  5
339
330
6F
100
AcDbEntity
  8
3-0
  6
Continuous
 62
     7
100
AcDbLine
 10
3247.189561117636
 20
1027.596906661757
 30
0.0
 11
3247.189561117636
 21
1046.596906661757
 31
0.0
  0
LINE
  5
33A
330
6F
100
AcDbEntity
  8
3-0
  6
Continuous
 62
     7
100
AcDbLine
 10
3249.689561117636
 20
1023.697586661757
 30
0.0
 11
3264.689561117636
 21
1023.697586661757
 31
0.0
  0
LINE
  5
33B
330
6F
100
AcDbEntity
  8
2-0
  6
Continuous
 62
     7
100
AcDbLine
 10
3249.689561117636
 20
1027.596906661757
 30
0.0
 11
3247.189561117636
 21
1027.596906661757
 31
0.0
  0
LINE
  5
33C
330
6F
100
AcDbEntity
  8
2-0
  6
Continuous
 62
     7
100
AcDbLine
 10
3249.689561117636
 20
1046.596906661757
 30
0.0
 11
3247.189561117636
 21
1046.596906661757
 31
0.0
  0
LINE
  5
33D
330
6F
100
AcDbEntity
  8
2-0
  6
Continuous
 62
     7
100
AcDbLine
 10
3247.189561117636
 20
1046.596906661757
 30
0.0
 11
3241.689561117636
 21
1046.596906661757
 31
0.0
  0
LINE
  5
33E
330
6F
100
AcDbEntity
  8
2-0
  6
Continuous
 62
     7
100
AcDbLine
 10
3241.189561117636
 20
1046.096906661757
 30
0.0
 11
3241.189561117636
 21
1038.596906661757
 31
0.0
  0
LINE
  5
33F
330
6F
100
AcDbEntity
  8
2-0
  6
Continuous
 62
     7
100
AcDbLine
 10
3244.189561117636
 20
1035.596906661757
 30
0.0
 11
3247.189561117636
 21
1035.596906661757
 31
0.0
  0
ARC
  5
340
330
6F
100
AcDbEntity
  8
2-0
  6
Continuous
 62
     7
100
AcDbCircle
 10
3244.189561117636
 20
1038.596906661757
 30
0.0
 40
3.0
100
AcDbArc
 50
180.0
 51
270.0
  0
LINE
  5
341
330
6F
100
AcDbEntity
  8
2-0
  6
Continuous
 62
     7
100
AcDbLine
 10
3241.189561117636
 20
1046.096906661757
 30
0.0
 11
3241.189561117636
 21
1038.596906661757
 31
0.0
  0
ARC
  5
342
330
6F
100
AcDbEntity
  8
2-0
  6
Continuous
 62
     7
100
AcDbCircle
 10
3241.689561117636
 20
1046.096906661757
 30
0.0
 40
0.5
100
AcDbArc
 50
90.0
 51
180.0
  0
LINE
  5
343
330
6F
100
AcDbEntity
  8
2-0
  6
Continuous
 62
     7
100
AcDbLine
 10
3247.189561117636
 20
1037.096906661757
 30
0.0
 11
3247.189561117636
 21
1046.596906661757
 31
0.0
  0
ARC
  5
344
330
6F
100
AcDbEntity
  8
2-0
  6
Continuous
 62
     7
100
AcDbCircle
 10
3250.452061117636
 20
1041.846906661757
 30
0.0
 40
5.7625
100
AcDbArc
 50
124.483
 51
235.517
  0
ARC
  5
345
330
6F
100
AcDbEntity
  8
2-0
  6
Continuous
 62
     7
100
AcDbCircle
 10
3244.437548117637
 20
1038.717084661757
 30
0.0
 40
1.451915
100
AcDbArc
 50
68.435
 51
346.548
  0
LINE
  5
346
330
6F
100
AcDbEntity
  8
2-0
  6
Continuous
 62
     7
100
AcDbLine
 10
3220.053009117636
 20
1048.663609661757
 30
0.0
 11
3235.410460117636
 21
1048.663609661757
 31
0.0
  0
LINE
  5
347
330
6F
100
AcDbEntity
  8
2-0
  6
Continuous
 62
     7
100
AcDbLine
 10
3220.053009117636
 20
1047.163609661757
 30
0.0
 11
3235.410460117636
 21
1047.163609661757
 31
0.0
  0
LINE
  5
348
330
6F
100
AcDbEntity
  8
2-0
  6
Continuous
 62
     7
100
AcDbLine
 10
3236.053009117636
 20
1037.663609661757
 30
0.0
 11
3236.904300117636
 21
1047.027805661757
 31
0.0
  0
ARC
  5
349
330
6F
100
AcDbEntity
  8
2-0
  6
Continuous
 62
     7
100
AcDbCircle
 10
3235.410460117636
 20
1047.163609661757
 30
0.0
 40
1.5
100
AcDbArc
 50
354.806
 51
90.0
  0
LINE
  5
34A
330
6F
100
AcDbEntity
  8
2-0
  6
Continuous
 62
     7
100
AcDbLine
 10
3234.559170117636
 20
1037.799413661757
 30
0.0
 11
3235.410460117636
 21
1047.163609661757
 31
0.0
  0
LINE
  5
34B
330
6F
100
AcDbEntity
  8
2-0
  6
Continuous
 62
     7
100
AcDbLine
 10
3220.053009117636
 20
1048.663609661757
 30
0.0
 11
3220.053009117636
 21
1047.163609661757
 31
0.0
  0
LINE
  5
34C
330
6F
100
AcDbEntity
  8
2-0
  6
Continuous
 62
     7
100
AcDbLine
 10
3234.559170117636
 20
1037.799413661757
 30
0.0
 11
3236.053009117636
 21
1037.663609661757
 31
0.0
  0
ARC
  5
34D
330
6F
100
AcDbEntity
  8
2-0
  6
Continuous
 62
     7
100
AcDbCircle
 10
3226.157690117636
 20
1050.345210661757
 30
0.0
 40
5.7625
100
AcDbArc
 50
214.483
 51
325.517
  0
LINE
  5
34E
330
6F
100
AcDbEntity
  8
2-0
  6
Continuous
 62
     7
100
AcDbLine
 10
3237.897112117636
 20
1033.403059661757
 30
0.0
 11
3226.688599117636
 21
1031.514341661757
 31
0.0
  0
ARC
  5
34F
330
6F
100
AcDbEntity
  8
2-0
  6
Continuous
 62
     7
100
AcDbCircle
 10
3226.605517117636
 20
1032.007390661757
 30
0.0
 40
0.5
100
AcDbArc
 50
189.565
 51
279.565
  0
LINE
  5
350
330
6F
100
AcDbEntity
  8
2-0
  6
Continuous
 62
     7
100
AcDbLine
 10
3226.112468117636
 20
1031.924308661757
 30
0.0
 11
3225.364726117636
 21
1036.361749661757
 31
0.0
  0
LINE
  5
351
330
6F
100
AcDbEntity
  8
2-0
  6
Continuous
 62
     7
100
AcDbLine
 10
3225.364726117636
 20
1036.361749661757
 30
0.0
 11
3231.599709117636
 21
1045.116808661757
 31
0.0
  0
LINE
  5
352
330
6F
100
AcDbEntity
  8
2-0
  6
Continuous
 62
     7
100
AcDbLine
 10
3232.503180117636
 20
1044.888329661757
 30
0.0
 11
3233.452211117636
 21
1037.239548661757
 31
0.0
  0
ARC
  5
353
330
6F
100
AcDbEntity
  8
2-0
  6
Continuous
 62
     7
100
AcDbCircle
 10
3232.006985117636
 20
1044.826763661757
 30
0.0
 40
0.5
100
AcDbArc
 50
7.073
 51
144.543
  0
LINE
  5
354
330
6F
100
AcDbEntity
  8
2-0
  6
Continuous
 62
     7
100
AcDbLine
 10
3234.031488117636
 20
1036.808065661757
 30
0.0
 11
3241.308458117636
 21
1038.034288661757
 31
0.0
  0
ARC
  5
355
330
6F
100
AcDbEntity
  8
2-0
  6
Continuous
 62
     7
100
AcDbCircle
 10
3233.948406117637
 20
1037.301114661757
 30
0.0
 40
0.5
100
AcDbArc
 50
187.073
 51
279.565
  0
CIRCLE
  5
356
330
6F
100
AcDbEntity
  8
2-0
  6
Continuous
 62
     7
100
AcDbCircle
 10
3229.879389117636
 20
1036.005649661757
 30
0.0
 40
1.451915
  0
LINE
  5
357
330
6F
100
AcDbEntity
  8
2-0
  6
Continuous
 62
     7
100
AcDbLine
 10
3241.585609117636
 20
1037.186874661757
 30
0.0
 11
3233.575446117637
 21
1025.748374661757
 31
0.0
  0
LINE
  5
358
330
6F
100
AcDbEntity
  8
2-0
  6
Continuous
 62
     7
100
AcDbLine
 10
3243.864535117636
 20
1035.559868661757
 30
0.0
 11
3235.868993117636
 21
1024.142247661757
 31
0.0
  0
ARC
  5
359
330
6F
100
AcDbEntity
  8
2-0
  6
Continuous
 62
     7
100
AcDbCircle
 10
3235.049869117637
 20
1024.715864661757
 30
0.0
 40
1.0
100
AcDbArc
 50
234.997
 51
324.997
  0
LINE
  5
35A
330
6F
100
AcDbEntity
  8
2-0
  6
Continuous
 62
     7
100
AcDbLine
 10
3233.820953117636
 20
1024.355633661757
 30
0.0
 11
3234.476252117636
 21
1023.896740661757
 31
0.0
  0
ARC
  5
35B
330
6F
100
AcDbEntity
  8
2-0
  6
Continuous
 62
     7
100
AcDbCircle
 10
3234.394570117637
 20
1025.174757661757
 30
0.0
 40
1.0
100
AcDbArc
 50
144.997
 51
234.997
  0
LINE
  5
35C
330
6F
100
AcDbEntity
  8
2-0
  6
Continuous
 62
     7
100
AcDbLine
 10
3238.389757117636
 20
1032.623202661757
 30
0.0
 11
3233.575446117637
 21
1025.748374661757
 31
0.0
  0
ARC
  5
35D
330
6F
100
AcDbEntity
  8
2-0
  6
Continuous
 62
     7
100
AcDbCircle
 10
3237.980195117636
 20
1032.910010661757
 30
0.0
 40
0.5
100
AcDbArc
 50
324.997
 51
99.56500000000001
  0
TEXT
  5
35E
330
6F
100
AcDbEntity
  8
E-0
 62
     5
100
AcDbText
 10
3198.492
 20
2317.767
 30
0.0
 40
25.92
  1
クリーンイーゴスＭＤＦ
100
AcDbText
  0
TEXT
  5
35F
330
6F
100
AcDbEntity
  8
E-0
 62
     5
100
AcDbText
 10
3195.302
 20
2467.639
 30
0.0
 40
25.92
  1
プレコートパーチクルボード
100
AcDbText
  0
ENDSEC
  0
SECTION
  2
OBJECTS
  0
DICTIONARY
  5
C
330
0
100
AcDbDictionary
281
     1
  3
ACAD_CIP_PREVIOUS_PRODUCT_INFO
350
361
  3
ACAD_COLOR
350
62
  3
ACAD_DETAILVIEWSTYLE
350
69
  3
ACAD_GROUP
350
D
  3
ACAD_LAYOUT
350
61
  3
ACAD_MATERIAL
350
10
  3
ACAD_MLEADERSTYLE
350
65
  3
ACAD_MLINESTYLE
350
5E
  3
ACAD_PLOTSETTINGS
350
60
  3
ACAD_PLOTSTYLENAME
350
E
  3
ACAD_SCALELIST
350
42
  3
ACAD_SECTIONVIEWSTYLE
350
67
  3
ACAD_TABLESTYLE
350
63
  3
ACAD_VISUALSTYLE
350
29
  3
ACDB_RECOMPOSE_DATA
350
382
  3
AcDbVariableDictionary
350
378
  0
DICTIONARY
  5
362
330
54
100
AcDbDictionary
280
     1
281
     1
  3
ADSK_XREC_LAYER_RECONCILED
360
363
  0
DICTIONARY
  5
364
330
7F
100
AcDbDictionary
280
     1
281
     1
  3
ADSK_XREC_LAYER_RECONCILED
360
365
  0
DICTIONARY
  5
366
330
80
100
AcDbDictionary
280
     1
281
     1
  3
ADSK_XREC_LAYER_RECONCILED
360
367
  0
DICTIONARY
  5
368
330
81
100
AcDbDictionary
280
     1
281
     1
  3
ADSK_XREC_LAYER_RECONCILED
360
369
  0
DICTIONARY
  5
36A
330
82
100
AcDbDictionary
280
     1
281
     1
  3
ADSK_XREC_LAYER_RECONCILED
360
36B
  0
DICTIONARY
  5
36C
330
83
100
AcDbDictionary
280
     1
281
     1
  3
ADSK_XREC_LAYER_RECONCILED
360
36D
  0
DICTIONARY
  5
36E
330
84
100
AcDbDictionary
280
     1
281
     1
  3
ADSK_XREC_LAYER_RECONCILED
360
36F
  0
DICTIONARY
  5
370
330
85
100
AcDbDictionary
280
     1
281
     1
  3
ADSK_XREC_LAYER_RECONCILED
360
371
  0
DICTIONARY
  5
372
330
86
100
AcDbDictionary
280
     1
281
     1
  3
ADSK_XREC_LAYER_RECONCILED
360
373
  0
DICTIONARY
  5
374
330
87
100
AcDbDictionary
280
     1
281
     1
  3
ADSK_XREC_LAYER_RECONCILED
360
375
  0
DICTIONARY
  5
376
330
8D
100
AcDbDictionary
280
     1
281
     1
  3
ADSK_XREC_LAYER_RECONCILED
360
377
  0
XRECORD
  5
361
102
{ACAD_REACTORS
330
C
102
}
330
C
100
AcDbXrecord
280
     1
300
ACDLT
300
2020
300

  0
DICTIONARY
  5
62
102
{ACAD_REACTORS
330
C
102
}
330
C
100
AcDbDictionary
281
     1
  0
DICTIONARY
  5
69
102
{ACAD_REACTORS
330
C
102
}
330
C
100
AcDbDictionary
281
     1
  3
Imperial24
350
6A
  0
DICTIONARY
  5
D
102
{ACAD_REACTORS
330
C
102
}
330
C
100
AcDbDictionary
281
     1
  0
DICTIONARY
  5
61
102
{ACAD_REACTORS
330
C
102
}
330
C
100
AcDbDictionary
281
     1
  3
Model
350
72
  3
レイアウト1
350
6E
  0
DICTIONARY
  5
10
102
{ACAD_REACTORS
330
C
102
}
330
C
100
AcDbDictionary
281
     1
  3
ByBlock
350
19
  3
ByLayer
350
11
  3
Global
350
21
  0
DICTIONARY
  5
65
102
{ACAD_REACTORS
330
C
102
}
330
C
100
AcDbDictionary
281
     1
  3
Standard
350
66
  0
DICTIONARY
  5
5E
102
{ACAD_REACTORS
330
C
102
}
330
C
100
AcDbDictionary
281
     1
  3
Standard
350
5F
  0
DICTIONARY
  5
60
102
{ACAD_REACTORS
330
C
102
}
330
C
100
AcDbDictionary
281
     1
  0
ACDBDICTIONARYWDFLT
  5
E
102
{ACAD_REACTORS
330
C
102
}
330
C
100
AcDbDictionary
281
     1
  3
Normal
350
F
100
AcDbDictionaryWithDefault
340
F
  0
DICTIONARY
  5
42
102
{ACAD_REACTORS
330
C
102
}
330
C
100
AcDbDictionary
281
     1
  3
A0
350
43
  3
A1
350
44
  3
A2
350
45
  3
A3
350
46
  3
A4
350
47
  3
A5
350
48
  3
A6
350
49
  3
A7
350
4A
  3
A8
350
4B
  3
A9
350
4C
  3
B0
350
4D
  3
B1
350
4E
  3
B2
350
4F
  3
B3
350
50
  3
B4
350
51
  3
B5
350
52
  3
B6
350
53
  0
DICTIONARY
  5
67
102
{ACAD_REACTORS
330
C
102
}
330
C
100
AcDbDictionary
281
     1
  3
Imperial24
350
68
  0
DICTIONARY
  5
63
102
{ACAD_REACTORS
330
C
102
}
330
C
100
AcDbDictionary
281
     1
  3
Standard
350
64
  0
DICTIONARY
  5
29
102
{ACAD_REACTORS
330
C
102
}
330
C
100
AcDbDictionary
281
     1
  3
2dWireframe
350
2F
  3
Basic
350
2E
  3
Brighten
350
35
  3
ColorChange
350
39
  3
Conceptual
350
32
  3
Dim
350
34
  3
EdgeColorOff
350
41
  3
Facepattern
350
38
  3
Flat
350
2A
  3
FlatWithEdges
350
2B
  3
Gouraud
350
2C
  3
GouraudWithEdges
350
2D
  3
Hidden
350
31
  3
JitterOff
350
3F
  3
Linepattern
350
37
  3
OverhangOff
350
40
  3
Realistic
350
33
  3
Shaded
350
3E
  3
Shaded with edges
350
3D
  3
Shades of Gray
350
3A
  3
Sketchy
350
3B
  3
Thicken
350
36
  3
Wireframe
350
30
  3
X-Ray
350
3C
  0
XRECORD
  5
382
102
{ACAD_REACTORS
330
C
102
}
330
C
100
AcDbXrecord
280
     1
 90
        1
330
64
  0
DICTIONARY
  5
378
102
{ACAD_REACTORS
330
C
102
}
330
C
100
AcDbDictionary
281
     1
  3
CANNOSCALE
350
37D
  3
CMLEADERSTYLE
350
37A
  3
CTABLESTYLE
350
379
  3
CVIEWDETAILSTYLE
350
37B
  3
CVIEWSECTIONSTYLE
350
37C
  3
XCLIPFRAME
350
37E
  0
XRECORD
  5
363
102
{ACAD_REACTORS
330
362
102
}
330
362
100
AcDbXrecord
280
     1
290
     1
  0
XRECORD
  5
365
102
{ACAD_REACTORS
330
364
102
}
330
364
100
AcDbXrecord
280
     1
290
     1
  0
XRECORD
  5
367
102
{ACAD_REACTORS
330
366
102
}
330
366
100
AcDbXrecord
280
     1
290
     1
  0
XRECORD
  5
369
102
{ACAD_REACTORS
330
368
102
}
330
368
100
AcDbXrecord
280
     1
290
     1
  0
XRECORD
  5
36B
102
{ACAD_REACTORS
330
36A
102
}
330
36A
100
AcDbXrecord
280
     1
290
     1
  0
XRECORD
  5
36D
102
{ACAD_REACTORS
330
36C
102
}
330
36C
100
AcDbXrecord
280
     1
290
     1
  0
XRECORD
  5
36F
102
{ACAD_REACTORS
330
36E
102
}
330
36E
100
AcDbXrecord
280
     1
290
     1
  0
XRECORD
  5
371
102
{ACAD_REACTORS
330
370
102
}
330
370
100
AcDbXrecord
280
     1
290
     1
  0
XRECORD
  5
373
102
{ACAD_REACTORS
330
372
102
}
330
372
100
AcDbXrecord
280
     1
290
     1
  0
XRECORD
  5
375
102
{ACAD_REACTORS
330
374
102
}
330
374
100
AcDbXrecord
280
     1
290
     1
  0
XRECORD
  5
377
102
{ACAD_REACTORS
330
376
102
}
330
376
100
AcDbXrecord
280
     1
290
     1
  0
ACDBDETAILVIEWSTYLE
  5
6A
102
{ACAD_XDICTIONARY
360
3BA
102
}
102
{ACAD_REACTORS
330
69
102
}
330
69
100
AcDbModelDocViewStyle
 70
     0
  3
Imperial24
290
     0
100
AcDbDetailViewStyle
 70
     0
 71
     0
 90
        3
 71
     1
340
55
 62
   256
 40
0.24
340
0
 62
   256
 40
0.24
300

 40
0.36
280
     3
 71
     2
340
5C
 90
       25
 62
   256
 71
     3
340
55
 62
   256
 40
0.24
 90
        1
 40
0.75
 90
        1
300
%<\AcVar ViewType \f "%tc1">% %<\AcVar ViewDetailId>%\PSCALE %<\AcVar ViewScale \f "%sn">%
 71
     4
340
5C
 90
       25
 62
   256
340
5C
 90
       25
 62
   256
280
     0
  0
LAYOUT
  5
72
102
{ACAD_REACTORS
330
61
102
}
330
61
100
AcDbPlotSettings
  1

  2
DocuCentre-V 4070
  4

  6

 40
0.0
 41
0.0
 42
0.0
 43
0.0
 44
0.0
 45
0.0
 46
0.0
 47
0.0
 48
0.0
 49
0.0
140
0.0
141
0.0
142
1.0
143
1.0
 70
  1712
 72
     0
 73
     0
 74
     0
  7

 75
     0
147
1.0
 76
     0
 77
     2
 78
   300
148
0.0
149
0.0
100
AcDbLayout
  1
Model
 70
     1
 71
     0
 10
0.0
 20
0.0
 11
12.0
 21
9.0
 12
0.0
 22
0.0
 32
0.0
 14
0.0
 24
0.0
 34
0.0
 15
0.0
 25
0.0
 35
0.0
146
0.0
 13
0.0
 23
0.0
 33
0.0
 16
1.0
 26
0.0
 36
0.0
 17
0.0
 27
1.0
 37
0.0
 76
     0
330
6F
331
8C
  0
LAYOUT
  5
6E
102
{ACAD_REACTORS
330
61
102
}
330
61
100
AcDbPlotSettings
  1

  2
DocuCentre-V 4070
  4

  6

 40
0.0
 41
0.0
 42
0.0
 43
0.0
 44
0.0
 45
0.0
 46
0.0
 47
0.0
 48
0.0
 49
0.0
140
0.0
141
0.0
142
1.0
143
1.0
 70
   688
 72
     0
 73
     0
 74
     5
  7

 75
    16
147
1.0
 76
     0
 77
     2
 78
   300
148
0.0
149
0.0
100
AcDbLayout
  1
レイアウト1
 70
     1
 71
     1
 10
0.0
 20
0.0
 11
12.0
 21
9.0
 12
0.0
 22
0.0
 32
0.0
 14
1.000000000000000E+20
 24
1.000000000000000E+20
 34
1.000000000000000E+20
 15
-1.000000000000000E+20
 25
-1.000000000000000E+20
 35
-1.000000000000000E+20
146
0.0
 13
0.0
 23
0.0
 33
0.0
 16
1.0
 26
0.0
 36
0.0
 17
0.0
 27
1.0
 37
0.0
 76
     0
330
6B
  0
MATERIAL
  5
19
102
{ACAD_XDICTIONARY
360
1A
102
}
102
{ACAD_REACTORS
330
10
102
}
330
10
100
AcDbMaterial
  1
ByBlock
 72
     0
 43
0.0208333333333333
 43
0.0
 43
0.0
 43
0.0
 43
0.0
 43
0.0208333333333333
 43
0.0
 43
0.0
 43
0.0
 43
0.0
 43
1.0
 43
0.0
 43
0.0
 43
0.0
 43
0.0
 43
1.0
 77
     0
 47
0.0208333333333333
 47
0.0
 47
0.0
 47
0.0
 47
0.0
 47
0.0208333333333333
 47
0.0
 47
0.0
 47
0.0
 47
0.0
 47
1.0
 47
0.0
 47
0.0
 47
0.0
 47
0.0
 47
1.0
171
     0
 49
0.0208333333333333
 49
0.0
 49
0.0
 49
0.0
 49
0.0
 49
0.0208333333333333
 49
0.0
 49
0.0
 49
0.0
 49
0.0
 49
1.0
 49
0.0
 49
0.0
 49
0.0
 49
0.0
 49
1.0
175
     0
142
0.0208333333333333
142
0.0
142
0.0
142
0.0
142
0.0
142
0.0208333333333333
142
0.0
142
0.0
142
0.0
142
0.0
142
1.0
142
0.0
142
0.0
142
0.0
142
0.0
142
1.0
179
     0
144
0.0208333333333333
144
0.0
144
0.0
144
0.0
144
0.0
144
0.0208333333333333
144
0.0
144
0.0
144
0.0
144
0.0
144
1.0
144
0.0
144
0.0
144
0.0
144
0.0
144
1.0
147
0.0208333333333333
147
0.0
147
0.0
147
0.0
147
0.0
147
0.0208333333333333
147
0.0
147
0.0
147
0.0
147
0.0
147
1.0
147
0.0
147
0.0
147
0.0
147
0.0
147
1.0
  0
MATERIAL
  5
11
102
{ACAD_XDICTIONARY
360
12
102
}
102
{ACAD_REACTORS
330
10
102
}
330
10
100
AcDbMaterial
  1
ByLayer
 72
     0
 43
0.0208333333333333
 43
0.0
 43
0.0
 43
0.0
 43
0.0
 43
0.0208333333333333
 43
0.0
 43
0.0
 43
0.0
 43
0.0
 43
1.0
 43
0.0
 43
0.0
 43
0.0
 43
0.0
 43
1.0
 77
     0
 47
0.0208333333333333
 47
0.0
 47
0.0
 47
0.0
 47
0.0
 47
0.0208333333333333
 47
0.0
 47
0.0
 47
0.0
 47
0.0
 47
1.0
 47
0.0
 47
0.0
 47
0.0
 47
0.0
 47
1.0
171
     0
 49
0.0208333333333333
 49
0.0
 49
0.0
 49
0.0
 49
0.0
 49
0.0208333333333333
 49
0.0
 49
0.0
 49
0.0
 49
0.0
 49
1.0
 49
0.0
 49
0.0
 49
0.0
 49
0.0
 49
1.0
175
     0
142
0.0208333333333333
142
0.0
142
0.0
142
0.0
142
0.0
142
0.0208333333333333
142
0.0
142
0.0
142
0.0
142
0.0
142
1.0
142
0.0
142
0.0
142
0.0
142
0.0
142
1.0
179
     0
144
0.0208333333333333
144
0.0
144
0.0
144
0.0
144
0.0
144
0.0208333333333333
144
0.0
144
0.0
144
0.0
144
0.0
144
1.0
144
0.0
144
0.0
144
0.0
144
0.0
144
1.0
147
0.0208333333333333
147
0.0
147
0.0
147
0.0
147
0.0
147
0.0208333333333333
147
0.0
147
0.0
147
0.0
147
0.0
147
1.0
147
0.0
147
0.0
147
0.0
147
0.0
147
1.0
  0
MATERIAL
  5
21
102
{ACAD_XDICTIONARY
360
22
102
}
102
{ACAD_REACTORS
330
10
102
}
330
10
100
AcDbMaterial
  1
Global
 72
     0
 43
0.0208333333333333
 43
0.0
 43
0.0
 43
0.0
 43
0.0
 43
0.0208333333333333
 43
0.0
 43
0.0
 43
0.0
 43
0.0
 43
1.0
 43
0.0
 43
0.0
 43
0.0
 43
0.0
 43
1.0
 77
     0
 47
0.0208333333333333
 47
0.0
 47
0.0
 47
0.0
 47
0.0
 47
0.0208333333333333
 47
0.0
 47
0.0
 47
0.0
 47
0.0
 47
1.0
 47
0.0
 47
0.0
 47
0.0
 47
0.0
 47
1.0
171
     0
 49
0.0208333333333333
 49
0.0
 49
0.0
 49
0.0
 49
0.0
 49
0.0208333333333333
 49
0.0
 49
0.0
 49
0.0
 49
0.0
 49
1.0
 49
0.0
 49
0.0
 49
0.0
 49
0.0
 49
1.0
175
     0
142
0.0208333333333333
142
0.0
142
0.0
142
0.0
142
0.0
142
0.0208333333333333
142
0.0
142
0.0
142
0.0
142
0.0
142
1.0
142
0.0
142
0.0
142
0.0
142
0.0
142
1.0
179
     0
144
0.0208333333333333
144
0.0
144
0.0
144
0.0
144
0.0
144
0.0208333333333333
144
0.0
144
0.0
144
0.0
144
0.0
144
1.0
144
0.0
144
0.0
144
0.0
144
0.0
144
1.0
147
0.0208333333333333
147
0.0
147
0.0
147
0.0
147
0.0
147
0.0208333333333333
147
0.0
147
0.0
147
0.0
147
0.0
147
1.0
147
0.0
147
0.0
147
0.0
147
0.0
147
1.0
  0
MLEADERSTYLE
  5
66
102
{ACAD_REACTORS
330
65
102
}
330
65
100
AcDbMLeaderStyle
170
     2
171
     1
172
     0
 90
        2
 40
0.0
 41
0.0
173
     1
 91
-1056964608
340
5A
 92
       -2
290
     1
 42
0.09
291
     1
 43
0.36
  3
Standard
 44
0.18
300

342
55
174
     1
178
     6
175
     1
176
     0
 93
-1056964608
 45
0.18
292
     0
297
     0
 46
0.18
 94
-1056964608
 47
1.0
 49
1.0
140
1.0
293
     1
141
0.0
294
     1
177
     0
142
1.0
295
     0
296
     0
143
0.125
1001
ACAD_MLEADERVER
1070
     2
  0
MLINESTYLE
  5
5F
102
{ACAD_REACTORS
330
5E
102
}
330
5E
100
AcDbMlineStyle
  2
STANDARD
 70
     0
  3

 62
   256
 51
90.0
 52
90.0
 71
     2
 49
0.5
 62
   256
  6
BYLAYER
 49
-0.5
 62
   256
  6
BYLAYER
  0
ACDBPLACEHOLDER
  5
F
102
{ACAD_REACTORS
330
E
102
}
330
E
  0
SCALE
  5
43
102
{ACAD_REACTORS
330
42
102
}
330
42
100
AcDbScale
 70
     0
300
1:1
140
1.0
141
1.0
290
     1
  0
SCALE
  5
44
102
{ACAD_REACTORS
330
42
102
}
330
42
100
AcDbScale
 70
     0
300
1/128" = 1'-0"
140
0.0078125
141
12.0
290
     0
  0
SCALE
  5
45
102
{ACAD_REACTORS
330
42
102
}
330
42
100
AcDbScale
 70
     0
300
1/64" = 1'-0"
140
0.015625
141
12.0
290
     0
  0
SCALE
  5
46
102
{ACAD_REACTORS
330
42
102
}
330
42
100
AcDbScale
 70
     0
300
1/32" = 1'-0"
140
0.03125
141
12.0
290
     0
  0
SCALE
  5
47
102
{ACAD_REACTORS
330
42
102
}
330
42
100
AcDbScale
 70
     0
300
1/16" = 1'-0"
140
0.0625
141
12.0
290
     0
  0
SCALE
  5
48
102
{ACAD_REACTORS
330
42
102
}
330
42
100
AcDbScale
 70
     0
300
3/32" = 1'-0"
140
0.09375
141
12.0
290
     0
  0
SCALE
  5
49
102
{ACAD_REACTORS
330
42
102
}
330
42
100
AcDbScale
 70
     0
300
1/8" = 1'-0"
140
0.125
141
12.0
290
     0
  0
SCALE
  5
4A
102
{ACAD_REACTORS
330
42
102
}
330
42
100
AcDbScale
 70
     0
300
3/16" = 1'-0"
140
0.1875
141
12.0
290
     0
  0
SCALE
  5
4B
102
{ACAD_REACTORS
330
42
102
}
330
42
100
AcDbScale
 70
     0
300
1/4" = 1'-0"
140
0.25
141
12.0
290
     0
  0
SCALE
  5
4C
102
{ACAD_REACTORS
330
42
102
}
330
42
100
AcDbScale
 70
     0
300
3/8" = 1'-0"
140
0.375
141
12.0
290
     0
  0
SCALE
  5
4D
102
{ACAD_REACTORS
330
42
102
}
330
42
100
AcDbScale
 70
     0
300
1/2" = 1'-0"
140
0.5
141
12.0
290
     0
  0
SCALE
  5
4E
102
{ACAD_REACTORS
330
42
102
}
330
42
100
AcDbScale
 70
     0
300
3/4" = 1'-0"
140
0.75
141
12.0
290
     0
  0
SCALE
  5
4F
102
{ACAD_REACTORS
330
42
102
}
330
42
100
AcDbScale
 70
     0
300
1" = 1'-0"
140
1.0
141
12.0
290
     0
  0
SCALE
  5
50
102
{ACAD_REACTORS
330
42
102
}
330
42
100
AcDbScale
 70
     0
300
1-1/2" = 1'-0"
140
1.5
141
12.0
290
     0
  0
SCALE
  5
51
102
{ACAD_REACTORS
330
42
102
}
330
42
100
AcDbScale
 70
     0
300
3" = 1'-0"
140
3.0
141
12.0
290
     0
  0
SCALE
  5
52
102
{ACAD_REACTORS
330
42
102
}
330
42
100
AcDbScale
 70
     0
300
6" = 1'-0"
140
6.0
141
12.0
290
     0
  0
SCALE
  5
53
102
{ACAD_REACTORS
330
42
102
}
330
42
100
AcDbScale
 70
     0
300
1'-0" = 1'-0"
140
12.0
141
12.0
290
     0
  0
ACDBSECTIONVIEWSTYLE
  5
68
102
{ACAD_XDICTIONARY
360
3B8
102
}
102
{ACAD_REACTORS
330
67
102
}
330
67
100
AcDbModelDocViewStyle
 70
     0
  3
Imperial24
290
     0
100
AcDbSectionViewStyle
 70
     0
 71
     0
 90
       78
 71
     1
340
55
 62
   256
 40
0.24
340
0
340
0
 62
   256
 40
0.24
300
I, O, Q, S, X, Z
 40
0.48
 90
        3
 40
0.18
 90
        1
 71
     2
340
5C
 90
       25
 62
   256
340
5C
 90
       50
 62
   256
 40
0.24
 40
0.0
 40
0.24
 71
     3
340
55
 62
   256
 40
0.24
 90
        1
 40
0.75
 90
        1
300
%<\AcVar ViewType \f "%tc1">% %<\AcVar ViewSectionStartId>%-%<\AcVar ViewSectionEndId>%\PSCALE %<\AcVar ViewScale \f "%sn">%
 71
     4
 62
   256
 62
   257
300
ANSI31
 40
1.0
 90
        0
290
     0
290
     0
 90
        6
 40
0.0
 40
1.570796326794896
 40
0.2617993877991494
 40
1.308996938995747
 40
-0.2617993877991494
 40
1.832595714594046
  0
TABLESTYLE
  5
64
102
{ACAD_XDICTIONARY
360
380
102
}
102
{ACAD_REACTORS
330
63
102
}
330
63
100
AcDbTableStyle
  3
Standard
 70
     0
 71
     0
 40
0.06
 41
0.06
280
     0
281
     0
  7
STANDARD
140
0.18
170
     2
 62
     0
 63
     7
283
     0
274
    -2
284
     1
 64
     0
275
    -2
285
     1
 65
     0
276
    -2
286
     1
 66
     0
277
    -2
287
     1
 67
     0
278
    -2
288
     1
 68
     0
279
    -2
289
     1
 69
     0
  7
STANDARD
140
0.25
170
     5
 62
     0
 63
     7
283
     0
274
    -2
284
     1
 64
     0
275
    -2
285
     1
 65
     0
276
    -2
286
     1
 66
     0
277
    -2
287
     1
 67
     0
278
    -2
288
     1
 68
     0
279
    -2
289
     1
 69
     0
  7
STANDARD
140
0.18
170
     5
 62
     0
 63
     7
283
     0
274
    -2
284
     1
 64
     0
275
    -2
285
     1
 65
     0
276
    -2
286
     1
 66
     0
277
    -2
287
     1
 67
     0
278
    -2
288
     1
 68
     0
279
    -2
289
     1
 69
     0
  0
VISUALSTYLE
  5
2F
102
{ACAD_XDICTIONARY
360
390
102
}
102
{ACAD_REACTORS
330
29
102
}
330
29
100
AcDbVisualStyle
  2
2dWireframe
 70
     4
 71
     0
 72
     2
 73
     0
 90
        0
 40
-0.6
 41
-30.0
 62
     5
 63
     7
421
 16777215
 74
     1
 91
        4
 64
     7
 65
   257
 75
     1
175
     1
 42
1.0
 92
        0
 66
   257
 43
1.0
 76
     1
 77
     6
 78
     2
 67
     7
 79
     5
170
     0
171
     0
290
     0
174
     0
 93
        1
 44
0.0
173
     0
291
     0
 45
0.0
1001
ACAD
1000
AcDbSavedByObjectVersion
1070
     0
  0
VISUALSTYLE
  5
2E
102
{ACAD_XDICTIONARY
360
38E
102
}
102
{ACAD_REACTORS
330
29
102
}
330
29
100
AcDbVisualStyle
  2
Basic
 70
     7
 71
     1
 72
     0
 73
     1
 90
        0
 40
-0.6
 41
-30.0
 62
     5
 63
     7
421
 16777215
 74
     0
 91
        4
 64
     7
 65
   257
 75
     1
175
     1
 42
1.0
 92
        8
 66
     7
 43
1.0
 76
     1
 77
     6
 78
     2
 67
     7
 79
     5
170
     0
171
     0
290
     0
174
     0
 93
        1
 44
0.0
173
     0
291
     1
 45
0.0
1001
ACAD
1000
AcDbSavedByObjectVersion
1070
     0
  0
VISUALSTYLE
  5
35
102
{ACAD_XDICTIONARY
360
39C
102
}
102
{ACAD_REACTORS
330
29
102
}
330
29
100
AcDbVisualStyle
  2
Brighten
 70
    12
 71
     2
 72
     2
 73
     0
 90
        0
 40
-0.6
 41
-30.0
 62
     5
 63
     7
421
 16777215
 74
     1
 91
        4
 64
     7
 65
   257
 75
     1
175
     1
 42
1.0
 92
        8
 66
     7
 43
1.0
 76
     1
 77
     6
 78
     2
 67
     7
 79
     5
170
     0
171
     0
290
     0
174
     0
 93
        1
 44
50.0
173
     0
291
     1
 45
0.0
1001
ACAD
1000
AcDbSavedByObjectVersion
1070
     0
  0
VISUALSTYLE
  5
39
102
{ACAD_XDICTIONARY
360
3A4
102
}
102
{ACAD_REACTORS
330
29
102
}
330
29
100
AcDbVisualStyle
  2
ColorChange
 70
    16
 71
     2
 72
     2
 73
     3
 90
        0
 40
-0.6
 41
-30.0
 62
     5
 63
     8
421
  8421504
 74
     1
 91
        4
 64
     7
 65
   257
 75
     1
175
     1
 42
1.0
 92
        8
 66
     8
424
  8421504
 43
1.0
 76
     1
 77
     6
 78
     2
 67
     7
 79
     5
170
     0
171
     0
290
     0
174
     0
 93
        1
 44
0.0
173
     0
291
     1
 45
0.0
1001
ACAD
1000
AcDbSavedByObjectVersion
1070
     0
  0
VISUALSTYLE
  5
32
102
{ACAD_XDICTIONARY
360
396
102
}
102
{ACAD_REACTORS
330
29
102
}
330
29
100
AcDbVisualStyle
  2
Conceptual
 70
     9
 71
     3
 72
     2
 73
     0
 90
        0
 40
-0.6
 41
-30.0
 62
     5
 63
     7
421
 16777215
 74
     2
 91
        2
 64
     7
 65
   257
 75
     1
175
     1
 42
179.0
 92
        8
 66
     7
 43
1.0
 76
     1
 77
     6
 78
     2
 67
     7
 79
     3
170
     0
171
     0
290
     0
174
     0
 93
        1
 44
0.0
173
     0
291
     0
 45
0.0
1001
ACAD
1000
AcDbSavedByObjectVersion
1070
     0
  0
VISUALSTYLE
  5
34
102
{ACAD_XDICTIONARY
360
39A
102
}
102
{ACAD_REACTORS
330
29
102
}
330
29
100
AcDbVisualStyle
  2
Dim
 70
    11
 71
     2
 72
     2
 73
     0
 90
        0
 40
-0.6
 41
-30.0
 62
     5
 63
     7
421
 16777215
 74
     1
 91
        4
 64
     7
 65
   257
 75
     1
175
     1
 42
1.0
 92
        8
 66
     7
 43
1.0
 76
     1
 77
     6
 78
     2
 67
     7
 79
     5
170
     0
171
     0
290
     0
174
     0
 93
        1
 44
-50.0
173
     0
291
     1
 45
0.0
1001
ACAD
1000
AcDbSavedByObjectVersion
1070
     0
  0
VISUALSTYLE
  5
41
102
{ACAD_XDICTIONARY
360
3B4
102
}
102
{ACAD_REACTORS
330
29
102
}
330
29
100
AcDbVisualStyle
  2
EdgeColorOff
 70
    22
 71
     2
 72
     2
 73
     0
 90
        0
 40
-0.6
 41
-30.0
 62
     5
 63
     7
421
 16777215
 74
     1
 91
        4
 64
     7
 65
   257
 75
     1
175
     1
 42
1.0
 92
        8
 66
     7
 43
1.0
 76
     1
 77
     6
 78
     2
 67
     7
 79
     5
170
     0
171
     0
290
     0
174
     0
 93
        1
 44
0.0
173
     0
291
     1
 45
0.0
1001
ACAD
1000
AcDbSavedByObjectVersion
1070
     0
  0
VISUALSTYLE
  5
38
102
{ACAD_XDICTIONARY
360
3A2
102
}
102
{ACAD_REACTORS
330
29
102
}
330
29
100
AcDbVisualStyle
  2
Facepattern
 70
    15
 71
     2
 72
     2
 73
     0
 90
        0
 40
-0.6
 41
-30.0
 62
     5
 63
     7
421
 16777215
 74
     1
 91
        4
 64
     7
 65
   257
 75
     1
175
     1
 42
1.0
 92
        8
 66
     7
 43
1.0
 76
     1
 77
     6
 78
     2
 67
     7
 79
     5
170
     0
171
     0
290
     0
174
     0
 93
        1
 44
0.0
173
     0
291
     1
 45
0.0
1001
ACAD
1000
AcDbSavedByObjectVersion
1070
     0
  0
VISUALSTYLE
  5
2A
102
{ACAD_XDICTIONARY
360
386
102
}
102
{ACAD_REACTORS
330
29
102
}
330
29
100
AcDbVisualStyle
  2
Flat
 70
     0
 71
     2
 72
     1
 73
     1
 90
        2
 40
-0.6
 41
30.0
 62
     5
 63
     7
421
 16777215
 74
     0
 91
        0
 64
     7
 65
   257
 75
     1
175
     1
 42
1.0
 92
        8
 66
     7
 43
1.0
 76
     1
 77
     6
 78
     2
 67
     7
 79
     5
170
     0
171
     0
290
     0
174
     0
 93
       13
 44
0.0
173
     0
291
     1
 45
0.0
1001
ACAD
1000
AcDbSavedByObjectVersion
1070
     0
  0
VISUALSTYLE
  5
2B
102
{ACAD_XDICTIONARY
360
388
102
}
102
{ACAD_REACTORS
330
29
102
}
330
29
100
AcDbVisualStyle
  2
FlatWithEdges
 70
     1
 71
     2
 72
     1
 73
     1
 90
        2
 40
-0.6
 41
30.0
 62
     5
 63
     7
421
 16777215
 74
     1
 91
        0
 64
     7
 65
   257
 75
     1
175
     1
 42
1.0
 92
        0
 66
   257
 43
1.0
 76
     1
 77
     6
 78
     2
 67
     7
 79
     5
170
     0
171
     0
290
     0
174
     0
 93
       13
 44
0.0
173
     0
291
     1
 45
0.0
1001
ACAD
1000
AcDbSavedByObjectVersion
1070
     0
  0
VISUALSTYLE
  5
2C
102
{ACAD_XDICTIONARY
360
38A
102
}
102
{ACAD_REACTORS
330
29
102
}
330
29
100
AcDbVisualStyle
  2
Gouraud
 70
     2
 71
     2
 72
     2
 73
     1
 90
        2
 40
-0.6
 41
30.0
 62
     5
 63
     7
421
 16777215
 74
     0
 91
        0
 64
     7
 65
   257
 75
     1
175
     1
 42
1.0
 92
        0
 66
     7
 43
1.0
 76
     1
 77
     6
 78
     2
 67
     7
 79
     5
170
     0
171
     0
290
     0
174
     0
 93
       13
 44
0.0
173
     0
291
     1
 45
0.0
1001
ACAD
1000
AcDbSavedByObjectVersion
1070
     0
  0
VISUALSTYLE
  5
2D
102
{ACAD_XDICTIONARY
360
38C
102
}
102
{ACAD_REACTORS
330
29
102
}
330
29
100
AcDbVisualStyle
  2
GouraudWithEdges
 70
     3
 71
     2
 72
     2
 73
     1
 90
        2
 40
-0.6
 41
30.0
 62
     5
 63
     7
421
 16777215
 74
     1
 91
        0
 64
     7
 65
   257
 75
     1
175
     1
 42
1.0
 92
        0
 66
   257
 43
1.0
 76
     1
 77
     6
 78
     2
 67
     7
 79
     5
170
     0
171
     0
290
     0
174
     0
 93
       13
 44
0.0
173
     0
291
     1
 45
0.0
1001
ACAD
1000
AcDbSavedByObjectVersion
1070
     0
  0
VISUALSTYLE
  5
31
102
{ACAD_XDICTIONARY
360
394
102
}
102
{ACAD_REACTORS
330
29
102
}
330
29
100
AcDbVisualStyle
  2
Hidden
 70
     6
 71
     1
 72
     2
 73
     2
 90
        0
 40
-0.6
 41
-30.0
 62
     5
 63
     7
421
 16777215
 74
     2
 91
        2
 64
     7
 65
   257
 75
     2
175
     1
 42
40.0
 92
        0
 66
   257
 43
1.0
 76
     1
 77
     6
 78
     2
 67
     7
 79
     3
170
     0
171
     0
290
     0
174
     0
 93
        1
 44
0.0
173
     0
291
     0
 45
0.0
1001
ACAD
1000
AcDbSavedByObjectVersion
1070
     0
  0
VISUALSTYLE
  5
3F
102
{ACAD_XDICTIONARY
360
3B0
102
}
102
{ACAD_REACTORS
330
29
102
}
330
29
100
AcDbVisualStyle
  2
JitterOff
 70
    20
 71
     2
 72
     2
 73
     0
 90
        0
 40
-0.6
 41
-30.0
 62
     5
 63
     7
421
 16777215
 74
     1
 91
        4
 64
     7
 65
   257
 75
     1
175
     1
 42
1.0
 92
       10
 66
     7
 43
1.0
 76
     1
 77
     6
 78
     2
 67
     7
 79
     5
170
     0
171
     0
290
     0
174
     0
 93
        1
 44
0.0
173
     0
291
     1
 45
0.0
1001
ACAD
1000
AcDbSavedByObjectVersion
1070
     0
  0
VISUALSTYLE
  5
37
102
{ACAD_XDICTIONARY
360
3A0
102
}
102
{ACAD_REACTORS
330
29
102
}
330
29
100
AcDbVisualStyle
  2
Linepattern
 70
    14
 71
     2
 72
     2
 73
     0
 90
        0
 40
-0.6
 41
-30.0
 62
     5
 63
     7
421
 16777215
 74
     1
 91
        4
 64
     7
 65
   257
 75
     7
175
     7
 42
1.0
 92
        8
 66
     7
 43
1.0
 76
     1
 77
     6
 78
     2
 67
     7
 79
     5
170
     0
171
     0
290
     0
174
     0
 93
        1
 44
0.0
173
     0
291
     1
 45
0.0
1001
ACAD
1000
AcDbSavedByObjectVersion
1070
     0
  0
VISUALSTYLE
  5
40
102
{ACAD_XDICTIONARY
360
3B2
102
}
102
{ACAD_REACTORS
330
29
102
}
330
29
100
AcDbVisualStyle
  2
OverhangOff
 70
    21
 71
     2
 72
     2
 73
     0
 90
        0
 40
-0.6
 41
-30.0
 62
     5
 63
     7
421
 16777215
 74
     1
 91
        4
 64
     7
 65
   257
 75
     1
175
     1
 42
1.0
 92
        9
 66
     7
 43
1.0
 76
     1
 77
     6
 78
     2
 67
     7
 79
     5
170
     0
171
     0
290
     0
174
     0
 93
        1
 44
0.0
173
     0
291
     1
 45
0.0
1001
ACAD
1000
AcDbSavedByObjectVersion
1070
     0
  0
VISUALSTYLE
  5
33
102
{ACAD_XDICTIONARY
360
398
102
}
102
{ACAD_REACTORS
330
29
102
}
330
29
100
AcDbVisualStyle
  2
Realistic
 70
     8
 71
     2
 72
     3
 73
     0
 90
        2
 40
-0.6
 41
30.0
 62
     5
 63
     7
421
 16777215
 74
     0
 91
        0
 64
     7
 65
   257
 75
     1
175
     1
 42
1.0
 92
        8
 66
   257
 43
1.0
 76
     1
 77
     6
 78
     2
 67
     7
 79
     3
170
     0
171
     0
290
     0
174
     0
 93
       13
 44
0.0
173
     0
291
     0
 45
0.0
1001
ACAD
1000
AcDbSavedByObjectVersion
1070
     0
  0
VISUALSTYLE
  5
3E
102
{ACAD_XDICTIONARY
360
3AE
102
}
102
{ACAD_REACTORS
330
29
102
}
330
29
100
AcDbVisualStyle
  2
Shaded
 70
    27
 71
     2
 72
     2
 73
     1
 90
        2
 40
-0.6
 41
30.0
 62
     5
 63
     7
421
 16777215
 74
     0
 91
        4
 64
     7
 65
   257
 75
     1
175
     1
 42
1.0
 92
        8
 66
   257
 43
1.0
 76
     1
 77
     6
 78
     2
 67
     8
425
  7895160
 79
     3
170
     0
171
     0
290
     0
174
     0
 93
        5
 44
0.0
173
     0
291
     0
 45
0.0
1001
ACAD
1000
AcDbSavedByObjectVersion
1070
     0
  0
VISUALSTYLE
  5
3D
102
{ACAD_XDICTIONARY
360
3AC
102
}
102
{ACAD_REACTORS
330
29
102
}
330
29
100
AcDbVisualStyle
  2
Shaded with edges
 70
    26
 71
     2
 72
     2
 73
     1
 90
        2
 40
-0.6
 41
30.0
 62
     5
 63
     7
421
 16777215
 74
     1
 91
        2
 64
     7
 65
   257
 75
     2
175
     1
 42
1.0
 92
        8
 66
   257
 43
1.0
 76
     1
 77
     6
 78
     2
 67
     7
 79
     3
170
     0
171
     0
290
     0
174
     0
 93
        5
 44
0.0
173
     0
291
     0
 45
0.0
1001
ACAD
1000
AcDbSavedByObjectVersion
1070
     0
  0
VISUALSTYLE
  5
3A
102
{ACAD_XDICTIONARY
360
3A6
102
}
102
{ACAD_REACTORS
330
29
102
}
330
29
100
AcDbVisualStyle
  2
Shades of Gray
 70
    23
 71
     2
 72
     2
 73
     3
 90
        0
 40
-0.6
 41
-30.0
 62
     5
 63
     7
421
 16777215
 74
     2
 91
        2
 64
     7
 65
     7
 75
     1
175
     1
 42
40.0
 92
        8
 66
     7
 43
1.0
 76
     1
 77
     6
 78
     2
 67
     7
 79
     3
170
     0
171
     0
290
     0
174
     0
 93
        1
 44
0.0
173
     0
291
     0
 45
0.0
1001
ACAD
1000
AcDbSavedByObjectVersion
1070
     0
  0
VISUALSTYLE
  5
3B
102
{ACAD_XDICTIONARY
360
3A8
102
}
102
{ACAD_REACTORS
330
29
102
}
330
29
100
AcDbVisualStyle
  2
Sketchy
 70
    24
 71
     1
 72
     2
 73
     2
 90
        0
 40
-0.6
 41
-30.0
 62
     5
 63
     7
421
 16777215
 74
     2
 91
        2
 64
     7
 65
     7
 75
     1
175
     1
 42
40.0
 92
       11
 66
     7
 43
1.0
 76
     1
 77
     6
 78
     2
 67
     7
 79
     6
170
     0
171
     0
290
     0
174
     0
 93
        1
 44
0.0
173
     0
291
     0
 45
0.0
1001
ACAD
1000
AcDbSavedByObjectVersion
1070
     0
  0
VISUALSTYLE
  5
36
102
{ACAD_XDICTIONARY
360
39E
102
}
102
{ACAD_REACTORS
330
29
102
}
330
29
100
AcDbVisualStyle
  2
Thicken
 70
    13
 71
     2
 72
     2
 73
     0
 90
        0
 40
-0.6
 41
-30.0
 62
     5
 63
     7
421
 16777215
 74
     1
 91
        4
 64
     7
 65
   257
 75
     1
175
     1
 42
1.0
 92
       12
 66
     7
 43
1.0
 76
     1
 77
     6
 78
     2
 67
     7
 79
     5
170
     0
171
     0
290
     0
174
     0
 93
        1
 44
0.0
173
     0
291
     1
 45
0.0
1001
ACAD
1000
AcDbSavedByObjectVersion
1070
     0
  0
VISUALSTYLE
  5
30
102
{ACAD_XDICTIONARY
360
392
102
}
102
{ACAD_REACTORS
330
29
102
}
330
29
100
AcDbVisualStyle
  2
Wireframe
 70
     5
 71
     0
 72
     2
 73
     0
 90
        0
 40
-0.6
 41
-30.0
 62
     5
 63
     7
421
 16777215
 74
     1
 91
        4
 64
     7
 65
   257
 75
     1
175
     1
 42
1.0
 92
        0
 66
   257
 43
1.0
 76
     1
 77
     6
 78
     2
 67
     7
 79
     3
170
     0
171
     0
290
     0
174
     0
 93
        1
 44
0.0
173
     0
291
     0
 45
0.0
1001
ACAD
1000
AcDbSavedByObjectVersion
1070
     0
  0
VISUALSTYLE
  5
3C
102
{ACAD_XDICTIONARY
360
3AA
102
}
102
{ACAD_REACTORS
330
29
102
}
330
29
100
AcDbVisualStyle
  2
X-Ray
 70
    25
 71
     2
 72
     2
 73
     1
 90
        1
 40
0.5
 41
-30.0
 62
     5
 63
     7
421
 16777215
 74
     1
 91
        0
 64
     7
 65
   257
 75
     1
175
     1
 42
1.0
 92
        8
 66
     7
 43
1.0
 76
     1
 77
     6
 78
     2
 67
     7
 79
     3
170
     0
171
     0
290
     0
174
     0
 93
       13
 44
0.0
173
     0
291
     0
 45
0.0
1001
ACAD
1000
AcDbSavedByObjectVersion
1070
     0
  0
DICTIONARYVAR
  5
37D
102
{ACAD_REACTORS
330
378
102
}
330
378
100
DictionaryVariables
280
     0
  1
1:1
  0
DICTIONARYVAR
  5
37A
102
{ACAD_REACTORS
330
378
102
}
330
378
100
DictionaryVariables
280
     0
  1
STANDARD
  0
DICTIONARYVAR
  5
379
102
{ACAD_REACTORS
330
378
102
}
330
378
100
DictionaryVariables
280
     0
  1
STANDARD
  0
DICTIONARYVAR
  5
37B
102
{ACAD_REACTORS
330
378
102
}
330
378
100
DictionaryVariables
280
     0
  1
Imperial24
  0
DICTIONARYVAR
  5
37C
102
{ACAD_REACTORS
330
378
102
}
330
378
100
DictionaryVariables
280
     0
  1
Imperial24
  0
DICTIONARYVAR
  5
37E
102
{ACAD_REACTORS
330
378
102
}
330
378
100
DictionaryVariables
280
     0
  1
2
  0
DICTIONARY
  5
3BA
330
6A
100
AcDbDictionary
280
     1
281
     1
  3
ACAD_XREC_ROUNDTRIP
360
3BB
  0
DICTIONARY
  5
1A
330
19
100
AcDbDictionary
280
     1
281
     1
  3
ACAD_XREC_ROUNDTRIP
360
384
  3
BUMPTILE
360
1C
  3
DIFFUSETILE
360
1B
  3
OPACITYTILE
360
1F
  3
REFLECTIONTILE
360
1E
  3
REFRACTIONTILE
360
20
  3
SPECULARTILE
360
1D
  0
DICTIONARY
  5
12
330
11
100
AcDbDictionary
280
     1
281
     1
  3
ACAD_XREC_ROUNDTRIP
360
383
  3
BUMPTILE
360
14
  3
DIFFUSETILE
360
13
  3
OPACITYTILE
360
17
  3
REFLECTIONTILE
360
16
  3
REFRACTIONTILE
360
18
  3
SPECULARTILE
360
15
  0
DICTIONARY
  5
22
330
21
100
AcDbDictionary
280
     1
281
     1
  3
ACAD_XREC_ROUNDTRIP
360
385
  3
BUMPTILE
360
24
  3
DIFFUSETILE
360
23
  3
OPACITYTILE
360
27
  3
REFLECTIONTILE
360
26
  3
REFRACTIONTILE
360
28
  3
SPECULARTILE
360
25
  0
DICTIONARY
  5
3B8
330
68
100
AcDbDictionary
280
     1
281
     1
  3
ACAD_XREC_ROUNDTRIP
360
3B9
  0
DICTIONARY
  5
380
330
64
100
AcDbDictionary
280
     1
281
     1
  3
ACAD_ROUNDTRIP_2008_TABLESTYLE_CELLSTYLEMAP
360
381
  3
ACAD_XREC_ROUNDTRIP
360
3B6
  0
DICTIONARY
  5
390
330
2F
100
AcDbDictionary
280
     1
281
     1
  3
ACAD_XREC_ROUNDTRIP
360
391
  0
DICTIONARY
  5
38E
330
2E
100
AcDbDictionary
280
     1
281
     1
  3
ACAD_XREC_ROUNDTRIP
360
38F
  0
DICTIONARY
  5
39C
330
35
100
AcDbDictionary
280
     1
281
     1
  3
ACAD_XREC_ROUNDTRIP
360
39D
  0
DICTIONARY
  5
3A4
330
39
100
AcDbDictionary
280
     1
281
     1
  3
ACAD_XREC_ROUNDTRIP
360
3A5
  0
DICTIONARY
  5
396
330
32
100
AcDbDictionary
280
     1
281
     1
  3
ACAD_XREC_ROUNDTRIP
360
397
  0
DICTIONARY
  5
39A
330
34
100
AcDbDictionary
280
     1
281
     1
  3
ACAD_XREC_ROUNDTRIP
360
39B
  0
DICTIONARY
  5
3B4
330
41
100
AcDbDictionary
280
     1
281
     1
  3
ACAD_XREC_ROUNDTRIP
360
3B5
  0
DICTIONARY
  5
3A2
330
38
100
AcDbDictionary
280
     1
281
     1
  3
ACAD_XREC_ROUNDTRIP
360
3A3
  0
DICTIONARY
  5
386
330
2A
100
AcDbDictionary
280
     1
281
     1
  3
ACAD_XREC_ROUNDTRIP
360
387
  0
DICTIONARY
  5
388
330
2B
100
AcDbDictionary
280
     1
281
     1
  3
ACAD_XREC_ROUNDTRIP
360
389
  0
DICTIONARY
  5
38A
330
2C
100
AcDbDictionary
280
     1
281
     1
  3
ACAD_XREC_ROUNDTRIP
360
38B
  0
DICTIONARY
  5
38C
330
2D
100
AcDbDictionary
280
     1
281
     1
  3
ACAD_XREC_ROUNDTRIP
360
38D
  0
DICTIONARY
  5
394
330
31
100
AcDbDictionary
280
     1
281
     1
  3
ACAD_XREC_ROUNDTRIP
360
395
  0
DICTIONARY
  5
3B0
330
3F
100
AcDbDictionary
280
     1
281
     1
  3
ACAD_XREC_ROUNDTRIP
360
3B1
  0
DICTIONARY
  5
3A0
330
37
100
AcDbDictionary
280
     1
281
     1
  3
ACAD_XREC_ROUNDTRIP
360
3A1
  0
DICTIONARY
  5
3B2
330
40
100
AcDbDictionary
280
     1
281
     1
  3
ACAD_XREC_ROUNDTRIP
360
3B3
  0
DICTIONARY
  5
398
330
33
100
AcDbDictionary
280
     1
281
     1
  3
ACAD_XREC_ROUNDTRIP
360
399
  0
DICTIONARY
  5
3AE
330
3E
100
AcDbDictionary
280
     1
281
     1
  3
ACAD_XREC_ROUNDTRIP
360
3AF
  0
DICTIONARY
  5
3AC
330
3D
100
AcDbDictionary
280
     1
281
     1
  3
ACAD_XREC_ROUNDTRIP
360
3AD
  0
DICTIONARY
  5
3A6
330
3A
100
AcDbDictionary
280
     1
281
     1
  3
ACAD_XREC_ROUNDTRIP
360
3A7
  0
DICTIONARY
  5
3A8
330
3B
100
AcDbDictionary
280
     1
281
     1
  3
ACAD_XREC_ROUNDTRIP
360
3A9
  0
DICTIONARY
  5
39E
330
36
100
AcDbDictionary
280
     1
281
     1
  3
ACAD_XREC_ROUNDTRIP
360
39F
  0
DICTIONARY
  5
392
330
30
100
AcDbDictionary
280
     1
281
     1
  3
ACAD_XREC_ROUNDTRIP
360
393
  0
DICTIONARY
  5
3AA
330
3C
100
AcDbDictionary
280
     1
281
     1
  3
ACAD_XREC_ROUNDTRIP
360
3AB
  0
XRECORD
  5
3BB
102
{ACAD_REACTORS
330
3BA
102
}
330
3BA
100
AcDbXrecord
280
     1
102
DISPLAYNAME
  1
Imperial24
102
FLAGS
 90
        0
  0
XRECORD
  5
384
102
{ACAD_REACTORS
330
1A
102
}
330
1A
100
AcDbXrecord
280
     1
102
MATERIAL
148
0.0
149
0.0
149
0.0
 93
        0
 94
      127
282
     0
 72
     0
 77
     0
171
     0
175
     0
179
     0
273
     0
  0
XRECORD
  5
1C
102
{ACAD_REACTORS
330
1A
102
}
330
1A
100
AcDbXrecord
280
     1
270
     1
271
     1
  0
XRECORD
  5
1B
102
{ACAD_REACTORS
330
1A
102
}
330
1A
100
AcDbXrecord
280
     1
270
     1
271
     1
  0
XRECORD
  5
1F
102
{ACAD_REACTORS
330
1A
102
}
330
1A
100
AcDbXrecord
280
     1
270
     1
271
     1
  0
XRECORD
  5
1E
102
{ACAD_REACTORS
330
1A
102
}
330
1A
100
AcDbXrecord
280
     1
270
     1
271
     1
  0
XRECORD
  5
20
102
{ACAD_REACTORS
330
1A
102
}
330
1A
100
AcDbXrecord
280
     1
270
     1
271
     1
  0
XRECORD
  5
1D
102
{ACAD_REACTORS
330
1A
102
}
330
1A
100
AcDbXrecord
280
     1
270
     1
271
     1
  0
XRECORD
  5
383
102
{ACAD_REACTORS
330
12
102
}
330
12
100
AcDbXrecord
280
     1
102
MATERIAL
148
0.0
149
0.0
149
0.0
 93
        0
 94
      127
282
     0
 72
     0
 77
     0
171
     0
175
     0
179
     0
273
     0
  0
XRECORD
  5
14
102
{ACAD_REACTORS
330
12
102
}
330
12
100
AcDbXrecord
280
     1
270
     1
271
     1
  0
XRECORD
  5
13
102
{ACAD_REACTORS
330
12
102
}
330
12
100
AcDbXrecord
280
     1
270
     1
271
     1
  0
XRECORD
  5
17
102
{ACAD_REACTORS
330
12
102
}
330
12
100
AcDbXrecord
280
     1
270
     1
271
     1
  0
XRECORD
  5
16
102
{ACAD_REACTORS
330
12
102
}
330
12
100
AcDbXrecord
280
     1
270
     1
271
     1
  0
XRECORD
  5
18
102
{ACAD_REACTORS
330
12
102
}
330
12
100
AcDbXrecord
280
     1
270
     1
271
     1
  0
XRECORD
  5
15
102
{ACAD_REACTORS
330
12
102
}
330
12
100
AcDbXrecord
280
     1
270
     1
271
     1
  0
XRECORD
  5
385
102
{ACAD_REACTORS
330
22
102
}
330
22
100
AcDbXrecord
280
     1
102
MATERIAL
148
0.0
149
0.0
149
0.0
 93
        0
 94
      127
282
     0
 72
     0
 77
     0
171
     0
175
     0
179
     0
273
     0
  0
XRECORD
  5
24
102
{ACAD_REACTORS
330
22
102
}
330
22
100
AcDbXrecord
280
     1
270
     1
271
     1
  0
XRECORD
  5
23
102
{ACAD_REACTORS
330
22
102
}
330
22
100
AcDbXrecord
280
     1
270
     1
271
     1
  0
XRECORD
  5
27
102
{ACAD_REACTORS
330
22
102
}
330
22
100
AcDbXrecord
280
     1
270
     1
271
     1
  0
XRECORD
  5
26
102
{ACAD_REACTORS
330
22
102
}
330
22
100
AcDbXrecord
280
     1
270
     1
271
     1
  0
XRECORD
  5
28
102
{ACAD_REACTORS
330
22
102
}
330
22
100
AcDbXrecord
280
     1
270
     1
271
     1
  0
XRECORD
  5
25
102
{ACAD_REACTORS
330
22
102
}
330
22
100
AcDbXrecord
280
     1
270
     1
271
     1
  0
XRECORD
  5
3B9
102
{ACAD_REACTORS
330
3B8
102
}
330
3B8
100
AcDbXrecord
280
     1
102
DISPLAYNAME
  1
Imperial24
102
FLAGS
 90
        0
  0
CELLSTYLEMAP
  5
381
102
{ACAD_REACTORS
330
380
102
}
330
380
100
AcDbCellStyleMap
 90
        3
300
CELLSTYLE
  1
TABLEFORMAT_BEGIN
 90
        5
170
     1
 91
        0
 92
    32768
 62
   257
 93
        1
300
CONTENTFORMAT
  1
CONTENTFORMAT_BEGIN
 90
        0
 91
        0
 92
      512
 93
        0
300

 40
0.0
140
1.0
 94
        5
 62
     0
340
55
144
0.25
309
CONTENTFORMAT_END
171
     0
 94
        0
309
TABLEFORMAT_END
  1
CELLSTYLE_BEGIN
 90
        1
 91
        1
300
_TITLE
309
CELLSTYLE_END
300
CELLSTYLE
  1
TABLEFORMAT_BEGIN
 90
        5
170
     1
 91
        0
 92
        0
 62
   257
 93
        1
300
CONTENTFORMAT
  1
CONTENTFORMAT_BEGIN
 90
        0
 91
        0
 92
      512
 93
        0
300

 40
0.0
140
1.0
 94
        5
 62
     0
340
55
144
0.18
309
CONTENTFORMAT_END
171
     0
 94
        0
309
TABLEFORMAT_END
  1
CELLSTYLE_BEGIN
 90
        2
 91
        1
300
_HEADER
309
CELLSTYLE_END
300
CELLSTYLE
  1
TABLEFORMAT_BEGIN
 90
        5
170
     1
 91
        0
 92
        0
 62
   257
 93
        1
300
CONTENTFORMAT
  1
CONTENTFORMAT_BEGIN
 90
        0
 91
        0
 92
      512
 93
        0
300

 40
0.0
140
1.0
 94
        2
 62
     0
340
55
144
0.18
309
CONTENTFORMAT_END
171
     0
 94
        0
309
TABLEFORMAT_END
  1
CELLSTYLE_BEGIN
 90
        3
 91
        2
300
_DATA
309
CELLSTYLE_END
  0
XRECORD
  5
3B6
102
{ACAD_REACTORS
330
380
102
}
330
380
100
AcDbXrecord
280
     1
102
ACAD_ROUNDTRIP_PRE2007_TABLESTYLE
 90
      512
 91
        0
  1

 92
      512
 93
        0
  2

 94
      512
 95
        0
  3

  0
XRECORD
  5
391
102
{ACAD_REACTORS
330
390
102
}
330
390
100
AcDbXrecord
280
     1
102
RTVSPost2010Prop28
280
     1
102
RTVSPost2010PropOp28
 70
     1
102
RTVSPost2010Prop29
280
     1
102
RTVSPost2010PropOp29
 70
     1
102
RTVSPost2010Prop30
280
     0
102
RTVSPost2010PropOp30
 70
     1
102
RTVSPost2010Prop31
280
     0
102
RTVSPost2010PropOp31
 70
     1
102
RTVSPost2010Prop32
280
     0
102
RTVSPost2010PropOp32
 70
     1
102
RTVSPost2010Prop33
280
     0
102
RTVSPost2010PropOp33
 70
     1
102
RTVSPost2010Prop34
280
     0
102
RTVSPost2010PropOp34
 70
     1
102
RTVSPost2010Prop35
280
     0
102
RTVSPost2010PropOp35
 70
     1
102
RTVSPost2010Prop36
280
     0
102
RTVSPost2010PropOp36
 70
     1
102
RTVSPost2010Prop37
 90
       50
102
RTVSPost2010PropOp37
 70
     1
102
RTVSPost2010Prop38
140
0.0
102
RTVSPost2010PropOp38
 70
     1
102
RTVSPost2010Prop39
140
1.0
102
RTVSPost2010PropOp39
 70
     1
102
RTVSPost2010Prop40
 90
        0
102
RTVSPost2010PropOp40
 70
     1
102
RTVSPost2010Prop41ColorIndex
 90
       18
102
RTVSPost2010Prop41ColorRGB
 90
        0
102
RTVSPost2010PropOp41
 70
     1
102
RTVSPost2010Prop42
 90
       50
102
RTVSPost2010PropOp42
 70
     1
102
RTVSPost2010Prop43
 90
        3
102
RTVSPost2010PropOp43
 70
     1
102
RTVSPost2010Prop44ColorIndex
 90
        5
102
RTVSPost2010Prop44ColorRGB
 90
      255
102
RTVSPost2010PropOp44
 70
     1
102
RTVSPost2010Prop45
280
     0
102
RTVSPost2010PropOp45
 70
     1
102
RTVSPost2010Prop46
 90
       50
102
RTVSPost2010PropOp46
 70
     1
102
RTVSPost2010Prop47
 90
       50
102
RTVSPost2010PropOp47
 70
     1
102
RTVSPost2010Prop48
 90
       50
102
RTVSPost2010PropOp48
 70
     1
102
RTVSPost2010Prop49
280
     0
102
RTVSPost2010PropOp49
 70
     1
102
RTVSPost2010Prop50
 90
       50
102
RTVSPost2010PropOp50
 70
     1
102
RTVSPost2010Prop51ColorIndex
 90
      256
102
RTVSPost2010Prop51ColorRGB
 90
-16777216
102
RTVSPost2010PropOp51
 70
     0
102
RTVSPost2010Prop52
140
1.0
102
RTVSPost2010PropOp52
 70
     0
102
RTVSPost2010Prop53
 90
        2
102
RTVSPost2010PropOp53
 70
     1
102
RTVSPost2010Prop54
  1
strokes_ogs.tif
102
RTVSPost2010PropOp54
 70
     1
102
RTVSPost2010Prop55
280
     0
102
RTVSPost2010PropOp55
 70
     1
102
RTVSPost2010Prop56
140
1.0
102
RTVSPost2010PropOp56
 70
     1
102
RTVSPost2010Prop57
140
1.0
102
RTVSPost2010PropOp57
 70
     1
102
RTVSPropertyOp0
 70
     1
102
RTVSPropertyOp1
 70
     1
102
RTVSPropertyOp2
 70
     1
102
RTVSPropertyOp3
 70
     1
102
RTVSPropertyOp4
 70
     1
102
RTVSPropertyOp5
 70
     1
102
RTVSPropertyOp6
 70
     1
102
RTVSPropertyOp7
 70
     1
102
RTVSPropertyOp8
 70
     1
102
RTVSPropertyOp9
 70
     1
102
RTVSPropertyOp10
 70
     1
102
RTVSPropertyOp11
 70
     1
102
RTVSPropertyOp12
 70
     1
102
RTVSPropertyOp13
 70
     1
102
RTVSPropertyOp14
 70
     1
102
RTVSPropertyOp15
 70
     1
102
RTVSPropertyOp16
 70
     1
102
RTVSPropertyOp17
 70
     1
102
RTVSPropertyOp18
 70
     1
102
RTVSPropertyOp19
 70
     1
102
RTVSPropertyOp20
 70
     1
102
RTVSPropertyOp21
 70
     1
102
RTVSPropertyOp22
 70
     1
102
RTVSPropertyOp23
 70
     1
102
RTVSPropertyOp24
 70
     1
102
RTVSPropertyOp25
 70
     1
102
RTVSPropertyOp26
 70
     1
102
RTVSPropertyOp27
 70
     1
102
RTVSPropertyOp28
 70
     1
102
RTVSPropertyOp29
 70
     1
102
RTVSPropertyOp30
 70
     1
102
RTVSPropertyOp31
 70
     1
102
RTVSPropertyOp32
 70
     1
102
RTVSPropertyOp33
 70
     1
102
RTVSPropertyOp34
 70
     1
102
RTVSPropertyOp35
 70
     1
102
RTVSPropertyOp36
 70
     1
102
RTVSPropertyOp37
 70
     1
102
RTVSPropertyOp38
 70
     1
102
RTVSPropertyOp39
 70
     1
102
RTVSPropertyOp40
 70
     1
102
RTVSPropertyOp41
 70
     1
102
RTVSPropertyOp42
 70
     1
102
RTVSPropertyOp43
 70
     1
102
RTVSPropertyOp44
 70
     1
102
RTVSPropertyOp45
 70
     1
102
RTVSPropertyOp46
 70
     1
102
RTVSPropertyOp47
 70
     1
102
RTVSPropertyOp48
 70
     1
102
RTVSPropertyOp49
 70
     1
102
RTVSPropertyOp50
 70
     1
102
RTVSPropertyOp51
 70
     0
102
RTVSPropertyOp52
 70
     0
102
RTVSPropertyOp53
 70
     1
102
RTVSPropertyOp54
 70
     1
102
RTVSPropertyOp55
 70
     1
102
RTVSPropertyOp56
 70
     1
102
RTVSPropertyOp57
 70
     1
102
RTVSPropertyOp58
 70
     1
102
RTVSPropertyOp59
 70
     1
102
RTVSPropertyOp60
 70
     1
102
RTVSPropertyOp61
 70
     1
102
RTVSPropertyOp62
 70
     1
  0
XRECORD
  5
38F
102
{ACAD_REACTORS
330
38E
102
}
330
38E
100
AcDbXrecord
280
     1
102
RTVSPost2010Prop28
280
     0
102
RTVSPost2010PropOp28
 70
     1
102
RTVSPost2010Prop29
280
     1
102
RTVSPost2010PropOp29
 70
     1
102
RTVSPost2010Prop30
280
     1
102
RTVSPost2010PropOp30
 70
     1
102
RTVSPost2010Prop31
280
     0
102
RTVSPost2010PropOp31
 70
     1
102
RTVSPost2010Prop32
280
     0
102
RTVSPost2010PropOp32
 70
     1
102
RTVSPost2010Prop33
280
     0
102
RTVSPost2010PropOp33
 70
     1
102
RTVSPost2010Prop34
280
     0
102
RTVSPost2010PropOp34
 70
     1
102
RTVSPost2010Prop35
280
     0
102
RTVSPost2010PropOp35
 70
     1
102
RTVSPost2010Prop36
280
     0
102
RTVSPost2010PropOp36
 70
     1
102
RTVSPost2010Prop37
 90
       50
102
RTVSPost2010PropOp37
 70
     1
102
RTVSPost2010Prop38
140
0.0
102
RTVSPost2010PropOp38
 70
     1
102
RTVSPost2010Prop39
140
1.0
102
RTVSPost2010PropOp39
 70
     1
102
RTVSPost2010Prop40
 90
        0
102
RTVSPost2010PropOp40
 70
     1
102
RTVSPost2010Prop41ColorIndex
 90
       18
102
RTVSPost2010Prop41ColorRGB
 90
        0
102
RTVSPost2010PropOp41
 70
     1
102
RTVSPost2010Prop42
 90
       50
102
RTVSPost2010PropOp42
 70
     1
102
RTVSPost2010Prop43
 90
        3
102
RTVSPost2010PropOp43
 70
     1
102
RTVSPost2010Prop44ColorIndex
 90
        5
102
RTVSPost2010Prop44ColorRGB
 90
      255
102
RTVSPost2010PropOp44
 70
     1
102
RTVSPost2010Prop45
280
     0
102
RTVSPost2010PropOp45
 70
     1
102
RTVSPost2010Prop46
 90
       50
102
RTVSPost2010PropOp46
 70
     1
102
RTVSPost2010Prop47
 90
       50
102
RTVSPost2010PropOp47
 70
     1
102
RTVSPost2010Prop48
 90
       50
102
RTVSPost2010PropOp48
 70
     1
102
RTVSPost2010Prop49
280
     0
102
RTVSPost2010PropOp49
 70
     1
102
RTVSPost2010Prop50
 90
       50
102
RTVSPost2010PropOp50
 70
     1
102
RTVSPost2010Prop51ColorIndex
 90
      256
102
RTVSPost2010Prop51ColorRGB
 90
-16777216
102
RTVSPost2010PropOp51
 70
     0
102
RTVSPost2010Prop52
140
1.0
102
RTVSPost2010PropOp52
 70
     0
102
RTVSPost2010Prop53
 90
        2
102
RTVSPost2010PropOp53
 70
     1
102
RTVSPost2010Prop54
  1
strokes_ogs.tif
102
RTVSPost2010PropOp54
 70
     1
102
RTVSPost2010Prop55
280
     0
102
RTVSPost2010PropOp55
 70
     1
102
RTVSPost2010Prop56
140
1.0
102
RTVSPost2010PropOp56
 70
     1
102
RTVSPost2010Prop57
140
1.0
102
RTVSPost2010PropOp57
 70
     1
102
RTVSPropertyOp0
 70
     1
102
RTVSPropertyOp1
 70
     1
102
RTVSPropertyOp2
 70
     1
102
RTVSPropertyOp3
 70
     1
102
RTVSPropertyOp4
 70
     1
102
RTVSPropertyOp5
 70
     1
102
RTVSPropertyOp6
 70
     1
102
RTVSPropertyOp7
 70
     1
102
RTVSPropertyOp8
 70
     1
102
RTVSPropertyOp9
 70
     1
102
RTVSPropertyOp10
 70
     1
102
RTVSPropertyOp11
 70
     1
102
RTVSPropertyOp12
 70
     1
102
RTVSPropertyOp13
 70
     1
102
RTVSPropertyOp14
 70
     1
102
RTVSPropertyOp15
 70
     1
102
RTVSPropertyOp16
 70
     1
102
RTVSPropertyOp17
 70
     1
102
RTVSPropertyOp18
 70
     1
102
RTVSPropertyOp19
 70
     1
102
RTVSPropertyOp20
 70
     1
102
RTVSPropertyOp21
 70
     1
102
RTVSPropertyOp22
 70
     1
102
RTVSPropertyOp23
 70
     1
102
RTVSPropertyOp24
 70
     1
102
RTVSPropertyOp25
 70
     1
102
RTVSPropertyOp26
 70
     1
102
RTVSPropertyOp27
 70
     1
102
RTVSPropertyOp28
 70
     1
102
RTVSPropertyOp29
 70
     1
102
RTVSPropertyOp30
 70
     1
102
RTVSPropertyOp31
 70
     1
102
RTVSPropertyOp32
 70
     1
102
RTVSPropertyOp33
 70
     1
102
RTVSPropertyOp34
 70
     1
102
RTVSPropertyOp35
 70
     1
102
RTVSPropertyOp36
 70
     1
102
RTVSPropertyOp37
 70
     1
102
RTVSPropertyOp38
 70
     1
102
RTVSPropertyOp39
 70
     1
102
RTVSPropertyOp40
 70
     1
102
RTVSPropertyOp41
 70
     1
102
RTVSPropertyOp42
 70
     1
102
RTVSPropertyOp43
 70
     1
102
RTVSPropertyOp44
 70
     1
102
RTVSPropertyOp45
 70
     1
102
RTVSPropertyOp46
 70
     1
102
RTVSPropertyOp47
 70
     1
102
RTVSPropertyOp48
 70
     1
102
RTVSPropertyOp49
 70
     1
102
RTVSPropertyOp50
 70
     1
102
RTVSPropertyOp51
 70
     0
102
RTVSPropertyOp52
 70
     0
102
RTVSPropertyOp53
 70
     1
102
RTVSPropertyOp54
 70
     1
102
RTVSPropertyOp55
 70
     1
102
RTVSPropertyOp56
 70
     1
102
RTVSPropertyOp57
 70
     1
102
RTVSPropertyOp58
 70
     1
102
RTVSPropertyOp59
 70
     1
102
RTVSPropertyOp60
 70
     1
102
RTVSPropertyOp61
 70
     1
102
RTVSPropertyOp62
 70
     1
  0
XRECORD
  5
39D
102
{ACAD_REACTORS
330
39C
102
}
330
39C
100
AcDbXrecord
280
     1
102
RTVSPost2010Prop28
280
     0
102
RTVSPost2010PropOp28
 70
     1
102
RTVSPost2010Prop29
280
     1
102
RTVSPost2010PropOp29
 70
     1
102
RTVSPost2010Prop30
280
     1
102
RTVSPost2010PropOp30
 70
     1
102
RTVSPost2010Prop31
280
     0
102
RTVSPost2010PropOp31
 70
     1
102
RTVSPost2010Prop32
280
     0
102
RTVSPost2010PropOp32
 70
     1
102
RTVSPost2010Prop33
280
     0
102
RTVSPost2010PropOp33
 70
     1
102
RTVSPost2010Prop34
280
     0
102
RTVSPost2010PropOp34
 70
     1
102
RTVSPost2010Prop35
280
     0
102
RTVSPost2010PropOp35
 70
     1
102
RTVSPost2010Prop36
280
     0
102
RTVSPost2010PropOp36
 70
     1
102
RTVSPost2010Prop37
 90
       50
102
RTVSPost2010PropOp37
 70
     1
102
RTVSPost2010Prop38
140
0.0
102
RTVSPost2010PropOp38
 70
     1
102
RTVSPost2010Prop39
140
1.0
102
RTVSPost2010PropOp39
 70
     1
102
RTVSPost2010Prop40
 90
        0
102
RTVSPost2010PropOp40
 70
     1
102
RTVSPost2010Prop41ColorIndex
 90
       18
102
RTVSPost2010Prop41ColorRGB
 90
        0
102
RTVSPost2010PropOp41
 70
     1
102
RTVSPost2010Prop42
 90
       50
102
RTVSPost2010PropOp42
 70
     1
102
RTVSPost2010Prop43
 90
        3
102
RTVSPost2010PropOp43
 70
     1
102
RTVSPost2010Prop44ColorIndex
 90
        5
102
RTVSPost2010Prop44ColorRGB
 90
      255
102
RTVSPost2010PropOp44
 70
     1
102
RTVSPost2010Prop45
280
     0
102
RTVSPost2010PropOp45
 70
     1
102
RTVSPost2010Prop46
 90
       50
102
RTVSPost2010PropOp46
 70
     1
102
RTVSPost2010Prop47
 90
       50
102
RTVSPost2010PropOp47
 70
     1
102
RTVSPost2010Prop48
 90
       50
102
RTVSPost2010PropOp48
 70
     1
102
RTVSPost2010Prop49
280
     0
102
RTVSPost2010PropOp49
 70
     1
102
RTVSPost2010Prop50
 90
       50
102
RTVSPost2010PropOp50
 70
     1
102
RTVSPost2010Prop51ColorIndex
 90
      256
102
RTVSPost2010Prop51ColorRGB
 90
-16777216
102
RTVSPost2010PropOp51
 70
     0
102
RTVSPost2010Prop52
140
1.0
102
RTVSPost2010PropOp52
 70
     0
102
RTVSPost2010Prop53
 90
        2
102
RTVSPost2010PropOp53
 70
     1
102
RTVSPost2010Prop54
  1
strokes_ogs.tif
102
RTVSPost2010PropOp54
 70
     1
102
RTVSPost2010Prop55
280
     0
102
RTVSPost2010PropOp55
 70
     1
102
RTVSPost2010Prop56
140
1.0
102
RTVSPost2010PropOp56
 70
     1
102
RTVSPost2010Prop57
140
1.0
102
RTVSPost2010PropOp57
 70
     1
102
RTVSPropertyOp0
 70
     1
102
RTVSPropertyOp1
 70
     1
102
RTVSPropertyOp2
 70
     1
102
RTVSPropertyOp3
 70
     1
102
RTVSPropertyOp4
 70
     1
102
RTVSPropertyOp5
 70
     1
102
RTVSPropertyOp6
 70
     1
102
RTVSPropertyOp7
 70
     1
102
RTVSPropertyOp8
 70
     1
102
RTVSPropertyOp9
 70
     1
102
RTVSPropertyOp10
 70
     1
102
RTVSPropertyOp11
 70
     1
102
RTVSPropertyOp12
 70
     1
102
RTVSPropertyOp13
 70
     1
102
RTVSPropertyOp14
 70
     1
102
RTVSPropertyOp15
 70
     1
102
RTVSPropertyOp16
 70
     1
102
RTVSPropertyOp17
 70
     1
102
RTVSPropertyOp18
 70
     1
102
RTVSPropertyOp19
 70
     1
102
RTVSPropertyOp20
 70
     1
102
RTVSPropertyOp21
 70
     1
102
RTVSPropertyOp22
 70
     1
102
RTVSPropertyOp23
 70
     1
102
RTVSPropertyOp24
 70
     1
102
RTVSPropertyOp25
 70
     1
102
RTVSPropertyOp26
 70
     1
102
RTVSPropertyOp27
 70
     1
102
RTVSPropertyOp28
 70
     1
102
RTVSPropertyOp29
 70
     1
102
RTVSPropertyOp30
 70
     1
102
RTVSPropertyOp31
 70
     1
102
RTVSPropertyOp32
 70
     1
102
RTVSPropertyOp33
 70
     1
102
RTVSPropertyOp34
 70
     1
102
RTVSPropertyOp35
 70
     1
102
RTVSPropertyOp36
 70
     1
102
RTVSPropertyOp37
 70
     1
102
RTVSPropertyOp38
 70
     1
102
RTVSPropertyOp39
 70
     1
102
RTVSPropertyOp40
 70
     1
102
RTVSPropertyOp41
 70
     1
102
RTVSPropertyOp42
 70
     1
102
RTVSPropertyOp43
 70
     1
102
RTVSPropertyOp44
 70
     1
102
RTVSPropertyOp45
 70
     1
102
RTVSPropertyOp46
 70
     1
102
RTVSPropertyOp47
 70
     1
102
RTVSPropertyOp48
 70
     1
102
RTVSPropertyOp49
 70
     1
102
RTVSPropertyOp50
 70
     1
102
RTVSPropertyOp51
 70
     0
102
RTVSPropertyOp52
 70
     0
102
RTVSPropertyOp53
 70
     1
102
RTVSPropertyOp54
 70
     1
102
RTVSPropertyOp55
 70
     1
102
RTVSPropertyOp56
 70
     1
102
RTVSPropertyOp57
 70
     1
102
RTVSPropertyOp58
 70
     1
102
RTVSPropertyOp59
 70
     1
102
RTVSPropertyOp60
 70
     1
102
RTVSPropertyOp61
 70
     1
102
RTVSPropertyOp62
 70
     1
  0
XRECORD
  5
3A5
102
{ACAD_REACTORS
330
3A4
102
}
330
3A4
100
AcDbXrecord
280
     1
102
RTVSPost2010Prop28
280
     0
102
RTVSPost2010PropOp28
 70
     1
102
RTVSPost2010Prop29
280
     1
102
RTVSPost2010PropOp29
 70
     1
102
RTVSPost2010Prop30
280
     1
102
RTVSPost2010PropOp30
 70
     1
102
RTVSPost2010Prop31
280
     0
102
RTVSPost2010PropOp31
 70
     1
102
RTVSPost2010Prop32
280
     0
102
RTVSPost2010PropOp32
 70
     1
102
RTVSPost2010Prop33
280
     0
102
RTVSPost2010PropOp33
 70
     1
102
RTVSPost2010Prop34
280
     0
102
RTVSPost2010PropOp34
 70
     1
102
RTVSPost2010Prop35
280
     0
102
RTVSPost2010PropOp35
 70
     1
102
RTVSPost2010Prop36
280
     0
102
RTVSPost2010PropOp36
 70
     1
102
RTVSPost2010Prop37
 90
       50
102
RTVSPost2010PropOp37
 70
     1
102
RTVSPost2010Prop38
140
0.0
102
RTVSPost2010PropOp38
 70
     1
102
RTVSPost2010Prop39
140
1.0
102
RTVSPost2010PropOp39
 70
     1
102
RTVSPost2010Prop40
 90
        0
102
RTVSPost2010PropOp40
 70
     1
102
RTVSPost2010Prop41ColorIndex
 90
       18
102
RTVSPost2010Prop41ColorRGB
 90
        0
102
RTVSPost2010PropOp41
 70
     1
102
RTVSPost2010Prop42
 90
       50
102
RTVSPost2010PropOp42
 70
     1
102
RTVSPost2010Prop43
 90
        3
102
RTVSPost2010PropOp43
 70
     1
102
RTVSPost2010Prop44ColorIndex
 90
        5
102
RTVSPost2010Prop44ColorRGB
 90
      255
102
RTVSPost2010PropOp44
 70
     1
102
RTVSPost2010Prop45
280
     0
102
RTVSPost2010PropOp45
 70
     1
102
RTVSPost2010Prop46
 90
       50
102
RTVSPost2010PropOp46
 70
     1
102
RTVSPost2010Prop47
 90
       50
102
RTVSPost2010PropOp47
 70
     1
102
RTVSPost2010Prop48
 90
       50
102
RTVSPost2010PropOp48
 70
     1
102
RTVSPost2010Prop49
280
     0
102
RTVSPost2010PropOp49
 70
     1
102
RTVSPost2010Prop50
 90
       50
102
RTVSPost2010PropOp50
 70
     1
102
RTVSPost2010Prop51ColorIndex
 90
      256
102
RTVSPost2010Prop51ColorRGB
 90
-16777216
102
RTVSPost2010PropOp51
 70
     0
102
RTVSPost2010Prop52
140
1.0
102
RTVSPost2010PropOp52
 70
     0
102
RTVSPost2010Prop53
 90
        2
102
RTVSPost2010PropOp53
 70
     1
102
RTVSPost2010Prop54
  1
strokes_ogs.tif
102
RTVSPost2010PropOp54
 70
     1
102
RTVSPost2010Prop55
280
     0
102
RTVSPost2010PropOp55
 70
     1
102
RTVSPost2010Prop56
140
1.0
102
RTVSPost2010PropOp56
 70
     1
102
RTVSPost2010Prop57
140
1.0
102
RTVSPost2010PropOp57
 70
     1
102
RTVSPropertyOp0
 70
     1
102
RTVSPropertyOp1
 70
     1
102
RTVSPropertyOp2
 70
     1
102
RTVSPropertyOp3
 70
     1
102
RTVSPropertyOp4
 70
     1
102
RTVSPropertyOp5
 70
     1
102
RTVSPropertyOp6
 70
     1
102
RTVSPropertyOp7
 70
     1
102
RTVSPropertyOp8
 70
     1
102
RTVSPropertyOp9
 70
     1
102
RTVSPropertyOp10
 70
     1
102
RTVSPropertyOp11
 70
     1
102
RTVSPropertyOp12
 70
     1
102
RTVSPropertyOp13
 70
     1
102
RTVSPropertyOp14
 70
     1
102
RTVSPropertyOp15
 70
     1
102
RTVSPropertyOp16
 70
     1
102
RTVSPropertyOp17
 70
     1
102
RTVSPropertyOp18
 70
     1
102
RTVSPropertyOp19
 70
     1
102
RTVSPropertyOp20
 70
     1
102
RTVSPropertyOp21
 70
     1
102
RTVSPropertyOp22
 70
     1
102
RTVSPropertyOp23
 70
     1
102
RTVSPropertyOp24
 70
     1
102
RTVSPropertyOp25
 70
     1
102
RTVSPropertyOp26
 70
     1
102
RTVSPropertyOp27
 70
     1
102
RTVSPropertyOp28
 70
     1
102
RTVSPropertyOp29
 70
     1
102
RTVSPropertyOp30
 70
     1
102
RTVSPropertyOp31
 70
     1
102
RTVSPropertyOp32
 70
     1
102
RTVSPropertyOp33
 70
     1
102
RTVSPropertyOp34
 70
     1
102
RTVSPropertyOp35
 70
     1
102
RTVSPropertyOp36
 70
     1
102
RTVSPropertyOp37
 70
     1
102
RTVSPropertyOp38
 70
     1
102
RTVSPropertyOp39
 70
     1
102
RTVSPropertyOp40
 70
     1
102
RTVSPropertyOp41
 70
     1
102
RTVSPropertyOp42
 70
     1
102
RTVSPropertyOp43
 70
     1
102
RTVSPropertyOp44
 70
     1
102
RTVSPropertyOp45
 70
     1
102
RTVSPropertyOp46
 70
     1
102
RTVSPropertyOp47
 70
     1
102
RTVSPropertyOp48
 70
     1
102
RTVSPropertyOp49
 70
     1
102
RTVSPropertyOp50
 70
     1
102
RTVSPropertyOp51
 70
     0
102
RTVSPropertyOp52
 70
     0
102
RTVSPropertyOp53
 70
     1
102
RTVSPropertyOp54
 70
     1
102
RTVSPropertyOp55
 70
     1
102
RTVSPropertyOp56
 70
     1
102
RTVSPropertyOp57
 70
     1
102
RTVSPropertyOp58
 70
     1
102
RTVSPropertyOp59
 70
     1
102
RTVSPropertyOp60
 70
     1
102
RTVSPropertyOp61
 70
     1
102
RTVSPropertyOp62
 70
     1
  0
XRECORD
  5
397
102
{ACAD_REACTORS
330
396
102
}
330
396
100
AcDbXrecord
280
     1
102
RTVSPost2010Prop28
280
     0
102
RTVSPost2010PropOp28
 70
     1
102
RTVSPost2010Prop29
280
     1
102
RTVSPost2010PropOp29
 70
     1
102
RTVSPost2010Prop30
280
     1
102
RTVSPost2010PropOp30
 70
     1
102
RTVSPost2010Prop31
280
     0
102
RTVSPost2010PropOp31
 70
     1
102
RTVSPost2010Prop32
280
     0
102
RTVSPost2010PropOp32
 70
     1
102
RTVSPost2010Prop33
280
     0
102
RTVSPost2010PropOp33
 70
     1
102
RTVSPost2010Prop34
280
     0
102
RTVSPost2010PropOp34
 70
     1
102
RTVSPost2010Prop35
280
     0
102
RTVSPost2010PropOp35
 70
     1
102
RTVSPost2010Prop36
280
     0
102
RTVSPost2010PropOp36
 70
     1
102
RTVSPost2010Prop37
 90
       50
102
RTVSPost2010PropOp37
 70
     1
102
RTVSPost2010Prop38
140
0.0
102
RTVSPost2010PropOp38
 70
     1
102
RTVSPost2010Prop39
140
1.0
102
RTVSPost2010PropOp39
 70
     1
102
RTVSPost2010Prop40
 90
        0
102
RTVSPost2010PropOp40
 70
     1
102
RTVSPost2010Prop41ColorIndex
 90
       18
102
RTVSPost2010Prop41ColorRGB
 90
        0
102
RTVSPost2010PropOp41
 70
     1
102
RTVSPost2010Prop42
 90
       50
102
RTVSPost2010PropOp42
 70
     1
102
RTVSPost2010Prop43
 90
        3
102
RTVSPost2010PropOp43
 70
     1
102
RTVSPost2010Prop44ColorIndex
 90
        5
102
RTVSPost2010Prop44ColorRGB
 90
      255
102
RTVSPost2010PropOp44
 70
     1
102
RTVSPost2010Prop45
280
     0
102
RTVSPost2010PropOp45
 70
     1
102
RTVSPost2010Prop46
 90
       50
102
RTVSPost2010PropOp46
 70
     1
102
RTVSPost2010Prop47
 90
       50
102
RTVSPost2010PropOp47
 70
     1
102
RTVSPost2010Prop48
 90
       50
102
RTVSPost2010PropOp48
 70
     1
102
RTVSPost2010Prop49
280
     0
102
RTVSPost2010PropOp49
 70
     1
102
RTVSPost2010Prop50
 90
       50
102
RTVSPost2010PropOp50
 70
     1
102
RTVSPost2010Prop51ColorIndex
 90
      256
102
RTVSPost2010Prop51ColorRGB
 90
-16777216
102
RTVSPost2010PropOp51
 70
     0
102
RTVSPost2010Prop52
140
1.0
102
RTVSPost2010PropOp52
 70
     0
102
RTVSPost2010Prop53
 90
        2
102
RTVSPost2010PropOp53
 70
     1
102
RTVSPost2010Prop54
  1
strokes_ogs.tif
102
RTVSPost2010PropOp54
 70
     1
102
RTVSPost2010Prop55
280
     0
102
RTVSPost2010PropOp55
 70
     1
102
RTVSPost2010Prop56
140
1.0
102
RTVSPost2010PropOp56
 70
     1
102
RTVSPost2010Prop57
140
1.0
102
RTVSPost2010PropOp57
 70
     1
102
RTVSPropertyOp0
 70
     1
102
RTVSPropertyOp1
 70
     1
102
RTVSPropertyOp2
 70
     1
102
RTVSPropertyOp3
 70
     1
102
RTVSPropertyOp4
 70
     1
102
RTVSPropertyOp5
 70
     1
102
RTVSPropertyOp6
 70
     1
102
RTVSPropertyOp7
 70
     1
102
RTVSPropertyOp8
 70
     1
102
RTVSPropertyOp9
 70
     1
102
RTVSPropertyOp10
 70
     1
102
RTVSPropertyOp11
 70
     1
102
RTVSPropertyOp12
 70
     1
102
RTVSPropertyOp13
 70
     1
102
RTVSPropertyOp14
 70
     1
102
RTVSPropertyOp15
 70
     1
102
RTVSPropertyOp16
 70
     1
102
RTVSPropertyOp17
 70
     1
102
RTVSPropertyOp18
 70
     1
102
RTVSPropertyOp19
 70
     1
102
RTVSPropertyOp20
 70
     1
102
RTVSPropertyOp21
 70
     1
102
RTVSPropertyOp22
 70
     1
102
RTVSPropertyOp23
 70
     1
102
RTVSPropertyOp24
 70
     1
102
RTVSPropertyOp25
 70
     1
102
RTVSPropertyOp26
 70
     1
102
RTVSPropertyOp27
 70
     1
102
RTVSPropertyOp28
 70
     1
102
RTVSPropertyOp29
 70
     1
102
RTVSPropertyOp30
 70
     1
102
RTVSPropertyOp31
 70
     1
102
RTVSPropertyOp32
 70
     1
102
RTVSPropertyOp33
 70
     1
102
RTVSPropertyOp34
 70
     1
102
RTVSPropertyOp35
 70
     1
102
RTVSPropertyOp36
 70
     1
102
RTVSPropertyOp37
 70
     1
102
RTVSPropertyOp38
 70
     1
102
RTVSPropertyOp39
 70
     1
102
RTVSPropertyOp40
 70
     1
102
RTVSPropertyOp41
 70
     1
102
RTVSPropertyOp42
 70
     1
102
RTVSPropertyOp43
 70
     1
102
RTVSPropertyOp44
 70
     1
102
RTVSPropertyOp45
 70
     1
102
RTVSPropertyOp46
 70
     1
102
RTVSPropertyOp47
 70
     1
102
RTVSPropertyOp48
 70
     1
102
RTVSPropertyOp49
 70
     1
102
RTVSPropertyOp50
 70
     1
102
RTVSPropertyOp51
 70
     0
102
RTVSPropertyOp52
 70
     0
102
RTVSPropertyOp53
 70
     1
102
RTVSPropertyOp54
 70
     1
102
RTVSPropertyOp55
 70
     1
102
RTVSPropertyOp56
 70
     1
102
RTVSPropertyOp57
 70
     1
102
RTVSPropertyOp58
 70
     1
102
RTVSPropertyOp59
 70
     1
102
RTVSPropertyOp60
 70
     1
102
RTVSPropertyOp61
 70
     1
102
RTVSPropertyOp62
 70
     1
  0
XRECORD
  5
39B
102
{ACAD_REACTORS
330
39A
102
}
330
39A
100
AcDbXrecord
280
     1
102
RTVSPost2010Prop28
280
     0
102
RTVSPost2010PropOp28
 70
     1
102
RTVSPost2010Prop29
280
     1
102
RTVSPost2010PropOp29
 70
     1
102
RTVSPost2010Prop30
280
     1
102
RTVSPost2010PropOp30
 70
     1
102
RTVSPost2010Prop31
280
     0
102
RTVSPost2010PropOp31
 70
     1
102
RTVSPost2010Prop32
280
     0
102
RTVSPost2010PropOp32
 70
     1
102
RTVSPost2010Prop33
280
     0
102
RTVSPost2010PropOp33
 70
     1
102
RTVSPost2010Prop34
280
     0
102
RTVSPost2010PropOp34
 70
     1
102
RTVSPost2010Prop35
280
     0
102
RTVSPost2010PropOp35
 70
     1
102
RTVSPost2010Prop36
280
     0
102
RTVSPost2010PropOp36
 70
     1
102
RTVSPost2010Prop37
 90
       50
102
RTVSPost2010PropOp37
 70
     1
102
RTVSPost2010Prop38
140
0.0
102
RTVSPost2010PropOp38
 70
     1
102
RTVSPost2010Prop39
140
1.0
102
RTVSPost2010PropOp39
 70
     1
102
RTVSPost2010Prop40
 90
        0
102
RTVSPost2010PropOp40
 70
     1
102
RTVSPost2010Prop41ColorIndex
 90
       18
102
RTVSPost2010Prop41ColorRGB
 90
        0
102
RTVSPost2010PropOp41
 70
     1
102
RTVSPost2010Prop42
 90
       50
102
RTVSPost2010PropOp42
 70
     1
102
RTVSPost2010Prop43
 90
        3
102
RTVSPost2010PropOp43
 70
     1
102
RTVSPost2010Prop44ColorIndex
 90
        5
102
RTVSPost2010Prop44ColorRGB
 90
      255
102
RTVSPost2010PropOp44
 70
     1
102
RTVSPost2010Prop45
280
     0
102
RTVSPost2010PropOp45
 70
     1
102
RTVSPost2010Prop46
 90
       50
102
RTVSPost2010PropOp46
 70
     1
102
RTVSPost2010Prop47
 90
       50
102
RTVSPost2010PropOp47
 70
     1
102
RTVSPost2010Prop48
 90
       50
102
RTVSPost2010PropOp48
 70
     1
102
RTVSPost2010Prop49
280
     0
102
RTVSPost2010PropOp49
 70
     1
102
RTVSPost2010Prop50
 90
       50
102
RTVSPost2010PropOp50
 70
     1
102
RTVSPost2010Prop51ColorIndex
 90
      256
102
RTVSPost2010Prop51ColorRGB
 90
-16777216
102
RTVSPost2010PropOp51
 70
     0
102
RTVSPost2010Prop52
140
1.0
102
RTVSPost2010PropOp52
 70
     0
102
RTVSPost2010Prop53
 90
        2
102
RTVSPost2010PropOp53
 70
     1
102
RTVSPost2010Prop54
  1
strokes_ogs.tif
102
RTVSPost2010PropOp54
 70
     1
102
RTVSPost2010Prop55
280
     0
102
RTVSPost2010PropOp55
 70
     1
102
RTVSPost2010Prop56
140
1.0
102
RTVSPost2010PropOp56
 70
     1
102
RTVSPost2010Prop57
140
1.0
102
RTVSPost2010PropOp57
 70
     1
102
RTVSPropertyOp0
 70
     1
102
RTVSPropertyOp1
 70
     1
102
RTVSPropertyOp2
 70
     1
102
RTVSPropertyOp3
 70
     1
102
RTVSPropertyOp4
 70
     1
102
RTVSPropertyOp5
 70
     1
102
RTVSPropertyOp6
 70
     1
102
RTVSPropertyOp7
 70
     1
102
RTVSPropertyOp8
 70
     1
102
RTVSPropertyOp9
 70
     1
102
RTVSPropertyOp10
 70
     1
102
RTVSPropertyOp11
 70
     1
102
RTVSPropertyOp12
 70
     1
102
RTVSPropertyOp13
 70
     1
102
RTVSPropertyOp14
 70
     1
102
RTVSPropertyOp15
 70
     1
102
RTVSPropertyOp16
 70
     1
102
RTVSPropertyOp17
 70
     1
102
RTVSPropertyOp18
 70
     1
102
RTVSPropertyOp19
 70
     1
102
RTVSPropertyOp20
 70
     1
102
RTVSPropertyOp21
 70
     1
102
RTVSPropertyOp22
 70
     1
102
RTVSPropertyOp23
 70
     1
102
RTVSPropertyOp24
 70
     1
102
RTVSPropertyOp25
 70
     1
102
RTVSPropertyOp26
 70
     1
102
RTVSPropertyOp27
 70
     1
102
RTVSPropertyOp28
 70
     1
102
RTVSPropertyOp29
 70
     1
102
RTVSPropertyOp30
 70
     1
102
RTVSPropertyOp31
 70
     1
102
RTVSPropertyOp32
 70
     1
102
RTVSPropertyOp33
 70
     1
102
RTVSPropertyOp34
 70
     1
102
RTVSPropertyOp35
 70
     1
102
RTVSPropertyOp36
 70
     1
102
RTVSPropertyOp37
 70
     1
102
RTVSPropertyOp38
 70
     1
102
RTVSPropertyOp39
 70
     1
102
RTVSPropertyOp40
 70
     1
102
RTVSPropertyOp41
 70
     1
102
RTVSPropertyOp42
 70
     1
102
RTVSPropertyOp43
 70
     1
102
RTVSPropertyOp44
 70
     1
102
RTVSPropertyOp45
 70
     1
102
RTVSPropertyOp46
 70
     1
102
RTVSPropertyOp47
 70
     1
102
RTVSPropertyOp48
 70
     1
102
RTVSPropertyOp49
 70
     1
102
RTVSPropertyOp50
 70
     1
102
RTVSPropertyOp51
 70
     0
102
RTVSPropertyOp52
 70
     0
102
RTVSPropertyOp53
 70
     1
102
RTVSPropertyOp54
 70
     1
102
RTVSPropertyOp55
 70
     1
102
RTVSPropertyOp56
 70
     1
102
RTVSPropertyOp57
 70
     1
102
RTVSPropertyOp58
 70
     1
102
RTVSPropertyOp59
 70
     1
102
RTVSPropertyOp60
 70
     1
102
RTVSPropertyOp61
 70
     1
102
RTVSPropertyOp62
 70
     1
  0
XRECORD
  5
3B5
102
{ACAD_REACTORS
330
3B4
102
}
330
3B4
100
AcDbXrecord
280
     1
102
RTVSPost2010Prop28
280
     0
102
RTVSPost2010PropOp28
 70
     1
102
RTVSPost2010Prop29
280
     1
102
RTVSPost2010PropOp29
 70
     1
102
RTVSPost2010Prop30
280
     1
102
RTVSPost2010PropOp30
 70
     1
102
RTVSPost2010Prop31
280
     0
102
RTVSPost2010PropOp31
 70
     1
102
RTVSPost2010Prop32
280
     0
102
RTVSPost2010PropOp32
 70
     1
102
RTVSPost2010Prop33
280
     0
102
RTVSPost2010PropOp33
 70
     1
102
RTVSPost2010Prop34
280
     0
102
RTVSPost2010PropOp34
 70
     1
102
RTVSPost2010Prop35
280
     0
102
RTVSPost2010PropOp35
 70
     1
102
RTVSPost2010Prop36
280
     0
102
RTVSPost2010PropOp36
 70
     1
102
RTVSPost2010Prop37
 90
       50
102
RTVSPost2010PropOp37
 70
     0
102
RTVSPost2010Prop38
140
0.0
102
RTVSPost2010PropOp38
 70
     0
102
RTVSPost2010Prop39
140
1.0
102
RTVSPost2010PropOp39
 70
     0
102
RTVSPost2010Prop40
 90
        0
102
RTVSPost2010PropOp40
 70
     0
102
RTVSPost2010Prop41ColorIndex
 90
       18
102
RTVSPost2010Prop41ColorRGB
 90
        0
102
RTVSPost2010PropOp41
 70
     0
102
RTVSPost2010Prop42
 90
       50
102
RTVSPost2010PropOp42
 70
     0
102
RTVSPost2010Prop43
 90
        3
102
RTVSPost2010PropOp43
 70
     0
102
RTVSPost2010Prop44ColorIndex
 90
        5
102
RTVSPost2010Prop44ColorRGB
 90
      255
102
RTVSPost2010PropOp44
 70
     0
102
RTVSPost2010Prop45
280
     0
102
RTVSPost2010PropOp45
 70
     1
102
RTVSPost2010Prop46
 90
       50
102
RTVSPost2010PropOp46
 70
     0
102
RTVSPost2010Prop47
 90
       50
102
RTVSPost2010PropOp47
 70
     0
102
RTVSPost2010Prop48
 90
       50
102
RTVSPost2010PropOp48
 70
     0
102
RTVSPost2010Prop49
280
     0
102
RTVSPost2010PropOp49
 70
     1
102
RTVSPost2010Prop50
 90
       50
102
RTVSPost2010PropOp50
 70
     0
102
RTVSPost2010Prop51ColorIndex
 90
      256
102
RTVSPost2010Prop51ColorRGB
 90
-16777216
102
RTVSPost2010PropOp51
 70
     0
102
RTVSPost2010Prop52
140
1.0
102
RTVSPost2010PropOp52
 70
     0
102
RTVSPost2010Prop53
 90
        2
102
RTVSPost2010PropOp53
 70
     0
102
RTVSPost2010Prop54
  1
strokes_ogs.tif
102
RTVSPost2010PropOp54
 70
     0
102
RTVSPost2010Prop55
280
     0
102
RTVSPost2010PropOp55
 70
     1
102
RTVSPost2010Prop56
140
1.0
102
RTVSPost2010PropOp56
 70
     0
102
RTVSPost2010Prop57
140
1.0
102
RTVSPost2010PropOp57
 70
     0
102
RTVSPropertyOp0
 70
     0
102
RTVSPropertyOp1
 70
     0
102
RTVSPropertyOp2
 70
     0
102
RTVSPropertyOp3
 70
     0
102
RTVSPropertyOp4
 70
     0
102
RTVSPropertyOp5
 70
     0
102
RTVSPropertyOp6
 70
     0
102
RTVSPropertyOp7
 70
     0
102
RTVSPropertyOp8
 70
     0
102
RTVSPropertyOp9
 70
     0
102
RTVSPropertyOp10
 70
     0
102
RTVSPropertyOp11
 70
     0
102
RTVSPropertyOp12
 70
     0
102
RTVSPropertyOp13
 70
     0
102
RTVSPropertyOp14
 70
     2
102
RTVSPropertyOp15
 70
     0
102
RTVSPropertyOp16
 70
     0
102
RTVSPropertyOp17
 70
     0
102
RTVSPropertyOp18
 70
     0
102
RTVSPropertyOp19
 70
     0
102
RTVSPropertyOp20
 70
     0
102
RTVSPropertyOp21
 70
     0
102
RTVSPropertyOp22
 70
     0
102
RTVSPropertyOp23
 70
     0
102
RTVSPropertyOp24
 70
     0
102
RTVSPropertyOp25
 70
     0
102
RTVSPropertyOp26
 70
     0
102
RTVSPropertyOp27
 70
     0
102
RTVSPropertyOp28
 70
     1
102
RTVSPropertyOp29
 70
     1
102
RTVSPropertyOp30
 70
     1
102
RTVSPropertyOp31
 70
     1
102
RTVSPropertyOp32
 70
     1
102
RTVSPropertyOp33
 70
     1
102
RTVSPropertyOp34
 70
     1
102
RTVSPropertyOp35
 70
     1
102
RTVSPropertyOp36
 70
     1
102
RTVSPropertyOp37
 70
     0
102
RTVSPropertyOp38
 70
     0
102
RTVSPropertyOp39
 70
     0
102
RTVSPropertyOp40
 70
     0
102
RTVSPropertyOp41
 70
     0
102
RTVSPropertyOp42
 70
     0
102
RTVSPropertyOp43
 70
     0
102
RTVSPropertyOp44
 70
     0
102
RTVSPropertyOp45
 70
     1
102
RTVSPropertyOp46
 70
     0
102
RTVSPropertyOp47
 70
     0
102
RTVSPropertyOp48
 70
     0
102
RTVSPropertyOp49
 70
     1
102
RTVSPropertyOp50
 70
     0
102
RTVSPropertyOp51
 70
     0
102
RTVSPropertyOp52
 70
     0
102
RTVSPropertyOp53
 70
     0
102
RTVSPropertyOp54
 70
     0
102
RTVSPropertyOp55
 70
     1
102
RTVSPropertyOp56
 70
     0
102
RTVSPropertyOp57
 70
     0
102
RTVSPropertyOp58
 70
     0
102
RTVSPropertyOp59
 70
     0
102
RTVSPropertyOp60
 70
     0
102
RTVSPropertyOp61
 70
     0
102
RTVSPropertyOp62
 70
     0
  0
XRECORD
  5
3A3
102
{ACAD_REACTORS
330
3A2
102
}
330
3A2
100
AcDbXrecord
280
     1
102
RTVSPost2010Prop28
280
     0
102
RTVSPost2010PropOp28
 70
     1
102
RTVSPost2010Prop29
280
     1
102
RTVSPost2010PropOp29
 70
     1
102
RTVSPost2010Prop30
280
     1
102
RTVSPost2010PropOp30
 70
     1
102
RTVSPost2010Prop31
280
     0
102
RTVSPost2010PropOp31
 70
     1
102
RTVSPost2010Prop32
280
     0
102
RTVSPost2010PropOp32
 70
     1
102
RTVSPost2010Prop33
280
     0
102
RTVSPost2010PropOp33
 70
     1
102
RTVSPost2010Prop34
280
     0
102
RTVSPost2010PropOp34
 70
     1
102
RTVSPost2010Prop35
280
     0
102
RTVSPost2010PropOp35
 70
     1
102
RTVSPost2010Prop36
280
     0
102
RTVSPost2010PropOp36
 70
     1
102
RTVSPost2010Prop37
 90
       50
102
RTVSPost2010PropOp37
 70
     1
102
RTVSPost2010Prop38
140
0.0
102
RTVSPost2010PropOp38
 70
     1
102
RTVSPost2010Prop39
140
1.0
102
RTVSPost2010PropOp39
 70
     1
102
RTVSPost2010Prop40
 90
        0
102
RTVSPost2010PropOp40
 70
     1
102
RTVSPost2010Prop41ColorIndex
 90
       18
102
RTVSPost2010Prop41ColorRGB
 90
        0
102
RTVSPost2010PropOp41
 70
     1
102
RTVSPost2010Prop42
 90
       50
102
RTVSPost2010PropOp42
 70
     1
102
RTVSPost2010Prop43
 90
        3
102
RTVSPost2010PropOp43
 70
     1
102
RTVSPost2010Prop44ColorIndex
 90
        5
102
RTVSPost2010Prop44ColorRGB
 90
      255
102
RTVSPost2010PropOp44
 70
     1
102
RTVSPost2010Prop45
280
     0
102
RTVSPost2010PropOp45
 70
     1
102
RTVSPost2010Prop46
 90
       50
102
RTVSPost2010PropOp46
 70
     1
102
RTVSPost2010Prop47
 90
       50
102
RTVSPost2010PropOp47
 70
     1
102
RTVSPost2010Prop48
 90
       50
102
RTVSPost2010PropOp48
 70
     1
102
RTVSPost2010Prop49
280
     0
102
RTVSPost2010PropOp49
 70
     1
102
RTVSPost2010Prop50
 90
       50
102
RTVSPost2010PropOp50
 70
     1
102
RTVSPost2010Prop51ColorIndex
 90
      256
102
RTVSPost2010Prop51ColorRGB
 90
-16777216
102
RTVSPost2010PropOp51
 70
     0
102
RTVSPost2010Prop52
140
1.0
102
RTVSPost2010PropOp52
 70
     0
102
RTVSPost2010Prop53
 90
        2
102
RTVSPost2010PropOp53
 70
     1
102
RTVSPost2010Prop54
  1
strokes_ogs.tif
102
RTVSPost2010PropOp54
 70
     1
102
RTVSPost2010Prop55
280
     0
102
RTVSPost2010PropOp55
 70
     1
102
RTVSPost2010Prop56
140
1.0
102
RTVSPost2010PropOp56
 70
     1
102
RTVSPost2010Prop57
140
1.0
102
RTVSPost2010PropOp57
 70
     1
102
RTVSPropertyOp0
 70
     1
102
RTVSPropertyOp1
 70
     1
102
RTVSPropertyOp2
 70
     1
102
RTVSPropertyOp3
 70
     1
102
RTVSPropertyOp4
 70
     1
102
RTVSPropertyOp5
 70
     1
102
RTVSPropertyOp6
 70
     1
102
RTVSPropertyOp7
 70
     1
102
RTVSPropertyOp8
 70
     1
102
RTVSPropertyOp9
 70
     1
102
RTVSPropertyOp10
 70
     1
102
RTVSPropertyOp11
 70
     1
102
RTVSPropertyOp12
 70
     1
102
RTVSPropertyOp13
 70
     1
102
RTVSPropertyOp14
 70
     1
102
RTVSPropertyOp15
 70
     1
102
RTVSPropertyOp16
 70
     1
102
RTVSPropertyOp17
 70
     1
102
RTVSPropertyOp18
 70
     1
102
RTVSPropertyOp19
 70
     1
102
RTVSPropertyOp20
 70
     1
102
RTVSPropertyOp21
 70
     1
102
RTVSPropertyOp22
 70
     1
102
RTVSPropertyOp23
 70
     1
102
RTVSPropertyOp24
 70
     1
102
RTVSPropertyOp25
 70
     1
102
RTVSPropertyOp26
 70
     1
102
RTVSPropertyOp27
 70
     1
102
RTVSPropertyOp28
 70
     1
102
RTVSPropertyOp29
 70
     1
102
RTVSPropertyOp30
 70
     1
102
RTVSPropertyOp31
 70
     1
102
RTVSPropertyOp32
 70
     1
102
RTVSPropertyOp33
 70
     1
102
RTVSPropertyOp34
 70
     1
102
RTVSPropertyOp35
 70
     1
102
RTVSPropertyOp36
 70
     1
102
RTVSPropertyOp37
 70
     1
102
RTVSPropertyOp38
 70
     1
102
RTVSPropertyOp39
 70
     1
102
RTVSPropertyOp40
 70
     1
102
RTVSPropertyOp41
 70
     1
102
RTVSPropertyOp42
 70
     1
102
RTVSPropertyOp43
 70
     1
102
RTVSPropertyOp44
 70
     1
102
RTVSPropertyOp45
 70
     1
102
RTVSPropertyOp46
 70
     1
102
RTVSPropertyOp47
 70
     1
102
RTVSPropertyOp48
 70
     1
102
RTVSPropertyOp49
 70
     1
102
RTVSPropertyOp50
 70
     1
102
RTVSPropertyOp51
 70
     0
102
RTVSPropertyOp52
 70
     0
102
RTVSPropertyOp53
 70
     1
102
RTVSPropertyOp54
 70
     1
102
RTVSPropertyOp55
 70
     1
102
RTVSPropertyOp56
 70
     1
102
RTVSPropertyOp57
 70
     1
102
RTVSPropertyOp58
 70
     1
102
RTVSPropertyOp59
 70
     1
102
RTVSPropertyOp60
 70
     1
102
RTVSPropertyOp61
 70
     1
102
RTVSPropertyOp62
 70
     1
  0
XRECORD
  5
387
102
{ACAD_REACTORS
330
386
102
}
330
386
100
AcDbXrecord
280
     1
102
RTVSPost2010Prop28
280
     0
102
RTVSPost2010PropOp28
 70
     1
102
RTVSPost2010Prop29
280
     1
102
RTVSPost2010PropOp29
 70
     1
102
RTVSPost2010Prop30
280
     1
102
RTVSPost2010PropOp30
 70
     1
102
RTVSPost2010Prop31
280
     0
102
RTVSPost2010PropOp31
 70
     1
102
RTVSPost2010Prop32
280
     0
102
RTVSPost2010PropOp32
 70
     1
102
RTVSPost2010Prop33
280
     0
102
RTVSPost2010PropOp33
 70
     1
102
RTVSPost2010Prop34
280
     0
102
RTVSPost2010PropOp34
 70
     1
102
RTVSPost2010Prop35
280
     0
102
RTVSPost2010PropOp35
 70
     1
102
RTVSPost2010Prop36
280
     0
102
RTVSPost2010PropOp36
 70
     1
102
RTVSPost2010Prop37
 90
       50
102
RTVSPost2010PropOp37
 70
     1
102
RTVSPost2010Prop38
140
0.0
102
RTVSPost2010PropOp38
 70
     1
102
RTVSPost2010Prop39
140
1.0
102
RTVSPost2010PropOp39
 70
     1
102
RTVSPost2010Prop40
 90
        0
102
RTVSPost2010PropOp40
 70
     1
102
RTVSPost2010Prop41ColorIndex
 90
       18
102
RTVSPost2010Prop41ColorRGB
 90
        0
102
RTVSPost2010PropOp41
 70
     1
102
RTVSPost2010Prop42
 90
       50
102
RTVSPost2010PropOp42
 70
     1
102
RTVSPost2010Prop43
 90
        3
102
RTVSPost2010PropOp43
 70
     1
102
RTVSPost2010Prop44ColorIndex
 90
        5
102
RTVSPost2010Prop44ColorRGB
 90
      255
102
RTVSPost2010PropOp44
 70
     1
102
RTVSPost2010Prop45
280
     0
102
RTVSPost2010PropOp45
 70
     1
102
RTVSPost2010Prop46
 90
       50
102
RTVSPost2010PropOp46
 70
     1
102
RTVSPost2010Prop47
 90
       50
102
RTVSPost2010PropOp47
 70
     1
102
RTVSPost2010Prop48
 90
       50
102
RTVSPost2010PropOp48
 70
     1
102
RTVSPost2010Prop49
280
     0
102
RTVSPost2010PropOp49
 70
     1
102
RTVSPost2010Prop50
 90
       50
102
RTVSPost2010PropOp50
 70
     1
102
RTVSPost2010Prop51ColorIndex
 90
      256
102
RTVSPost2010Prop51ColorRGB
 90
-16777216
102
RTVSPost2010PropOp51
 70
     0
102
RTVSPost2010Prop52
140
1.0
102
RTVSPost2010PropOp52
 70
     0
102
RTVSPost2010Prop53
 90
        2
102
RTVSPost2010PropOp53
 70
     1
102
RTVSPost2010Prop54
  1
strokes_ogs.tif
102
RTVSPost2010PropOp54
 70
     1
102
RTVSPost2010Prop55
280
     0
102
RTVSPost2010PropOp55
 70
     1
102
RTVSPost2010Prop56
140
1.0
102
RTVSPost2010PropOp56
 70
     1
102
RTVSPost2010Prop57
140
1.0
102
RTVSPost2010PropOp57
 70
     1
102
RTVSPropertyOp0
 70
     1
102
RTVSPropertyOp1
 70
     1
102
RTVSPropertyOp2
 70
     1
102
RTVSPropertyOp3
 70
     1
102
RTVSPropertyOp4
 70
     1
102
RTVSPropertyOp5
 70
     1
102
RTVSPropertyOp6
 70
     1
102
RTVSPropertyOp7
 70
     1
102
RTVSPropertyOp8
 70
     1
102
RTVSPropertyOp9
 70
     1
102
RTVSPropertyOp10
 70
     1
102
RTVSPropertyOp11
 70
     1
102
RTVSPropertyOp12
 70
     1
102
RTVSPropertyOp13
 70
     1
102
RTVSPropertyOp14
 70
     1
102
RTVSPropertyOp15
 70
     1
102
RTVSPropertyOp16
 70
     1
102
RTVSPropertyOp17
 70
     1
102
RTVSPropertyOp18
 70
     1
102
RTVSPropertyOp19
 70
     1
102
RTVSPropertyOp20
 70
     1
102
RTVSPropertyOp21
 70
     1
102
RTVSPropertyOp22
 70
     1
102
RTVSPropertyOp23
 70
     1
102
RTVSPropertyOp24
 70
     1
102
RTVSPropertyOp25
 70
     1
102
RTVSPropertyOp26
 70
     1
102
RTVSPropertyOp27
 70
     1
102
RTVSPropertyOp28
 70
     1
102
RTVSPropertyOp29
 70
     1
102
RTVSPropertyOp30
 70
     1
102
RTVSPropertyOp31
 70
     1
102
RTVSPropertyOp32
 70
     1
102
RTVSPropertyOp33
 70
     1
102
RTVSPropertyOp34
 70
     1
102
RTVSPropertyOp35
 70
     1
102
RTVSPropertyOp36
 70
     1
102
RTVSPropertyOp37
 70
     1
102
RTVSPropertyOp38
 70
     1
102
RTVSPropertyOp39
 70
     1
102
RTVSPropertyOp40
 70
     1
102
RTVSPropertyOp41
 70
     1
102
RTVSPropertyOp42
 70
     1
102
RTVSPropertyOp43
 70
     1
102
RTVSPropertyOp44
 70
     1
102
RTVSPropertyOp45
 70
     1
102
RTVSPropertyOp46
 70
     1
102
RTVSPropertyOp47
 70
     1
102
RTVSPropertyOp48
 70
     1
102
RTVSPropertyOp49
 70
     1
102
RTVSPropertyOp50
 70
     1
102
RTVSPropertyOp51
 70
     0
102
RTVSPropertyOp52
 70
     0
102
RTVSPropertyOp53
 70
     1
102
RTVSPropertyOp54
 70
     1
102
RTVSPropertyOp55
 70
     1
102
RTVSPropertyOp56
 70
     1
102
RTVSPropertyOp57
 70
     1
102
RTVSPropertyOp58
 70
     1
102
RTVSPropertyOp59
 70
     1
102
RTVSPropertyOp60
 70
     1
102
RTVSPropertyOp61
 70
     1
102
RTVSPropertyOp62
 70
     1
  0
XRECORD
  5
389
102
{ACAD_REACTORS
330
388
102
}
330
388
100
AcDbXrecord
280
     1
102
RTVSPost2010Prop28
280
     0
102
RTVSPost2010PropOp28
 70
     1
102
RTVSPost2010Prop29
280
     1
102
RTVSPost2010PropOp29
 70
     1
102
RTVSPost2010Prop30
280
     1
102
RTVSPost2010PropOp30
 70
     1
102
RTVSPost2010Prop31
280
     0
102
RTVSPost2010PropOp31
 70
     1
102
RTVSPost2010Prop32
280
     0
102
RTVSPost2010PropOp32
 70
     1
102
RTVSPost2010Prop33
280
     0
102
RTVSPost2010PropOp33
 70
     1
102
RTVSPost2010Prop34
280
     0
102
RTVSPost2010PropOp34
 70
     1
102
RTVSPost2010Prop35
280
     0
102
RTVSPost2010PropOp35
 70
     1
102
RTVSPost2010Prop36
280
     0
102
RTVSPost2010PropOp36
 70
     1
102
RTVSPost2010Prop37
 90
       50
102
RTVSPost2010PropOp37
 70
     1
102
RTVSPost2010Prop38
140
0.0
102
RTVSPost2010PropOp38
 70
     1
102
RTVSPost2010Prop39
140
1.0
102
RTVSPost2010PropOp39
 70
     1
102
RTVSPost2010Prop40
 90
        0
102
RTVSPost2010PropOp40
 70
     1
102
RTVSPost2010Prop41ColorIndex
 90
       18
102
RTVSPost2010Prop41ColorRGB
 90
        0
102
RTVSPost2010PropOp41
 70
     1
102
RTVSPost2010Prop42
 90
       50
102
RTVSPost2010PropOp42
 70
     1
102
RTVSPost2010Prop43
 90
        3
102
RTVSPost2010PropOp43
 70
     1
102
RTVSPost2010Prop44ColorIndex
 90
        5
102
RTVSPost2010Prop44ColorRGB
 90
      255
102
RTVSPost2010PropOp44
 70
     1
102
RTVSPost2010Prop45
280
     0
102
RTVSPost2010PropOp45
 70
     1
102
RTVSPost2010Prop46
 90
       50
102
RTVSPost2010PropOp46
 70
     1
102
RTVSPost2010Prop47
 90
       50
102
RTVSPost2010PropOp47
 70
     1
102
RTVSPost2010Prop48
 90
       50
102
RTVSPost2010PropOp48
 70
     1
102
RTVSPost2010Prop49
280
     0
102
RTVSPost2010PropOp49
 70
     1
102
RTVSPost2010Prop50
 90
       50
102
RTVSPost2010PropOp50
 70
     1
102
RTVSPost2010Prop51ColorIndex
 90
      256
102
RTVSPost2010Prop51ColorRGB
 90
-16777216
102
RTVSPost2010PropOp51
 70
     0
102
RTVSPost2010Prop52
140
1.0
102
RTVSPost2010PropOp52
 70
     0
102
RTVSPost2010Prop53
 90
        2
102
RTVSPost2010PropOp53
 70
     1
102
RTVSPost2010Prop54
  1
strokes_ogs.tif
102
RTVSPost2010PropOp54
 70
     1
102
RTVSPost2010Prop55
280
     0
102
RTVSPost2010PropOp55
 70
     1
102
RTVSPost2010Prop56
140
1.0
102
RTVSPost2010PropOp56
 70
     1
102
RTVSPost2010Prop57
140
1.0
102
RTVSPost2010PropOp57
 70
     1
102
RTVSPropertyOp0
 70
     1
102
RTVSPropertyOp1
 70
     1
102
RTVSPropertyOp2
 70
     1
102
RTVSPropertyOp3
 70
     1
102
RTVSPropertyOp4
 70
     1
102
RTVSPropertyOp5
 70
     1
102
RTVSPropertyOp6
 70
     1
102
RTVSPropertyOp7
 70
     1
102
RTVSPropertyOp8
 70
     1
102
RTVSPropertyOp9
 70
     1
102
RTVSPropertyOp10
 70
     1
102
RTVSPropertyOp11
 70
     1
102
RTVSPropertyOp12
 70
     1
102
RTVSPropertyOp13
 70
     1
102
RTVSPropertyOp14
 70
     1
102
RTVSPropertyOp15
 70
     1
102
RTVSPropertyOp16
 70
     1
102
RTVSPropertyOp17
 70
     1
102
RTVSPropertyOp18
 70
     1
102
RTVSPropertyOp19
 70
     1
102
RTVSPropertyOp20
 70
     1
102
RTVSPropertyOp21
 70
     1
102
RTVSPropertyOp22
 70
     1
102
RTVSPropertyOp23
 70
     1
102
RTVSPropertyOp24
 70
     1
102
RTVSPropertyOp25
 70
     1
102
RTVSPropertyOp26
 70
     1
102
RTVSPropertyOp27
 70
     1
102
RTVSPropertyOp28
 70
     1
102
RTVSPropertyOp29
 70
     1
102
RTVSPropertyOp30
 70
     1
102
RTVSPropertyOp31
 70
     1
102
RTVSPropertyOp32
 70
     1
102
RTVSPropertyOp33
 70
     1
102
RTVSPropertyOp34
 70
     1
102
RTVSPropertyOp35
 70
     1
102
RTVSPropertyOp36
 70
     1
102
RTVSPropertyOp37
 70
     1
102
RTVSPropertyOp38
 70
     1
102
RTVSPropertyOp39
 70
     1
102
RTVSPropertyOp40
 70
     1
102
RTVSPropertyOp41
 70
     1
102
RTVSPropertyOp42
 70
     1
102
RTVSPropertyOp43
 70
     1
102
RTVSPropertyOp44
 70
     1
102
RTVSPropertyOp45
 70
     1
102
RTVSPropertyOp46
 70
     1
102
RTVSPropertyOp47
 70
     1
102
RTVSPropertyOp48
 70
     1
102
RTVSPropertyOp49
 70
     1
102
RTVSPropertyOp50
 70
     1
102
RTVSPropertyOp51
 70
     0
102
RTVSPropertyOp52
 70
     0
102
RTVSPropertyOp53
 70
     1
102
RTVSPropertyOp54
 70
     1
102
RTVSPropertyOp55
 70
     1
102
RTVSPropertyOp56
 70
     1
102
RTVSPropertyOp57
 70
     1
102
RTVSPropertyOp58
 70
     1
102
RTVSPropertyOp59
 70
     1
102
RTVSPropertyOp60
 70
     1
102
RTVSPropertyOp61
 70
     1
102
RTVSPropertyOp62
 70
     1
  0
XRECORD
  5
38B
102
{ACAD_REACTORS
330
38A
102
}
330
38A
100
AcDbXrecord
280
     1
102
RTVSPost2010Prop28
280
     0
102
RTVSPost2010PropOp28
 70
     1
102
RTVSPost2010Prop29
280
     1
102
RTVSPost2010PropOp29
 70
     1
102
RTVSPost2010Prop30
280
     1
102
RTVSPost2010PropOp30
 70
     1
102
RTVSPost2010Prop31
280
     0
102
RTVSPost2010PropOp31
 70
     1
102
RTVSPost2010Prop32
280
     0
102
RTVSPost2010PropOp32
 70
     1
102
RTVSPost2010Prop33
280
     0
102
RTVSPost2010PropOp33
 70
     1
102
RTVSPost2010Prop34
280
     0
102
RTVSPost2010PropOp34
 70
     1
102
RTVSPost2010Prop35
280
     0
102
RTVSPost2010PropOp35
 70
     1
102
RTVSPost2010Prop36
280
     0
102
RTVSPost2010PropOp36
 70
     1
102
RTVSPost2010Prop37
 90
       50
102
RTVSPost2010PropOp37
 70
     1
102
RTVSPost2010Prop38
140
0.0
102
RTVSPost2010PropOp38
 70
     1
102
RTVSPost2010Prop39
140
1.0
102
RTVSPost2010PropOp39
 70
     1
102
RTVSPost2010Prop40
 90
        0
102
RTVSPost2010PropOp40
 70
     1
102
RTVSPost2010Prop41ColorIndex
 90
       18
102
RTVSPost2010Prop41ColorRGB
 90
        0
102
RTVSPost2010PropOp41
 70
     1
102
RTVSPost2010Prop42
 90
       50
102
RTVSPost2010PropOp42
 70
     1
102
RTVSPost2010Prop43
 90
        3
102
RTVSPost2010PropOp43
 70
     1
102
RTVSPost2010Prop44ColorIndex
 90
        5
102
RTVSPost2010Prop44ColorRGB
 90
      255
102
RTVSPost2010PropOp44
 70
     1
102
RTVSPost2010Prop45
280
     0
102
RTVSPost2010PropOp45
 70
     1
102
RTVSPost2010Prop46
 90
       50
102
RTVSPost2010PropOp46
 70
     1
102
RTVSPost2010Prop47
 90
       50
102
RTVSPost2010PropOp47
 70
     1
102
RTVSPost2010Prop48
 90
       50
102
RTVSPost2010PropOp48
 70
     1
102
RTVSPost2010Prop49
280
     0
102
RTVSPost2010PropOp49
 70
     1
102
RTVSPost2010Prop50
 90
       50
102
RTVSPost2010PropOp50
 70
     1
102
RTVSPost2010Prop51ColorIndex
 90
      256
102
RTVSPost2010Prop51ColorRGB
 90
-16777216
102
RTVSPost2010PropOp51
 70
     0
102
RTVSPost2010Prop52
140
1.0
102
RTVSPost2010PropOp52
 70
     0
102
RTVSPost2010Prop53
 90
        2
102
RTVSPost2010PropOp53
 70
     1
102
RTVSPost2010Prop54
  1
strokes_ogs.tif
102
RTVSPost2010PropOp54
 70
     1
102
RTVSPost2010Prop55
280
     0
102
RTVSPost2010PropOp55
 70
     1
102
RTVSPost2010Prop56
140
1.0
102
RTVSPost2010PropOp56
 70
     1
102
RTVSPost2010Prop57
140
1.0
102
RTVSPost2010PropOp57
 70
     1
102
RTVSPropertyOp0
 70
     1
102
RTVSPropertyOp1
 70
     1
102
RTVSPropertyOp2
 70
     1
102
RTVSPropertyOp3
 70
     1
102
RTVSPropertyOp4
 70
     1
102
RTVSPropertyOp5
 70
     1
102
RTVSPropertyOp6
 70
     1
102
RTVSPropertyOp7
 70
     1
102
RTVSPropertyOp8
 70
     1
102
RTVSPropertyOp9
 70
     1
102
RTVSPropertyOp10
 70
     1
102
RTVSPropertyOp11
 70
     1
102
RTVSPropertyOp12
 70
     1
102
RTVSPropertyOp13
 70
     1
102
RTVSPropertyOp14
 70
     1
102
RTVSPropertyOp15
 70
     1
102
RTVSPropertyOp16
 70
     1
102
RTVSPropertyOp17
 70
     1
102
RTVSPropertyOp18
 70
     1
102
RTVSPropertyOp19
 70
     1
102
RTVSPropertyOp20
 70
     1
102
RTVSPropertyOp21
 70
     1
102
RTVSPropertyOp22
 70
     1
102
RTVSPropertyOp23
 70
     1
102
RTVSPropertyOp24
 70
     1
102
RTVSPropertyOp25
 70
     1
102
RTVSPropertyOp26
 70
     1
102
RTVSPropertyOp27
 70
     1
102
RTVSPropertyOp28
 70
     1
102
RTVSPropertyOp29
 70
     1
102
RTVSPropertyOp30
 70
     1
102
RTVSPropertyOp31
 70
     1
102
RTVSPropertyOp32
 70
     1
102
RTVSPropertyOp33
 70
     1
102
RTVSPropertyOp34
 70
     1
102
RTVSPropertyOp35
 70
     1
102
RTVSPropertyOp36
 70
     1
102
RTVSPropertyOp37
 70
     1
102
RTVSPropertyOp38
 70
     1
102
RTVSPropertyOp39
 70
     1
102
RTVSPropertyOp40
 70
     1
102
RTVSPropertyOp41
 70
     1
102
RTVSPropertyOp42
 70
     1
102
RTVSPropertyOp43
 70
     1
102
RTVSPropertyOp44
 70
     1
102
RTVSPropertyOp45
 70
     1
102
RTVSPropertyOp46
 70
     1
102
RTVSPropertyOp47
 70
     1
102
RTVSPropertyOp48
 70
     1
102
RTVSPropertyOp49
 70
     1
102
RTVSPropertyOp50
 70
     1
102
RTVSPropertyOp51
 70
     0
102
RTVSPropertyOp52
 70
     0
102
RTVSPropertyOp53
 70
     1
102
RTVSPropertyOp54
 70
     1
102
RTVSPropertyOp55
 70
     1
102
RTVSPropertyOp56
 70
     1
102
RTVSPropertyOp57
 70
     1
102
RTVSPropertyOp58
 70
     1
102
RTVSPropertyOp59
 70
     1
102
RTVSPropertyOp60
 70
     1
102
RTVSPropertyOp61
 70
     1
102
RTVSPropertyOp62
 70
     1
  0
XRECORD
  5
38D
102
{ACAD_REACTORS
330
38C
102
}
330
38C
100
AcDbXrecord
280
     1
102
RTVSPost2010Prop28
280
     0
102
RTVSPost2010PropOp28
 70
     1
102
RTVSPost2010Prop29
280
     1
102
RTVSPost2010PropOp29
 70
     1
102
RTVSPost2010Prop30
280
     1
102
RTVSPost2010PropOp30
 70
     1
102
RTVSPost2010Prop31
280
     0
102
RTVSPost2010PropOp31
 70
     1
102
RTVSPost2010Prop32
280
     0
102
RTVSPost2010PropOp32
 70
     1
102
RTVSPost2010Prop33
280
     0
102
RTVSPost2010PropOp33
 70
     1
102
RTVSPost2010Prop34
280
     0
102
RTVSPost2010PropOp34
 70
     1
102
RTVSPost2010Prop35
280
     0
102
RTVSPost2010PropOp35
 70
     1
102
RTVSPost2010Prop36
280
     0
102
RTVSPost2010PropOp36
 70
     1
102
RTVSPost2010Prop37
 90
       50
102
RTVSPost2010PropOp37
 70
     1
102
RTVSPost2010Prop38
140
0.0
102
RTVSPost2010PropOp38
 70
     1
102
RTVSPost2010Prop39
140
1.0
102
RTVSPost2010PropOp39
 70
     1
102
RTVSPost2010Prop40
 90
        0
102
RTVSPost2010PropOp40
 70
     1
102
RTVSPost2010Prop41ColorIndex
 90
       18
102
RTVSPost2010Prop41ColorRGB
 90
        0
102
RTVSPost2010PropOp41
 70
     1
102
RTVSPost2010Prop42
 90
       50
102
RTVSPost2010PropOp42
 70
     1
102
RTVSPost2010Prop43
 90
        3
102
RTVSPost2010PropOp43
 70
     1
102
RTVSPost2010Prop44ColorIndex
 90
        5
102
RTVSPost2010Prop44ColorRGB
 90
      255
102
RTVSPost2010PropOp44
 70
     1
102
RTVSPost2010Prop45
280
     0
102
RTVSPost2010PropOp45
 70
     1
102
RTVSPost2010Prop46
 90
       50
102
RTVSPost2010PropOp46
 70
     1
102
RTVSPost2010Prop47
 90
       50
102
RTVSPost2010PropOp47
 70
     1
102
RTVSPost2010Prop48
 90
       50
102
RTVSPost2010PropOp48
 70
     1
102
RTVSPost2010Prop49
280
     0
102
RTVSPost2010PropOp49
 70
     1
102
RTVSPost2010Prop50
 90
       50
102
RTVSPost2010PropOp50
 70
     1
102
RTVSPost2010Prop51ColorIndex
 90
      256
102
RTVSPost2010Prop51ColorRGB
 90
-16777216
102
RTVSPost2010PropOp51
 70
     0
102
RTVSPost2010Prop52
140
1.0
102
RTVSPost2010PropOp52
 70
     0
102
RTVSPost2010Prop53
 90
        2
102
RTVSPost2010PropOp53
 70
     1
102
RTVSPost2010Prop54
  1
strokes_ogs.tif
102
RTVSPost2010PropOp54
 70
     1
102
RTVSPost2010Prop55
280
     0
102
RTVSPost2010PropOp55
 70
     1
102
RTVSPost2010Prop56
140
1.0
102
RTVSPost2010PropOp56
 70
     1
102
RTVSPost2010Prop57
140
1.0
102
RTVSPost2010PropOp57
 70
     1
102
RTVSPropertyOp0
 70
     1
102
RTVSPropertyOp1
 70
     1
102
RTVSPropertyOp2
 70
     1
102
RTVSPropertyOp3
 70
     1
102
RTVSPropertyOp4
 70
     1
102
RTVSPropertyOp5
 70
     1
102
RTVSPropertyOp6
 70
     1
102
RTVSPropertyOp7
 70
     1
102
RTVSPropertyOp8
 70
     1
102
RTVSPropertyOp9
 70
     1
102
RTVSPropertyOp10
 70
     1
102
RTVSPropertyOp11
 70
     1
102
RTVSPropertyOp12
 70
     1
102
RTVSPropertyOp13
 70
     1
102
RTVSPropertyOp14
 70
     1
102
RTVSPropertyOp15
 70
     1
102
RTVSPropertyOp16
 70
     1
102
RTVSPropertyOp17
 70
     1
102
RTVSPropertyOp18
 70
     1
102
RTVSPropertyOp19
 70
     1
102
RTVSPropertyOp20
 70
     1
102
RTVSPropertyOp21
 70
     1
102
RTVSPropertyOp22
 70
     1
102
RTVSPropertyOp23
 70
     1
102
RTVSPropertyOp24
 70
     1
102
RTVSPropertyOp25
 70
     1
102
RTVSPropertyOp26
 70
     1
102
RTVSPropertyOp27
 70
     1
102
RTVSPropertyOp28
 70
     1
102
RTVSPropertyOp29
 70
     1
102
RTVSPropertyOp30
 70
     1
102
RTVSPropertyOp31
 70
     1
102
RTVSPropertyOp32
 70
     1
102
RTVSPropertyOp33
 70
     1
102
RTVSPropertyOp34
 70
     1
102
RTVSPropertyOp35
 70
     1
102
RTVSPropertyOp36
 70
     1
102
RTVSPropertyOp37
 70
     1
102
RTVSPropertyOp38
 70
     1
102
RTVSPropertyOp39
 70
     1
102
RTVSPropertyOp40
 70
     1
102
RTVSPropertyOp41
 70
     1
102
RTVSPropertyOp42
 70
     1
102
RTVSPropertyOp43
 70
     1
102
RTVSPropertyOp44
 70
     1
102
RTVSPropertyOp45
 70
     1
102
RTVSPropertyOp46
 70
     1
102
RTVSPropertyOp47
 70
     1
102
RTVSPropertyOp48
 70
     1
102
RTVSPropertyOp49
 70
     1
102
RTVSPropertyOp50
 70
     1
102
RTVSPropertyOp51
 70
     0
102
RTVSPropertyOp52
 70
     0
102
RTVSPropertyOp53
 70
     1
102
RTVSPropertyOp54
 70
     1
102
RTVSPropertyOp55
 70
     1
102
RTVSPropertyOp56
 70
     1
102
RTVSPropertyOp57
 70
     1
102
RTVSPropertyOp58
 70
     1
102
RTVSPropertyOp59
 70
     1
102
RTVSPropertyOp60
 70
     1
102
RTVSPropertyOp61
 70
     1
102
RTVSPropertyOp62
 70
     1
  0
XRECORD
  5
395
102
{ACAD_REACTORS
330
394
102
}
330
394
100
AcDbXrecord
280
     1
102
RTVSPost2010Prop28
280
     0
102
RTVSPost2010PropOp28
 70
     1
102
RTVSPost2010Prop29
280
     1
102
RTVSPost2010PropOp29
 70
     1
102
RTVSPost2010Prop30
280
     1
102
RTVSPost2010PropOp30
 70
     1
102
RTVSPost2010Prop31
280
     0
102
RTVSPost2010PropOp31
 70
     1
102
RTVSPost2010Prop32
280
     0
102
RTVSPost2010PropOp32
 70
     1
102
RTVSPost2010Prop33
280
     0
102
RTVSPost2010PropOp33
 70
     1
102
RTVSPost2010Prop34
280
     0
102
RTVSPost2010PropOp34
 70
     1
102
RTVSPost2010Prop35
280
     0
102
RTVSPost2010PropOp35
 70
     1
102
RTVSPost2010Prop36
280
     0
102
RTVSPost2010PropOp36
 70
     1
102
RTVSPost2010Prop37
 90
       50
102
RTVSPost2010PropOp37
 70
     1
102
RTVSPost2010Prop38
140
0.0
102
RTVSPost2010PropOp38
 70
     1
102
RTVSPost2010Prop39
140
1.0
102
RTVSPost2010PropOp39
 70
     1
102
RTVSPost2010Prop40
 90
        0
102
RTVSPost2010PropOp40
 70
     1
102
RTVSPost2010Prop41ColorIndex
 90
       18
102
RTVSPost2010Prop41ColorRGB
 90
        0
102
RTVSPost2010PropOp41
 70
     1
102
RTVSPost2010Prop42
 90
       50
102
RTVSPost2010PropOp42
 70
     1
102
RTVSPost2010Prop43
 90
        3
102
RTVSPost2010PropOp43
 70
     1
102
RTVSPost2010Prop44ColorIndex
 90
        5
102
RTVSPost2010Prop44ColorRGB
 90
      255
102
RTVSPost2010PropOp44
 70
     1
102
RTVSPost2010Prop45
280
     0
102
RTVSPost2010PropOp45
 70
     1
102
RTVSPost2010Prop46
 90
       50
102
RTVSPost2010PropOp46
 70
     1
102
RTVSPost2010Prop47
 90
       50
102
RTVSPost2010PropOp47
 70
     1
102
RTVSPost2010Prop48
 90
       50
102
RTVSPost2010PropOp48
 70
     1
102
RTVSPost2010Prop49
280
     0
102
RTVSPost2010PropOp49
 70
     1
102
RTVSPost2010Prop50
 90
       50
102
RTVSPost2010PropOp50
 70
     1
102
RTVSPost2010Prop51ColorIndex
 90
      256
102
RTVSPost2010Prop51ColorRGB
 90
-16777216
102
RTVSPost2010PropOp51
 70
     0
102
RTVSPost2010Prop52
140
1.0
102
RTVSPost2010PropOp52
 70
     0
102
RTVSPost2010Prop53
 90
        2
102
RTVSPost2010PropOp53
 70
     1
102
RTVSPost2010Prop54
  1
strokes_ogs.tif
102
RTVSPost2010PropOp54
 70
     1
102
RTVSPost2010Prop55
280
     0
102
RTVSPost2010PropOp55
 70
     1
102
RTVSPost2010Prop56
140
1.0
102
RTVSPost2010PropOp56
 70
     1
102
RTVSPost2010Prop57
140
1.0
102
RTVSPost2010PropOp57
 70
     1
102
RTVSPropertyOp0
 70
     1
102
RTVSPropertyOp1
 70
     1
102
RTVSPropertyOp2
 70
     1
102
RTVSPropertyOp3
 70
     1
102
RTVSPropertyOp4
 70
     1
102
RTVSPropertyOp5
 70
     1
102
RTVSPropertyOp6
 70
     1
102
RTVSPropertyOp7
 70
     1
102
RTVSPropertyOp8
 70
     1
102
RTVSPropertyOp9
 70
     1
102
RTVSPropertyOp10
 70
     1
102
RTVSPropertyOp11
 70
     1
102
RTVSPropertyOp12
 70
     1
102
RTVSPropertyOp13
 70
     1
102
RTVSPropertyOp14
 70
     1
102
RTVSPropertyOp15
 70
     1
102
RTVSPropertyOp16
 70
     1
102
RTVSPropertyOp17
 70
     1
102
RTVSPropertyOp18
 70
     1
102
RTVSPropertyOp19
 70
     1
102
RTVSPropertyOp20
 70
     1
102
RTVSPropertyOp21
 70
     1
102
RTVSPropertyOp22
 70
     1
102
RTVSPropertyOp23
 70
     1
102
RTVSPropertyOp24
 70
     1
102
RTVSPropertyOp25
 70
     1
102
RTVSPropertyOp26
 70
     1
102
RTVSPropertyOp27
 70
     1
102
RTVSPropertyOp28
 70
     1
102
RTVSPropertyOp29
 70
     1
102
RTVSPropertyOp30
 70
     1
102
RTVSPropertyOp31
 70
     1
102
RTVSPropertyOp32
 70
     1
102
RTVSPropertyOp33
 70
     1
102
RTVSPropertyOp34
 70
     1
102
RTVSPropertyOp35
 70
     1
102
RTVSPropertyOp36
 70
     1
102
RTVSPropertyOp37
 70
     1
102
RTVSPropertyOp38
 70
     1
102
RTVSPropertyOp39
 70
     1
102
RTVSPropertyOp40
 70
     1
102
RTVSPropertyOp41
 70
     1
102
RTVSPropertyOp42
 70
     1
102
RTVSPropertyOp43
 70
     1
102
RTVSPropertyOp44
 70
     1
102
RTVSPropertyOp45
 70
     1
102
RTVSPropertyOp46
 70
     1
102
RTVSPropertyOp47
 70
     1
102
RTVSPropertyOp48
 70
     1
102
RTVSPropertyOp49
 70
     1
102
RTVSPropertyOp50
 70
     1
102
RTVSPropertyOp51
 70
     0
102
RTVSPropertyOp52
 70
     0
102
RTVSPropertyOp53
 70
     1
102
RTVSPropertyOp54
 70
     1
102
RTVSPropertyOp55
 70
     1
102
RTVSPropertyOp56
 70
     1
102
RTVSPropertyOp57
 70
     1
102
RTVSPropertyOp58
 70
     1
102
RTVSPropertyOp59
 70
     1
102
RTVSPropertyOp60
 70
     1
102
RTVSPropertyOp61
 70
     1
102
RTVSPropertyOp62
 70
     1
  0
XRECORD
  5
3B1
102
{ACAD_REACTORS
330
3B0
102
}
330
3B0
100
AcDbXrecord
280
     1
102
RTVSPost2010Prop28
280
     0
102
RTVSPost2010PropOp28
 70
     1
102
RTVSPost2010Prop29
280
     1
102
RTVSPost2010PropOp29
 70
     1
102
RTVSPost2010Prop30
280
     1
102
RTVSPost2010PropOp30
 70
     1
102
RTVSPost2010Prop31
280
     0
102
RTVSPost2010PropOp31
 70
     1
102
RTVSPost2010Prop32
280
     0
102
RTVSPost2010PropOp32
 70
     1
102
RTVSPost2010Prop33
280
     0
102
RTVSPost2010PropOp33
 70
     1
102
RTVSPost2010Prop34
280
     0
102
RTVSPost2010PropOp34
 70
     1
102
RTVSPost2010Prop35
280
     0
102
RTVSPost2010PropOp35
 70
     1
102
RTVSPost2010Prop36
280
     0
102
RTVSPost2010PropOp36
 70
     1
102
RTVSPost2010Prop37
 90
       50
102
RTVSPost2010PropOp37
 70
     0
102
RTVSPost2010Prop38
140
0.0
102
RTVSPost2010PropOp38
 70
     0
102
RTVSPost2010Prop39
140
1.0
102
RTVSPost2010PropOp39
 70
     0
102
RTVSPost2010Prop40
 90
        0
102
RTVSPost2010PropOp40
 70
     0
102
RTVSPost2010Prop41ColorIndex
 90
       18
102
RTVSPost2010Prop41ColorRGB
 90
        0
102
RTVSPost2010PropOp41
 70
     0
102
RTVSPost2010Prop42
 90
       50
102
RTVSPost2010PropOp42
 70
     0
102
RTVSPost2010Prop43
 90
        3
102
RTVSPost2010PropOp43
 70
     0
102
RTVSPost2010Prop44ColorIndex
 90
        5
102
RTVSPost2010Prop44ColorRGB
 90
      255
102
RTVSPost2010PropOp44
 70
     0
102
RTVSPost2010Prop45
280
     0
102
RTVSPost2010PropOp45
 70
     1
102
RTVSPost2010Prop46
 90
       50
102
RTVSPost2010PropOp46
 70
     0
102
RTVSPost2010Prop47
 90
       50
102
RTVSPost2010PropOp47
 70
     0
102
RTVSPost2010Prop48
 90
       50
102
RTVSPost2010PropOp48
 70
     0
102
RTVSPost2010Prop49
280
     0
102
RTVSPost2010PropOp49
 70
     1
102
RTVSPost2010Prop50
 90
       50
102
RTVSPost2010PropOp50
 70
     0
102
RTVSPost2010Prop51ColorIndex
 90
      256
102
RTVSPost2010Prop51ColorRGB
 90
-16777216
102
RTVSPost2010PropOp51
 70
     0
102
RTVSPost2010Prop52
140
1.0
102
RTVSPost2010PropOp52
 70
     0
102
RTVSPost2010Prop53
 90
        2
102
RTVSPost2010PropOp53
 70
     0
102
RTVSPost2010Prop54
  1
strokes_ogs.tif
102
RTVSPost2010PropOp54
 70
     0
102
RTVSPost2010Prop55
280
     0
102
RTVSPost2010PropOp55
 70
     1
102
RTVSPost2010Prop56
140
1.0
102
RTVSPost2010PropOp56
 70
     0
102
RTVSPost2010Prop57
140
1.0
102
RTVSPost2010PropOp57
 70
     0
102
RTVSPropertyOp0
 70
     0
102
RTVSPropertyOp1
 70
     0
102
RTVSPropertyOp2
 70
     0
102
RTVSPropertyOp3
 70
     0
102
RTVSPropertyOp4
 70
     0
102
RTVSPropertyOp5
 70
     0
102
RTVSPropertyOp6
 70
     0
102
RTVSPropertyOp7
 70
     0
102
RTVSPropertyOp8
 70
     0
102
RTVSPropertyOp9
 70
     0
102
RTVSPropertyOp10
 70
     0
102
RTVSPropertyOp11
 70
     0
102
RTVSPropertyOp12
 70
     0
102
RTVSPropertyOp13
 70
     0
102
RTVSPropertyOp14
 70
     2
102
RTVSPropertyOp15
 70
     0
102
RTVSPropertyOp16
 70
     0
102
RTVSPropertyOp17
 70
     0
102
RTVSPropertyOp18
 70
     0
102
RTVSPropertyOp19
 70
     0
102
RTVSPropertyOp20
 70
     0
102
RTVSPropertyOp21
 70
     0
102
RTVSPropertyOp22
 70
     0
102
RTVSPropertyOp23
 70
     0
102
RTVSPropertyOp24
 70
     0
102
RTVSPropertyOp25
 70
     0
102
RTVSPropertyOp26
 70
     0
102
RTVSPropertyOp27
 70
     0
102
RTVSPropertyOp28
 70
     1
102
RTVSPropertyOp29
 70
     1
102
RTVSPropertyOp30
 70
     1
102
RTVSPropertyOp31
 70
     1
102
RTVSPropertyOp32
 70
     1
102
RTVSPropertyOp33
 70
     1
102
RTVSPropertyOp34
 70
     1
102
RTVSPropertyOp35
 70
     1
102
RTVSPropertyOp36
 70
     1
102
RTVSPropertyOp37
 70
     0
102
RTVSPropertyOp38
 70
     0
102
RTVSPropertyOp39
 70
     0
102
RTVSPropertyOp40
 70
     0
102
RTVSPropertyOp41
 70
     0
102
RTVSPropertyOp42
 70
     0
102
RTVSPropertyOp43
 70
     0
102
RTVSPropertyOp44
 70
     0
102
RTVSPropertyOp45
 70
     1
102
RTVSPropertyOp46
 70
     0
102
RTVSPropertyOp47
 70
     0
102
RTVSPropertyOp48
 70
     0
102
RTVSPropertyOp49
 70
     1
102
RTVSPropertyOp50
 70
     0
102
RTVSPropertyOp51
 70
     0
102
RTVSPropertyOp52
 70
     0
102
RTVSPropertyOp53
 70
     0
102
RTVSPropertyOp54
 70
     0
102
RTVSPropertyOp55
 70
     1
102
RTVSPropertyOp56
 70
     0
102
RTVSPropertyOp57
 70
     0
102
RTVSPropertyOp58
 70
     0
102
RTVSPropertyOp59
 70
     0
102
RTVSPropertyOp60
 70
     0
102
RTVSPropertyOp61
 70
     0
102
RTVSPropertyOp62
 70
     0
  0
XRECORD
  5
3A1
102
{ACAD_REACTORS
330
3A0
102
}
330
3A0
100
AcDbXrecord
280
     1
102
RTVSPost2010Prop28
280
     0
102
RTVSPost2010PropOp28
 70
     1
102
RTVSPost2010Prop29
280
     1
102
RTVSPost2010PropOp29
 70
     1
102
RTVSPost2010Prop30
280
     1
102
RTVSPost2010PropOp30
 70
     1
102
RTVSPost2010Prop31
280
     0
102
RTVSPost2010PropOp31
 70
     1
102
RTVSPost2010Prop32
280
     0
102
RTVSPost2010PropOp32
 70
     1
102
RTVSPost2010Prop33
280
     0
102
RTVSPost2010PropOp33
 70
     1
102
RTVSPost2010Prop34
280
     0
102
RTVSPost2010PropOp34
 70
     1
102
RTVSPost2010Prop35
280
     0
102
RTVSPost2010PropOp35
 70
     1
102
RTVSPost2010Prop36
280
     0
102
RTVSPost2010PropOp36
 70
     1
102
RTVSPost2010Prop37
 90
       50
102
RTVSPost2010PropOp37
 70
     1
102
RTVSPost2010Prop38
140
0.0
102
RTVSPost2010PropOp38
 70
     1
102
RTVSPost2010Prop39
140
1.0
102
RTVSPost2010PropOp39
 70
     1
102
RTVSPost2010Prop40
 90
        0
102
RTVSPost2010PropOp40
 70
     1
102
RTVSPost2010Prop41ColorIndex
 90
       18
102
RTVSPost2010Prop41ColorRGB
 90
        0
102
RTVSPost2010PropOp41
 70
     1
102
RTVSPost2010Prop42
 90
       50
102
RTVSPost2010PropOp42
 70
     1
102
RTVSPost2010Prop43
 90
        3
102
RTVSPost2010PropOp43
 70
     1
102
RTVSPost2010Prop44ColorIndex
 90
        5
102
RTVSPost2010Prop44ColorRGB
 90
      255
102
RTVSPost2010PropOp44
 70
     1
102
RTVSPost2010Prop45
280
     0
102
RTVSPost2010PropOp45
 70
     1
102
RTVSPost2010Prop46
 90
       50
102
RTVSPost2010PropOp46
 70
     1
102
RTVSPost2010Prop47
 90
       50
102
RTVSPost2010PropOp47
 70
     1
102
RTVSPost2010Prop48
 90
       50
102
RTVSPost2010PropOp48
 70
     1
102
RTVSPost2010Prop49
280
     0
102
RTVSPost2010PropOp49
 70
     1
102
RTVSPost2010Prop50
 90
       50
102
RTVSPost2010PropOp50
 70
     1
102
RTVSPost2010Prop51ColorIndex
 90
      256
102
RTVSPost2010Prop51ColorRGB
 90
-16777216
102
RTVSPost2010PropOp51
 70
     0
102
RTVSPost2010Prop52
140
1.0
102
RTVSPost2010PropOp52
 70
     0
102
RTVSPost2010Prop53
 90
        2
102
RTVSPost2010PropOp53
 70
     1
102
RTVSPost2010Prop54
  1
strokes_ogs.tif
102
RTVSPost2010PropOp54
 70
     1
102
RTVSPost2010Prop55
280
     0
102
RTVSPost2010PropOp55
 70
     1
102
RTVSPost2010Prop56
140
1.0
102
RTVSPost2010PropOp56
 70
     1
102
RTVSPost2010Prop57
140
1.0
102
RTVSPost2010PropOp57
 70
     1
102
RTVSPropertyOp0
 70
     1
102
RTVSPropertyOp1
 70
     1
102
RTVSPropertyOp2
 70
     1
102
RTVSPropertyOp3
 70
     1
102
RTVSPropertyOp4
 70
     1
102
RTVSPropertyOp5
 70
     1
102
RTVSPropertyOp6
 70
     1
102
RTVSPropertyOp7
 70
     1
102
RTVSPropertyOp8
 70
     1
102
RTVSPropertyOp9
 70
     1
102
RTVSPropertyOp10
 70
     1
102
RTVSPropertyOp11
 70
     1
102
RTVSPropertyOp12
 70
     1
102
RTVSPropertyOp13
 70
     1
102
RTVSPropertyOp14
 70
     1
102
RTVSPropertyOp15
 70
     1
102
RTVSPropertyOp16
 70
     1
102
RTVSPropertyOp17
 70
     1
102
RTVSPropertyOp18
 70
     1
102
RTVSPropertyOp19
 70
     1
102
RTVSPropertyOp20
 70
     1
102
RTVSPropertyOp21
 70
     1
102
RTVSPropertyOp22
 70
     1
102
RTVSPropertyOp23
 70
     1
102
RTVSPropertyOp24
 70
     1
102
RTVSPropertyOp25
 70
     1
102
RTVSPropertyOp26
 70
     1
102
RTVSPropertyOp27
 70
     1
102
RTVSPropertyOp28
 70
     1
102
RTVSPropertyOp29
 70
     1
102
RTVSPropertyOp30
 70
     1
102
RTVSPropertyOp31
 70
     1
102
RTVSPropertyOp32
 70
     1
102
RTVSPropertyOp33
 70
     1
102
RTVSPropertyOp34
 70
     1
102
RTVSPropertyOp35
 70
     1
102
RTVSPropertyOp36
 70
     1
102
RTVSPropertyOp37
 70
     1
102
RTVSPropertyOp38
 70
     1
102
RTVSPropertyOp39
 70
     1
102
RTVSPropertyOp40
 70
     1
102
RTVSPropertyOp41
 70
     1
102
RTVSPropertyOp42
 70
     1
102
RTVSPropertyOp43
 70
     1
102
RTVSPropertyOp44
 70
     1
102
RTVSPropertyOp45
 70
     1
102
RTVSPropertyOp46
 70
     1
102
RTVSPropertyOp47
 70
     1
102
RTVSPropertyOp48
 70
     1
102
RTVSPropertyOp49
 70
     1
102
RTVSPropertyOp50
 70
     1
102
RTVSPropertyOp51
 70
     0
102
RTVSPropertyOp52
 70
     0
102
RTVSPropertyOp53
 70
     1
102
RTVSPropertyOp54
 70
     1
102
RTVSPropertyOp55
 70
     1
102
RTVSPropertyOp56
 70
     1
102
RTVSPropertyOp57
 70
     1
102
RTVSPropertyOp58
 70
     1
102
RTVSPropertyOp59
 70
     1
102
RTVSPropertyOp60
 70
     1
102
RTVSPropertyOp61
 70
     1
102
RTVSPropertyOp62
 70
     1
  0
XRECORD
  5
3B3
102
{ACAD_REACTORS
330
3B2
102
}
330
3B2
100
AcDbXrecord
280
     1
102
RTVSPost2010Prop28
280
     0
102
RTVSPost2010PropOp28
 70
     1
102
RTVSPost2010Prop29
280
     1
102
RTVSPost2010PropOp29
 70
     1
102
RTVSPost2010Prop30
280
     1
102
RTVSPost2010PropOp30
 70
     1
102
RTVSPost2010Prop31
280
     0
102
RTVSPost2010PropOp31
 70
     1
102
RTVSPost2010Prop32
280
     0
102
RTVSPost2010PropOp32
 70
     1
102
RTVSPost2010Prop33
280
     0
102
RTVSPost2010PropOp33
 70
     1
102
RTVSPost2010Prop34
280
     0
102
RTVSPost2010PropOp34
 70
     1
102
RTVSPost2010Prop35
280
     0
102
RTVSPost2010PropOp35
 70
     1
102
RTVSPost2010Prop36
280
     0
102
RTVSPost2010PropOp36
 70
     1
102
RTVSPost2010Prop37
 90
       50
102
RTVSPost2010PropOp37
 70
     0
102
RTVSPost2010Prop38
140
0.0
102
RTVSPost2010PropOp38
 70
     0
102
RTVSPost2010Prop39
140
1.0
102
RTVSPost2010PropOp39
 70
     0
102
RTVSPost2010Prop40
 90
        0
102
RTVSPost2010PropOp40
 70
     0
102
RTVSPost2010Prop41ColorIndex
 90
       18
102
RTVSPost2010Prop41ColorRGB
 90
        0
102
RTVSPost2010PropOp41
 70
     0
102
RTVSPost2010Prop42
 90
       50
102
RTVSPost2010PropOp42
 70
     0
102
RTVSPost2010Prop43
 90
        3
102
RTVSPost2010PropOp43
 70
     0
102
RTVSPost2010Prop44ColorIndex
 90
        5
102
RTVSPost2010Prop44ColorRGB
 90
      255
102
RTVSPost2010PropOp44
 70
     0
102
RTVSPost2010Prop45
280
     0
102
RTVSPost2010PropOp45
 70
     1
102
RTVSPost2010Prop46
 90
       50
102
RTVSPost2010PropOp46
 70
     0
102
RTVSPost2010Prop47
 90
       50
102
RTVSPost2010PropOp47
 70
     0
102
RTVSPost2010Prop48
 90
       50
102
RTVSPost2010PropOp48
 70
     0
102
RTVSPost2010Prop49
280
     0
102
RTVSPost2010PropOp49
 70
     1
102
RTVSPost2010Prop50
 90
       50
102
RTVSPost2010PropOp50
 70
     0
102
RTVSPost2010Prop51ColorIndex
 90
      256
102
RTVSPost2010Prop51ColorRGB
 90
-16777216
102
RTVSPost2010PropOp51
 70
     0
102
RTVSPost2010Prop52
140
1.0
102
RTVSPost2010PropOp52
 70
     0
102
RTVSPost2010Prop53
 90
        2
102
RTVSPost2010PropOp53
 70
     0
102
RTVSPost2010Prop54
  1
strokes_ogs.tif
102
RTVSPost2010PropOp54
 70
     0
102
RTVSPost2010Prop55
280
     0
102
RTVSPost2010PropOp55
 70
     1
102
RTVSPost2010Prop56
140
1.0
102
RTVSPost2010PropOp56
 70
     0
102
RTVSPost2010Prop57
140
1.0
102
RTVSPost2010PropOp57
 70
     0
102
RTVSPropertyOp0
 70
     0
102
RTVSPropertyOp1
 70
     0
102
RTVSPropertyOp2
 70
     0
102
RTVSPropertyOp3
 70
     0
102
RTVSPropertyOp4
 70
     0
102
RTVSPropertyOp5
 70
     0
102
RTVSPropertyOp6
 70
     0
102
RTVSPropertyOp7
 70
     0
102
RTVSPropertyOp8
 70
     0
102
RTVSPropertyOp9
 70
     0
102
RTVSPropertyOp10
 70
     0
102
RTVSPropertyOp11
 70
     0
102
RTVSPropertyOp12
 70
     0
102
RTVSPropertyOp13
 70
     0
102
RTVSPropertyOp14
 70
     2
102
RTVSPropertyOp15
 70
     0
102
RTVSPropertyOp16
 70
     0
102
RTVSPropertyOp17
 70
     0
102
RTVSPropertyOp18
 70
     0
102
RTVSPropertyOp19
 70
     0
102
RTVSPropertyOp20
 70
     0
102
RTVSPropertyOp21
 70
     0
102
RTVSPropertyOp22
 70
     0
102
RTVSPropertyOp23
 70
     0
102
RTVSPropertyOp24
 70
     0
102
RTVSPropertyOp25
 70
     0
102
RTVSPropertyOp26
 70
     0
102
RTVSPropertyOp27
 70
     0
102
RTVSPropertyOp28
 70
     1
102
RTVSPropertyOp29
 70
     1
102
RTVSPropertyOp30
 70
     1
102
RTVSPropertyOp31
 70
     1
102
RTVSPropertyOp32
 70
     1
102
RTVSPropertyOp33
 70
     1
102
RTVSPropertyOp34
 70
     1
102
RTVSPropertyOp35
 70
     1
102
RTVSPropertyOp36
 70
     1
102
RTVSPropertyOp37
 70
     0
102
RTVSPropertyOp38
 70
     0
102
RTVSPropertyOp39
 70
     0
102
RTVSPropertyOp40
 70
     0
102
RTVSPropertyOp41
 70
     0
102
RTVSPropertyOp42
 70
     0
102
RTVSPropertyOp43
 70
     0
102
RTVSPropertyOp44
 70
     0
102
RTVSPropertyOp45
 70
     1
102
RTVSPropertyOp46
 70
     0
102
RTVSPropertyOp47
 70
     0
102
RTVSPropertyOp48
 70
     0
102
RTVSPropertyOp49
 70
     1
102
RTVSPropertyOp50
 70
     0
102
RTVSPropertyOp51
 70
     0
102
RTVSPropertyOp52
 70
     0
102
RTVSPropertyOp53
 70
     0
102
RTVSPropertyOp54
 70
     0
102
RTVSPropertyOp55
 70
     1
102
RTVSPropertyOp56
 70
     0
102
RTVSPropertyOp57
 70
     0
102
RTVSPropertyOp58
 70
     0
102
RTVSPropertyOp59
 70
     0
102
RTVSPropertyOp60
 70
     0
102
RTVSPropertyOp61
 70
     0
102
RTVSPropertyOp62
 70
     0
  0
XRECORD
  5
399
102
{ACAD_REACTORS
330
398
102
}
330
398
100
AcDbXrecord
280
     1
102
RTVSPost2010Prop28
280
     0
102
RTVSPost2010PropOp28
 70
     1
102
RTVSPost2010Prop29
280
     1
102
RTVSPost2010PropOp29
 70
     1
102
RTVSPost2010Prop30
280
     1
102
RTVSPost2010PropOp30
 70
     1
102
RTVSPost2010Prop31
280
     0
102
RTVSPost2010PropOp31
 70
     1
102
RTVSPost2010Prop32
280
     0
102
RTVSPost2010PropOp32
 70
     1
102
RTVSPost2010Prop33
280
     0
102
RTVSPost2010PropOp33
 70
     1
102
RTVSPost2010Prop34
280
     0
102
RTVSPost2010PropOp34
 70
     1
102
RTVSPost2010Prop35
280
     0
102
RTVSPost2010PropOp35
 70
     1
102
RTVSPost2010Prop36
280
     0
102
RTVSPost2010PropOp36
 70
     1
102
RTVSPost2010Prop37
 90
       50
102
RTVSPost2010PropOp37
 70
     1
102
RTVSPost2010Prop38
140
0.0
102
RTVSPost2010PropOp38
 70
     1
102
RTVSPost2010Prop39
140
1.0
102
RTVSPost2010PropOp39
 70
     1
102
RTVSPost2010Prop40
 90
        0
102
RTVSPost2010PropOp40
 70
     1
102
RTVSPost2010Prop41ColorIndex
 90
       18
102
RTVSPost2010Prop41ColorRGB
 90
        0
102
RTVSPost2010PropOp41
 70
     1
102
RTVSPost2010Prop42
 90
       50
102
RTVSPost2010PropOp42
 70
     1
102
RTVSPost2010Prop43
 90
        3
102
RTVSPost2010PropOp43
 70
     1
102
RTVSPost2010Prop44ColorIndex
 90
        5
102
RTVSPost2010Prop44ColorRGB
 90
      255
102
RTVSPost2010PropOp44
 70
     1
102
RTVSPost2010Prop45
280
     0
102
RTVSPost2010PropOp45
 70
     1
102
RTVSPost2010Prop46
 90
       50
102
RTVSPost2010PropOp46
 70
     1
102
RTVSPost2010Prop47
 90
       50
102
RTVSPost2010PropOp47
 70
     1
102
RTVSPost2010Prop48
 90
       50
102
RTVSPost2010PropOp48
 70
     1
102
RTVSPost2010Prop49
280
     0
102
RTVSPost2010PropOp49
 70
     1
102
RTVSPost2010Prop50
 90
       50
102
RTVSPost2010PropOp50
 70
     1
102
RTVSPost2010Prop51ColorIndex
 90
      256
102
RTVSPost2010Prop51ColorRGB
 90
-16777216
102
RTVSPost2010PropOp51
 70
     0
102
RTVSPost2010Prop52
140
1.0
102
RTVSPost2010PropOp52
 70
     0
102
RTVSPost2010Prop53
 90
        2
102
RTVSPost2010PropOp53
 70
     1
102
RTVSPost2010Prop54
  1
strokes_ogs.tif
102
RTVSPost2010PropOp54
 70
     1
102
RTVSPost2010Prop55
280
     0
102
RTVSPost2010PropOp55
 70
     1
102
RTVSPost2010Prop56
140
1.0
102
RTVSPost2010PropOp56
 70
     1
102
RTVSPost2010Prop57
140
1.0
102
RTVSPost2010PropOp57
 70
     1
102
RTVSPropertyOp0
 70
     1
102
RTVSPropertyOp1
 70
     1
102
RTVSPropertyOp2
 70
     1
102
RTVSPropertyOp3
 70
     1
102
RTVSPropertyOp4
 70
     1
102
RTVSPropertyOp5
 70
     1
102
RTVSPropertyOp6
 70
     1
102
RTVSPropertyOp7
 70
     1
102
RTVSPropertyOp8
 70
     1
102
RTVSPropertyOp9
 70
     1
102
RTVSPropertyOp10
 70
     1
102
RTVSPropertyOp11
 70
     1
102
RTVSPropertyOp12
 70
     1
102
RTVSPropertyOp13
 70
     1
102
RTVSPropertyOp14
 70
     1
102
RTVSPropertyOp15
 70
     1
102
RTVSPropertyOp16
 70
     1
102
RTVSPropertyOp17
 70
     1
102
RTVSPropertyOp18
 70
     1
102
RTVSPropertyOp19
 70
     1
102
RTVSPropertyOp20
 70
     1
102
RTVSPropertyOp21
 70
     1
102
RTVSPropertyOp22
 70
     1
102
RTVSPropertyOp23
 70
     1
102
RTVSPropertyOp24
 70
     1
102
RTVSPropertyOp25
 70
     1
102
RTVSPropertyOp26
 70
     1
102
RTVSPropertyOp27
 70
     1
102
RTVSPropertyOp28
 70
     1
102
RTVSPropertyOp29
 70
     1
102
RTVSPropertyOp30
 70
     1
102
RTVSPropertyOp31
 70
     1
102
RTVSPropertyOp32
 70
     1
102
RTVSPropertyOp33
 70
     1
102
RTVSPropertyOp34
 70
     1
102
RTVSPropertyOp35
 70
     1
102
RTVSPropertyOp36
 70
     1
102
RTVSPropertyOp37
 70
     1
102
RTVSPropertyOp38
 70
     1
102
RTVSPropertyOp39
 70
     1
102
RTVSPropertyOp40
 70
     1
102
RTVSPropertyOp41
 70
     1
102
RTVSPropertyOp42
 70
     1
102
RTVSPropertyOp43
 70
     1
102
RTVSPropertyOp44
 70
     1
102
RTVSPropertyOp45
 70
     1
102
RTVSPropertyOp46
 70
     1
102
RTVSPropertyOp47
 70
     1
102
RTVSPropertyOp48
 70
     1
102
RTVSPropertyOp49
 70
     1
102
RTVSPropertyOp50
 70
     1
102
RTVSPropertyOp51
 70
     0
102
RTVSPropertyOp52
 70
     0
102
RTVSPropertyOp53
 70
     1
102
RTVSPropertyOp54
 70
     1
102
RTVSPropertyOp55
 70
     1
102
RTVSPropertyOp56
 70
     1
102
RTVSPropertyOp57
 70
     1
102
RTVSPropertyOp58
 70
     1
102
RTVSPropertyOp59
 70
     1
102
RTVSPropertyOp60
 70
     1
102
RTVSPropertyOp61
 70
     1
102
RTVSPropertyOp62
 70
     1
  0
XRECORD
  5
3AF
102
{ACAD_REACTORS
330
3AE
102
}
330
3AE
100
AcDbXrecord
280
     1
102
RTVSPost2010Prop28
280
     0
102
RTVSPost2010PropOp28
 70
     1
102
RTVSPost2010Prop29
280
     1
102
RTVSPost2010PropOp29
 70
     1
102
RTVSPost2010Prop30
280
     1
102
RTVSPost2010PropOp30
 70
     1
102
RTVSPost2010Prop31
280
     0
102
RTVSPost2010PropOp31
 70
     1
102
RTVSPost2010Prop32
280
     0
102
RTVSPost2010PropOp32
 70
     1
102
RTVSPost2010Prop33
280
     0
102
RTVSPost2010PropOp33
 70
     1
102
RTVSPost2010Prop34
280
     0
102
RTVSPost2010PropOp34
 70
     1
102
RTVSPost2010Prop35
280
     0
102
RTVSPost2010PropOp35
 70
     1
102
RTVSPost2010Prop36
280
     0
102
RTVSPost2010PropOp36
 70
     1
102
RTVSPost2010Prop37
 90
       50
102
RTVSPost2010PropOp37
 70
     1
102
RTVSPost2010Prop38
140
0.0
102
RTVSPost2010PropOp38
 70
     1
102
RTVSPost2010Prop39
140
1.0
102
RTVSPost2010PropOp39
 70
     1
102
RTVSPost2010Prop40
 90
        0
102
RTVSPost2010PropOp40
 70
     1
102
RTVSPost2010Prop41ColorIndex
 90
       18
102
RTVSPost2010Prop41ColorRGB
 90
        0
102
RTVSPost2010PropOp41
 70
     1
102
RTVSPost2010Prop42
 90
       50
102
RTVSPost2010PropOp42
 70
     1
102
RTVSPost2010Prop43
 90
        3
102
RTVSPost2010PropOp43
 70
     1
102
RTVSPost2010Prop44ColorIndex
 90
        5
102
RTVSPost2010Prop44ColorRGB
 90
      255
102
RTVSPost2010PropOp44
 70
     1
102
RTVSPost2010Prop45
280
     0
102
RTVSPost2010PropOp45
 70
     1
102
RTVSPost2010Prop46
 90
       50
102
RTVSPost2010PropOp46
 70
     1
102
RTVSPost2010Prop47
 90
       50
102
RTVSPost2010PropOp47
 70
     1
102
RTVSPost2010Prop48
 90
       50
102
RTVSPost2010PropOp48
 70
     1
102
RTVSPost2010Prop49
280
     0
102
RTVSPost2010PropOp49
 70
     1
102
RTVSPost2010Prop50
 90
       50
102
RTVSPost2010PropOp50
 70
     1
102
RTVSPost2010Prop51ColorIndex
 90
      256
102
RTVSPost2010Prop51ColorRGB
 90
-16777216
102
RTVSPost2010PropOp51
 70
     0
102
RTVSPost2010Prop52
140
1.0
102
RTVSPost2010PropOp52
 70
     0
102
RTVSPost2010Prop53
 90
        2
102
RTVSPost2010PropOp53
 70
     1
102
RTVSPost2010Prop54
  1
strokes_ogs.tif
102
RTVSPost2010PropOp54
 70
     1
102
RTVSPost2010Prop55
280
     0
102
RTVSPost2010PropOp55
 70
     1
102
RTVSPost2010Prop56
140
1.0
102
RTVSPost2010PropOp56
 70
     1
102
RTVSPost2010Prop57
140
1.0
102
RTVSPost2010PropOp57
 70
     1
102
RTVSPropertyOp0
 70
     1
102
RTVSPropertyOp1
 70
     1
102
RTVSPropertyOp2
 70
     1
102
RTVSPropertyOp3
 70
     1
102
RTVSPropertyOp4
 70
     1
102
RTVSPropertyOp5
 70
     1
102
RTVSPropertyOp6
 70
     1
102
RTVSPropertyOp7
 70
     1
102
RTVSPropertyOp8
 70
     1
102
RTVSPropertyOp9
 70
     1
102
RTVSPropertyOp10
 70
     1
102
RTVSPropertyOp11
 70
     1
102
RTVSPropertyOp12
 70
     1
102
RTVSPropertyOp13
 70
     1
102
RTVSPropertyOp14
 70
     1
102
RTVSPropertyOp15
 70
     1
102
RTVSPropertyOp16
 70
     1
102
RTVSPropertyOp17
 70
     1
102
RTVSPropertyOp18
 70
     1
102
RTVSPropertyOp19
 70
     1
102
RTVSPropertyOp20
 70
     1
102
RTVSPropertyOp21
 70
     1
102
RTVSPropertyOp22
 70
     1
102
RTVSPropertyOp23
 70
     1
102
RTVSPropertyOp24
 70
     1
102
RTVSPropertyOp25
 70
     1
102
RTVSPropertyOp26
 70
     1
102
RTVSPropertyOp27
 70
     1
102
RTVSPropertyOp28
 70
     1
102
RTVSPropertyOp29
 70
     1
102
RTVSPropertyOp30
 70
     1
102
RTVSPropertyOp31
 70
     1
102
RTVSPropertyOp32
 70
     1
102
RTVSPropertyOp33
 70
     1
102
RTVSPropertyOp34
 70
     1
102
RTVSPropertyOp35
 70
     1
102
RTVSPropertyOp36
 70
     1
102
RTVSPropertyOp37
 70
     1
102
RTVSPropertyOp38
 70
     1
102
RTVSPropertyOp39
 70
     1
102
RTVSPropertyOp40
 70
     1
102
RTVSPropertyOp41
 70
     1
102
RTVSPropertyOp42
 70
     1
102
RTVSPropertyOp43
 70
     1
102
RTVSPropertyOp44
 70
     1
102
RTVSPropertyOp45
 70
     1
102
RTVSPropertyOp46
 70
     1
102
RTVSPropertyOp47
 70
     1
102
RTVSPropertyOp48
 70
     1
102
RTVSPropertyOp49
 70
     1
102
RTVSPropertyOp50
 70
     1
102
RTVSPropertyOp51
 70
     0
102
RTVSPropertyOp52
 70
     0
102
RTVSPropertyOp53
 70
     1
102
RTVSPropertyOp54
 70
     1
102
RTVSPropertyOp55
 70
     1
102
RTVSPropertyOp56
 70
     1
102
RTVSPropertyOp57
 70
     1
102
RTVSPropertyOp58
 70
     1
102
RTVSPropertyOp59
 70
     1
102
RTVSPropertyOp60
 70
     1
102
RTVSPropertyOp61
 70
     1
102
RTVSPropertyOp62
 70
     1
  0
XRECORD
  5
3AD
102
{ACAD_REACTORS
330
3AC
102
}
330
3AC
100
AcDbXrecord
280
     1
102
RTVSPost2010Prop28
280
     0
102
RTVSPost2010PropOp28
 70
     1
102
RTVSPost2010Prop29
280
     1
102
RTVSPost2010PropOp29
 70
     1
102
RTVSPost2010Prop30
280
     1
102
RTVSPost2010PropOp30
 70
     1
102
RTVSPost2010Prop31
280
     0
102
RTVSPost2010PropOp31
 70
     1
102
RTVSPost2010Prop32
280
     0
102
RTVSPost2010PropOp32
 70
     1
102
RTVSPost2010Prop33
280
     0
102
RTVSPost2010PropOp33
 70
     1
102
RTVSPost2010Prop34
280
     0
102
RTVSPost2010PropOp34
 70
     1
102
RTVSPost2010Prop35
280
     0
102
RTVSPost2010PropOp35
 70
     1
102
RTVSPost2010Prop36
280
     0
102
RTVSPost2010PropOp36
 70
     1
102
RTVSPost2010Prop37
 90
       50
102
RTVSPost2010PropOp37
 70
     1
102
RTVSPost2010Prop38
140
0.0
102
RTVSPost2010PropOp38
 70
     1
102
RTVSPost2010Prop39
140
1.0
102
RTVSPost2010PropOp39
 70
     1
102
RTVSPost2010Prop40
 90
        0
102
RTVSPost2010PropOp40
 70
     1
102
RTVSPost2010Prop41ColorIndex
 90
       18
102
RTVSPost2010Prop41ColorRGB
 90
        0
102
RTVSPost2010PropOp41
 70
     1
102
RTVSPost2010Prop42
 90
       50
102
RTVSPost2010PropOp42
 70
     1
102
RTVSPost2010Prop43
 90
        3
102
RTVSPost2010PropOp43
 70
     1
102
RTVSPost2010Prop44ColorIndex
 90
        5
102
RTVSPost2010Prop44ColorRGB
 90
      255
102
RTVSPost2010PropOp44
 70
     1
102
RTVSPost2010Prop45
280
     0
102
RTVSPost2010PropOp45
 70
     1
102
RTVSPost2010Prop46
 90
       50
102
RTVSPost2010PropOp46
 70
     1
102
RTVSPost2010Prop47
 90
       50
102
RTVSPost2010PropOp47
 70
     1
102
RTVSPost2010Prop48
 90
       50
102
RTVSPost2010PropOp48
 70
     1
102
RTVSPost2010Prop49
280
     0
102
RTVSPost2010PropOp49
 70
     1
102
RTVSPost2010Prop50
 90
       50
102
RTVSPost2010PropOp50
 70
     1
102
RTVSPost2010Prop51ColorIndex
 90
      256
102
RTVSPost2010Prop51ColorRGB
 90
-16777216
102
RTVSPost2010PropOp51
 70
     0
102
RTVSPost2010Prop52
140
1.0
102
RTVSPost2010PropOp52
 70
     0
102
RTVSPost2010Prop53
 90
        2
102
RTVSPost2010PropOp53
 70
     1
102
RTVSPost2010Prop54
  1
strokes_ogs.tif
102
RTVSPost2010PropOp54
 70
     1
102
RTVSPost2010Prop55
280
     0
102
RTVSPost2010PropOp55
 70
     1
102
RTVSPost2010Prop56
140
1.0
102
RTVSPost2010PropOp56
 70
     1
102
RTVSPost2010Prop57
140
1.0
102
RTVSPost2010PropOp57
 70
     1
102
RTVSPropertyOp0
 70
     1
102
RTVSPropertyOp1
 70
     1
102
RTVSPropertyOp2
 70
     1
102
RTVSPropertyOp3
 70
     1
102
RTVSPropertyOp4
 70
     1
102
RTVSPropertyOp5
 70
     1
102
RTVSPropertyOp6
 70
     1
102
RTVSPropertyOp7
 70
     1
102
RTVSPropertyOp8
 70
     1
102
RTVSPropertyOp9
 70
     1
102
RTVSPropertyOp10
 70
     1
102
RTVSPropertyOp11
 70
     1
102
RTVSPropertyOp12
 70
     1
102
RTVSPropertyOp13
 70
     1
102
RTVSPropertyOp14
 70
     1
102
RTVSPropertyOp15
 70
     1
102
RTVSPropertyOp16
 70
     1
102
RTVSPropertyOp17
 70
     1
102
RTVSPropertyOp18
 70
     1
102
RTVSPropertyOp19
 70
     1
102
RTVSPropertyOp20
 70
     1
102
RTVSPropertyOp21
 70
     1
102
RTVSPropertyOp22
 70
     1
102
RTVSPropertyOp23
 70
     1
102
RTVSPropertyOp24
 70
     1
102
RTVSPropertyOp25
 70
     1
102
RTVSPropertyOp26
 70
     1
102
RTVSPropertyOp27
 70
     1
102
RTVSPropertyOp28
 70
     1
102
RTVSPropertyOp29
 70
     1
102
RTVSPropertyOp30
 70
     1
102
RTVSPropertyOp31
 70
     1
102
RTVSPropertyOp32
 70
     1
102
RTVSPropertyOp33
 70
     1
102
RTVSPropertyOp34
 70
     1
102
RTVSPropertyOp35
 70
     1
102
RTVSPropertyOp36
 70
     1
102
RTVSPropertyOp37
 70
     1
102
RTVSPropertyOp38
 70
     1
102
RTVSPropertyOp39
 70
     1
102
RTVSPropertyOp40
 70
     1
102
RTVSPropertyOp41
 70
     1
102
RTVSPropertyOp42
 70
     1
102
RTVSPropertyOp43
 70
     1
102
RTVSPropertyOp44
 70
     1
102
RTVSPropertyOp45
 70
     1
102
RTVSPropertyOp46
 70
     1
102
RTVSPropertyOp47
 70
     1
102
RTVSPropertyOp48
 70
     1
102
RTVSPropertyOp49
 70
     1
102
RTVSPropertyOp50
 70
     1
102
RTVSPropertyOp51
 70
     0
102
RTVSPropertyOp52
 70
     0
102
RTVSPropertyOp53
 70
     1
102
RTVSPropertyOp54
 70
     1
102
RTVSPropertyOp55
 70
     1
102
RTVSPropertyOp56
 70
     1
102
RTVSPropertyOp57
 70
     1
102
RTVSPropertyOp58
 70
     1
102
RTVSPropertyOp59
 70
     1
102
RTVSPropertyOp60
 70
     1
102
RTVSPropertyOp61
 70
     1
102
RTVSPropertyOp62
 70
     1
  0
XRECORD
  5
3A7
102
{ACAD_REACTORS
330
3A6
102
}
330
3A6
100
AcDbXrecord
280
     1
102
RTVSPost2010Prop28
280
     0
102
RTVSPost2010PropOp28
 70
     1
102
RTVSPost2010Prop29
280
     1
102
RTVSPost2010PropOp29
 70
     1
102
RTVSPost2010Prop30
280
     1
102
RTVSPost2010PropOp30
 70
     1
102
RTVSPost2010Prop31
280
     0
102
RTVSPost2010PropOp31
 70
     1
102
RTVSPost2010Prop32
280
     0
102
RTVSPost2010PropOp32
 70
     1
102
RTVSPost2010Prop33
280
     0
102
RTVSPost2010PropOp33
 70
     1
102
RTVSPost2010Prop34
280
     0
102
RTVSPost2010PropOp34
 70
     1
102
RTVSPost2010Prop35
280
     0
102
RTVSPost2010PropOp35
 70
     1
102
RTVSPost2010Prop36
280
     0
102
RTVSPost2010PropOp36
 70
     1
102
RTVSPost2010Prop37
 90
       50
102
RTVSPost2010PropOp37
 70
     1
102
RTVSPost2010Prop38
140
0.0
102
RTVSPost2010PropOp38
 70
     1
102
RTVSPost2010Prop39
140
1.0
102
RTVSPost2010PropOp39
 70
     1
102
RTVSPost2010Prop40
 90
        0
102
RTVSPost2010PropOp40
 70
     1
102
RTVSPost2010Prop41ColorIndex
 90
       18
102
RTVSPost2010Prop41ColorRGB
 90
        0
102
RTVSPost2010PropOp41
 70
     1
102
RTVSPost2010Prop42
 90
       50
102
RTVSPost2010PropOp42
 70
     1
102
RTVSPost2010Prop43
 90
        3
102
RTVSPost2010PropOp43
 70
     1
102
RTVSPost2010Prop44ColorIndex
 90
        5
102
RTVSPost2010Prop44ColorRGB
 90
      255
102
RTVSPost2010PropOp44
 70
     1
102
RTVSPost2010Prop45
280
     0
102
RTVSPost2010PropOp45
 70
     1
102
RTVSPost2010Prop46
 90
       50
102
RTVSPost2010PropOp46
 70
     1
102
RTVSPost2010Prop47
 90
       50
102
RTVSPost2010PropOp47
 70
     1
102
RTVSPost2010Prop48
 90
       50
102
RTVSPost2010PropOp48
 70
     1
102
RTVSPost2010Prop49
280
     0
102
RTVSPost2010PropOp49
 70
     1
102
RTVSPost2010Prop50
 90
       50
102
RTVSPost2010PropOp50
 70
     1
102
RTVSPost2010Prop51ColorIndex
 90
      256
102
RTVSPost2010Prop51ColorRGB
 90
-16777216
102
RTVSPost2010PropOp51
 70
     0
102
RTVSPost2010Prop52
140
1.0
102
RTVSPost2010PropOp52
 70
     0
102
RTVSPost2010Prop53
 90
        2
102
RTVSPost2010PropOp53
 70
     1
102
RTVSPost2010Prop54
  1
strokes_ogs.tif
102
RTVSPost2010PropOp54
 70
     1
102
RTVSPost2010Prop55
280
     0
102
RTVSPost2010PropOp55
 70
     1
102
RTVSPost2010Prop56
140
1.0
102
RTVSPost2010PropOp56
 70
     1
102
RTVSPost2010Prop57
140
1.0
102
RTVSPost2010PropOp57
 70
     1
102
RTVSPropertyOp0
 70
     1
102
RTVSPropertyOp1
 70
     1
102
RTVSPropertyOp2
 70
     1
102
RTVSPropertyOp3
 70
     1
102
RTVSPropertyOp4
 70
     1
102
RTVSPropertyOp5
 70
     1
102
RTVSPropertyOp6
 70
     1
102
RTVSPropertyOp7
 70
     1
102
RTVSPropertyOp8
 70
     1
102
RTVSPropertyOp9
 70
     1
102
RTVSPropertyOp10
 70
     1
102
RTVSPropertyOp11
 70
     1
102
RTVSPropertyOp12
 70
     1
102
RTVSPropertyOp13
 70
     1
102
RTVSPropertyOp14
 70
     1
102
RTVSPropertyOp15
 70
     1
102
RTVSPropertyOp16
 70
     1
102
RTVSPropertyOp17
 70
     1
102
RTVSPropertyOp18
 70
     1
102
RTVSPropertyOp19
 70
     1
102
RTVSPropertyOp20
 70
     1
102
RTVSPropertyOp21
 70
     1
102
RTVSPropertyOp22
 70
     1
102
RTVSPropertyOp23
 70
     1
102
RTVSPropertyOp24
 70
     1
102
RTVSPropertyOp25
 70
     1
102
RTVSPropertyOp26
 70
     1
102
RTVSPropertyOp27
 70
     1
102
RTVSPropertyOp28
 70
     1
102
RTVSPropertyOp29
 70
     1
102
RTVSPropertyOp30
 70
     1
102
RTVSPropertyOp31
 70
     1
102
RTVSPropertyOp32
 70
     1
102
RTVSPropertyOp33
 70
     1
102
RTVSPropertyOp34
 70
     1
102
RTVSPropertyOp35
 70
     1
102
RTVSPropertyOp36
 70
     1
102
RTVSPropertyOp37
 70
     1
102
RTVSPropertyOp38
 70
     1
102
RTVSPropertyOp39
 70
     1
102
RTVSPropertyOp40
 70
     1
102
RTVSPropertyOp41
 70
     1
102
RTVSPropertyOp42
 70
     1
102
RTVSPropertyOp43
 70
     1
102
RTVSPropertyOp44
 70
     1
102
RTVSPropertyOp45
 70
     1
102
RTVSPropertyOp46
 70
     1
102
RTVSPropertyOp47
 70
     1
102
RTVSPropertyOp48
 70
     1
102
RTVSPropertyOp49
 70
     1
102
RTVSPropertyOp50
 70
     1
102
RTVSPropertyOp51
 70
     0
102
RTVSPropertyOp52
 70
     0
102
RTVSPropertyOp53
 70
     1
102
RTVSPropertyOp54
 70
     1
102
RTVSPropertyOp55
 70
     1
102
RTVSPropertyOp56
 70
     1
102
RTVSPropertyOp57
 70
     1
102
RTVSPropertyOp58
 70
     1
102
RTVSPropertyOp59
 70
     1
102
RTVSPropertyOp60
 70
     1
102
RTVSPropertyOp61
 70
     1
102
RTVSPropertyOp62
 70
     1
  0
XRECORD
  5
3A9
102
{ACAD_REACTORS
330
3A8
102
}
330
3A8
100
AcDbXrecord
280
     1
102
RTVSPost2010Prop28
280
     0
102
RTVSPost2010PropOp28
 70
     1
102
RTVSPost2010Prop29
280
     1
102
RTVSPost2010PropOp29
 70
     1
102
RTVSPost2010Prop30
280
     1
102
RTVSPost2010PropOp30
 70
     1
102
RTVSPost2010Prop31
280
     0
102
RTVSPost2010PropOp31
 70
     1
102
RTVSPost2010Prop32
280
     0
102
RTVSPost2010PropOp32
 70
     1
102
RTVSPost2010Prop33
280
     0
102
RTVSPost2010PropOp33
 70
     1
102
RTVSPost2010Prop34
280
     0
102
RTVSPost2010PropOp34
 70
     1
102
RTVSPost2010Prop35
280
     0
102
RTVSPost2010PropOp35
 70
     1
102
RTVSPost2010Prop36
280
     0
102
RTVSPost2010PropOp36
 70
     1
102
RTVSPost2010Prop37
 90
       50
102
RTVSPost2010PropOp37
 70
     1
102
RTVSPost2010Prop38
140
0.0
102
RTVSPost2010PropOp38
 70
     1
102
RTVSPost2010Prop39
140
1.0
102
RTVSPost2010PropOp39
 70
     1
102
RTVSPost2010Prop40
 90
        0
102
RTVSPost2010PropOp40
 70
     1
102
RTVSPost2010Prop41ColorIndex
 90
       18
102
RTVSPost2010Prop41ColorRGB
 90
        0
102
RTVSPost2010PropOp41
 70
     1
102
RTVSPost2010Prop42
 90
       50
102
RTVSPost2010PropOp42
 70
     1
102
RTVSPost2010Prop43
 90
        3
102
RTVSPost2010PropOp43
 70
     1
102
RTVSPost2010Prop44ColorIndex
 90
        5
102
RTVSPost2010Prop44ColorRGB
 90
      255
102
RTVSPost2010PropOp44
 70
     1
102
RTVSPost2010Prop45
280
     0
102
RTVSPost2010PropOp45
 70
     1
102
RTVSPost2010Prop46
 90
       50
102
RTVSPost2010PropOp46
 70
     1
102
RTVSPost2010Prop47
 90
       50
102
RTVSPost2010PropOp47
 70
     1
102
RTVSPost2010Prop48
 90
       50
102
RTVSPost2010PropOp48
 70
     1
102
RTVSPost2010Prop49
280
     0
102
RTVSPost2010PropOp49
 70
     1
102
RTVSPost2010Prop50
 90
       50
102
RTVSPost2010PropOp50
 70
     1
102
RTVSPost2010Prop51ColorIndex
 90
      256
102
RTVSPost2010Prop51ColorRGB
 90
-16777216
102
RTVSPost2010PropOp51
 70
     0
102
RTVSPost2010Prop52
140
1.0
102
RTVSPost2010PropOp52
 70
     0
102
RTVSPost2010Prop53
 90
        2
102
RTVSPost2010PropOp53
 70
     1
102
RTVSPost2010Prop54
  1
strokes_ogs.tif
102
RTVSPost2010PropOp54
 70
     1
102
RTVSPost2010Prop55
280
     0
102
RTVSPost2010PropOp55
 70
     1
102
RTVSPost2010Prop56
140
1.0
102
RTVSPost2010PropOp56
 70
     1
102
RTVSPost2010Prop57
140
1.0
102
RTVSPost2010PropOp57
 70
     1
102
RTVSPropertyOp0
 70
     1
102
RTVSPropertyOp1
 70
     1
102
RTVSPropertyOp2
 70
     1
102
RTVSPropertyOp3
 70
     1
102
RTVSPropertyOp4
 70
     1
102
RTVSPropertyOp5
 70
     1
102
RTVSPropertyOp6
 70
     1
102
RTVSPropertyOp7
 70
     1
102
RTVSPropertyOp8
 70
     1
102
RTVSPropertyOp9
 70
     1
102
RTVSPropertyOp10
 70
     1
102
RTVSPropertyOp11
 70
     1
102
RTVSPropertyOp12
 70
     1
102
RTVSPropertyOp13
 70
     1
102
RTVSPropertyOp14
 70
     1
102
RTVSPropertyOp15
 70
     1
102
RTVSPropertyOp16
 70
     1
102
RTVSPropertyOp17
 70
     1
102
RTVSPropertyOp18
 70
     1
102
RTVSPropertyOp19
 70
     1
102
RTVSPropertyOp20
 70
     1
102
RTVSPropertyOp21
 70
     1
102
RTVSPropertyOp22
 70
     1
102
RTVSPropertyOp23
 70
     1
102
RTVSPropertyOp24
 70
     1
102
RTVSPropertyOp25
 70
     1
102
RTVSPropertyOp26
 70
     1
102
RTVSPropertyOp27
 70
     1
102
RTVSPropertyOp28
 70
     1
102
RTVSPropertyOp29
 70
     1
102
RTVSPropertyOp30
 70
     1
102
RTVSPropertyOp31
 70
     1
102
RTVSPropertyOp32
 70
     1
102
RTVSPropertyOp33
 70
     1
102
RTVSPropertyOp34
 70
     1
102
RTVSPropertyOp35
 70
     1
102
RTVSPropertyOp36
 70
     1
102
RTVSPropertyOp37
 70
     1
102
RTVSPropertyOp38
 70
     1
102
RTVSPropertyOp39
 70
     1
102
RTVSPropertyOp40
 70
     1
102
RTVSPropertyOp41
 70
     1
102
RTVSPropertyOp42
 70
     1
102
RTVSPropertyOp43
 70
     1
102
RTVSPropertyOp44
 70
     1
102
RTVSPropertyOp45
 70
     1
102
RTVSPropertyOp46
 70
     1
102
RTVSPropertyOp47
 70
     1
102
RTVSPropertyOp48
 70
     1
102
RTVSPropertyOp49
 70
     1
102
RTVSPropertyOp50
 70
     1
102
RTVSPropertyOp51
 70
     0
102
RTVSPropertyOp52
 70
     0
102
RTVSPropertyOp53
 70
     1
102
RTVSPropertyOp54
 70
     1
102
RTVSPropertyOp55
 70
     1
102
RTVSPropertyOp56
 70
     1
102
RTVSPropertyOp57
 70
     1
102
RTVSPropertyOp58
 70
     1
102
RTVSPropertyOp59
 70
     1
102
RTVSPropertyOp60
 70
     1
102
RTVSPropertyOp61
 70
     1
102
RTVSPropertyOp62
 70
     1
  0
XRECORD
  5
39F
102
{ACAD_REACTORS
330
39E
102
}
330
39E
100
AcDbXrecord
280
     1
102
RTVSPost2010Prop28
280
     0
102
RTVSPost2010PropOp28
 70
     1
102
RTVSPost2010Prop29
280
     1
102
RTVSPost2010PropOp29
 70
     1
102
RTVSPost2010Prop30
280
     1
102
RTVSPost2010PropOp30
 70
     1
102
RTVSPost2010Prop31
280
     0
102
RTVSPost2010PropOp31
 70
     1
102
RTVSPost2010Prop32
280
     0
102
RTVSPost2010PropOp32
 70
     1
102
RTVSPost2010Prop33
280
     0
102
RTVSPost2010PropOp33
 70
     1
102
RTVSPost2010Prop34
280
     0
102
RTVSPost2010PropOp34
 70
     1
102
RTVSPost2010Prop35
280
     0
102
RTVSPost2010PropOp35
 70
     1
102
RTVSPost2010Prop36
280
     0
102
RTVSPost2010PropOp36
 70
     1
102
RTVSPost2010Prop37
 90
       50
102
RTVSPost2010PropOp37
 70
     1
102
RTVSPost2010Prop38
140
0.0
102
RTVSPost2010PropOp38
 70
     1
102
RTVSPost2010Prop39
140
1.0
102
RTVSPost2010PropOp39
 70
     1
102
RTVSPost2010Prop40
 90
        0
102
RTVSPost2010PropOp40
 70
     1
102
RTVSPost2010Prop41ColorIndex
 90
       18
102
RTVSPost2010Prop41ColorRGB
 90
        0
102
RTVSPost2010PropOp41
 70
     1
102
RTVSPost2010Prop42
 90
       50
102
RTVSPost2010PropOp42
 70
     1
102
RTVSPost2010Prop43
 90
        3
102
RTVSPost2010PropOp43
 70
     1
102
RTVSPost2010Prop44ColorIndex
 90
        5
102
RTVSPost2010Prop44ColorRGB
 90
      255
102
RTVSPost2010PropOp44
 70
     1
102
RTVSPost2010Prop45
280
     0
102
RTVSPost2010PropOp45
 70
     1
102
RTVSPost2010Prop46
 90
       50
102
RTVSPost2010PropOp46
 70
     1
102
RTVSPost2010Prop47
 90
       50
102
RTVSPost2010PropOp47
 70
     1
102
RTVSPost2010Prop48
 90
       50
102
RTVSPost2010PropOp48
 70
     1
102
RTVSPost2010Prop49
280
     0
102
RTVSPost2010PropOp49
 70
     1
102
RTVSPost2010Prop50
 90
       50
102
RTVSPost2010PropOp50
 70
     1
102
RTVSPost2010Prop51ColorIndex
 90
      256
102
RTVSPost2010Prop51ColorRGB
 90
-16777216
102
RTVSPost2010PropOp51
 70
     0
102
RTVSPost2010Prop52
140
1.0
102
RTVSPost2010PropOp52
 70
     0
102
RTVSPost2010Prop53
 90
        2
102
RTVSPost2010PropOp53
 70
     1
102
RTVSPost2010Prop54
  1
strokes_ogs.tif
102
RTVSPost2010PropOp54
 70
     1
102
RTVSPost2010Prop55
280
     0
102
RTVSPost2010PropOp55
 70
     1
102
RTVSPost2010Prop56
140
1.0
102
RTVSPost2010PropOp56
 70
     1
102
RTVSPost2010Prop57
140
1.0
102
RTVSPost2010PropOp57
 70
     1
102
RTVSPropertyOp0
 70
     1
102
RTVSPropertyOp1
 70
     1
102
RTVSPropertyOp2
 70
     1
102
RTVSPropertyOp3
 70
     1
102
RTVSPropertyOp4
 70
     1
102
RTVSPropertyOp5
 70
     1
102
RTVSPropertyOp6
 70
     1
102
RTVSPropertyOp7
 70
     1
102
RTVSPropertyOp8
 70
     1
102
RTVSPropertyOp9
 70
     1
102
RTVSPropertyOp10
 70
     1
102
RTVSPropertyOp11
 70
     1
102
RTVSPropertyOp12
 70
     1
102
RTVSPropertyOp13
 70
     1
102
RTVSPropertyOp14
 70
     1
102
RTVSPropertyOp15
 70
     1
102
RTVSPropertyOp16
 70
     1
102
RTVSPropertyOp17
 70
     1
102
RTVSPropertyOp18
 70
     1
102
RTVSPropertyOp19
 70
     1
102
RTVSPropertyOp20
 70
     1
102
RTVSPropertyOp21
 70
     1
102
RTVSPropertyOp22
 70
     1
102
RTVSPropertyOp23
 70
     1
102
RTVSPropertyOp24
 70
     1
102
RTVSPropertyOp25
 70
     1
102
RTVSPropertyOp26
 70
     1
102
RTVSPropertyOp27
 70
     1
102
RTVSPropertyOp28
 70
     1
102
RTVSPropertyOp29
 70
     1
102
RTVSPropertyOp30
 70
     1
102
RTVSPropertyOp31
 70
     1
102
RTVSPropertyOp32
 70
     1
102
RTVSPropertyOp33
 70
     1
102
RTVSPropertyOp34
 70
     1
102
RTVSPropertyOp35
 70
     1
102
RTVSPropertyOp36
 70
     1
102
RTVSPropertyOp37
 70
     1
102
RTVSPropertyOp38
 70
     1
102
RTVSPropertyOp39
 70
     1
102
RTVSPropertyOp40
 70
     1
102
RTVSPropertyOp41
 70
     1
102
RTVSPropertyOp42
 70
     1
102
RTVSPropertyOp43
 70
     1
102
RTVSPropertyOp44
 70
     1
102
RTVSPropertyOp45
 70
     1
102
RTVSPropertyOp46
 70
     1
102
RTVSPropertyOp47
 70
     1
102
RTVSPropertyOp48
 70
     1
102
RTVSPropertyOp49
 70
     1
102
RTVSPropertyOp50
 70
     1
102
RTVSPropertyOp51
 70
     0
102
RTVSPropertyOp52
 70
     0
102
RTVSPropertyOp53
 70
     1
102
RTVSPropertyOp54
 70
     1
102
RTVSPropertyOp55
 70
     1
102
RTVSPropertyOp56
 70
     1
102
RTVSPropertyOp57
 70
     1
102
RTVSPropertyOp58
 70
     1
102
RTVSPropertyOp59
 70
     1
102
RTVSPropertyOp60
 70
     1
102
RTVSPropertyOp61
 70
     1
102
RTVSPropertyOp62
 70
     1
  0
XRECORD
  5
393
102
{ACAD_REACTORS
330
392
102
}
330
392
100
AcDbXrecord
280
     1
102
RTVSPost2010Prop28
280
     0
102
RTVSPost2010PropOp28
 70
     1
102
RTVSPost2010Prop29
280
     1
102
RTVSPost2010PropOp29
 70
     1
102
RTVSPost2010Prop30
280
     1
102
RTVSPost2010PropOp30
 70
     1
102
RTVSPost2010Prop31
280
     0
102
RTVSPost2010PropOp31
 70
     1
102
RTVSPost2010Prop32
280
     0
102
RTVSPost2010PropOp32
 70
     1
102
RTVSPost2010Prop33
280
     0
102
RTVSPost2010PropOp33
 70
     1
102
RTVSPost2010Prop34
280
     0
102
RTVSPost2010PropOp34
 70
     1
102
RTVSPost2010Prop35
280
     0
102
RTVSPost2010PropOp35
 70
     1
102
RTVSPost2010Prop36
280
     0
102
RTVSPost2010PropOp36
 70
     1
102
RTVSPost2010Prop37
 90
       50
102
RTVSPost2010PropOp37
 70
     1
102
RTVSPost2010Prop38
140
0.0
102
RTVSPost2010PropOp38
 70
     1
102
RTVSPost2010Prop39
140
1.0
102
RTVSPost2010PropOp39
 70
     1
102
RTVSPost2010Prop40
 90
        0
102
RTVSPost2010PropOp40
 70
     1
102
RTVSPost2010Prop41ColorIndex
 90
       18
102
RTVSPost2010Prop41ColorRGB
 90
        0
102
RTVSPost2010PropOp41
 70
     1
102
RTVSPost2010Prop42
 90
       50
102
RTVSPost2010PropOp42
 70
     1
102
RTVSPost2010Prop43
 90
        3
102
RTVSPost2010PropOp43
 70
     1
102
RTVSPost2010Prop44ColorIndex
 90
        5
102
RTVSPost2010Prop44ColorRGB
 90
      255
102
RTVSPost2010PropOp44
 70
     1
102
RTVSPost2010Prop45
280
     0
102
RTVSPost2010PropOp45
 70
     1
102
RTVSPost2010Prop46
 90
       50
102
RTVSPost2010PropOp46
 70
     1
102
RTVSPost2010Prop47
 90
       50
102
RTVSPost2010PropOp47
 70
     1
102
RTVSPost2010Prop48
 90
       50
102
RTVSPost2010PropOp48
 70
     1
102
RTVSPost2010Prop49
280
     0
102
RTVSPost2010PropOp49
 70
     1
102
RTVSPost2010Prop50
 90
       50
102
RTVSPost2010PropOp50
 70
     1
102
RTVSPost2010Prop51ColorIndex
 90
      256
102
RTVSPost2010Prop51ColorRGB
 90
-16777216
102
RTVSPost2010PropOp51
 70
     0
102
RTVSPost2010Prop52
140
1.0
102
RTVSPost2010PropOp52
 70
     0
102
RTVSPost2010Prop53
 90
        2
102
RTVSPost2010PropOp53
 70
     1
102
RTVSPost2010Prop54
  1
strokes_ogs.tif
102
RTVSPost2010PropOp54
 70
     1
102
RTVSPost2010Prop55
280
     0
102
RTVSPost2010PropOp55
 70
     1
102
RTVSPost2010Prop56
140
1.0
102
RTVSPost2010PropOp56
 70
     1
102
RTVSPost2010Prop57
140
1.0
102
RTVSPost2010PropOp57
 70
     1
102
RTVSPropertyOp0
 70
     1
102
RTVSPropertyOp1
 70
     1
102
RTVSPropertyOp2
 70
     1
102
RTVSPropertyOp3
 70
     1
102
RTVSPropertyOp4
 70
     1
102
RTVSPropertyOp5
 70
     1
102
RTVSPropertyOp6
 70
     1
102
RTVSPropertyOp7
 70
     1
102
RTVSPropertyOp8
 70
     1
102
RTVSPropertyOp9
 70
     1
102
RTVSPropertyOp10
 70
     1
102
RTVSPropertyOp11
 70
     1
102
RTVSPropertyOp12
 70
     1
102
RTVSPropertyOp13
 70
     1
102
RTVSPropertyOp14
 70
     1
102
RTVSPropertyOp15
 70
     1
102
RTVSPropertyOp16
 70
     1
102
RTVSPropertyOp17
 70
     1
102
RTVSPropertyOp18
 70
     1
102
RTVSPropertyOp19
 70
     1
102
RTVSPropertyOp20
 70
     1
102
RTVSPropertyOp21
 70
     1
102
RTVSPropertyOp22
 70
     1
102
RTVSPropertyOp23
 70
     1
102
RTVSPropertyOp24
 70
     1
102
RTVSPropertyOp25
 70
     1
102
RTVSPropertyOp26
 70
     1
102
RTVSPropertyOp27
 70
     1
102
RTVSPropertyOp28
 70
     1
102
RTVSPropertyOp29
 70
     1
102
RTVSPropertyOp30
 70
     1
102
RTVSPropertyOp31
 70
     1
102
RTVSPropertyOp32
 70
     1
102
RTVSPropertyOp33
 70
     1
102
RTVSPropertyOp34
 70
     1
102
RTVSPropertyOp35
 70
     1
102
RTVSPropertyOp36
 70
     1
102
RTVSPropertyOp37
 70
     1
102
RTVSPropertyOp38
 70
     1
102
RTVSPropertyOp39
 70
     1
102
RTVSPropertyOp40
 70
     1
102
RTVSPropertyOp41
 70
     1
102
RTVSPropertyOp42
 70
     1
102
RTVSPropertyOp43
 70
     1
102
RTVSPropertyOp44
 70
     1
102
RTVSPropertyOp45
 70
     1
102
RTVSPropertyOp46
 70
     1
102
RTVSPropertyOp47
 70
     1
102
RTVSPropertyOp48
 70
     1
102
RTVSPropertyOp49
 70
     1
102
RTVSPropertyOp50
 70
     1
102
RTVSPropertyOp51
 70
     0
102
RTVSPropertyOp52
 70
     0
102
RTVSPropertyOp53
 70
     1
102
RTVSPropertyOp54
 70
     1
102
RTVSPropertyOp55
 70
     1
102
RTVSPropertyOp56
 70
     1
102
RTVSPropertyOp57
 70
     1
102
RTVSPropertyOp58
 70
     1
102
RTVSPropertyOp59
 70
     1
102
RTVSPropertyOp60
 70
     1
102
RTVSPropertyOp61
 70
     1
102
RTVSPropertyOp62
 70
     1
  0
XRECORD
  5
3AB
102
{ACAD_REACTORS
330
3AA
102
}
330
3AA
100
AcDbXrecord
280
     1
102
RTVSPost2010Prop28
280
     0
102
RTVSPost2010PropOp28
 70
     1
102
RTVSPost2010Prop29
280
     1
102
RTVSPost2010PropOp29
 70
     1
102
RTVSPost2010Prop30
280
     1
102
RTVSPost2010PropOp30
 70
     1
102
RTVSPost2010Prop31
280
     0
102
RTVSPost2010PropOp31
 70
     1
102
RTVSPost2010Prop32
280
     0
102
RTVSPost2010PropOp32
 70
     1
102
RTVSPost2010Prop33
280
     0
102
RTVSPost2010PropOp33
 70
     1
102
RTVSPost2010Prop34
280
     0
102
RTVSPost2010PropOp34
 70
     1
102
RTVSPost2010Prop35
280
     0
102
RTVSPost2010PropOp35
 70
     1
102
RTVSPost2010Prop36
280
     0
102
RTVSPost2010PropOp36
 70
     1
102
RTVSPost2010Prop37
 90
       50
102
RTVSPost2010PropOp37
 70
     1
102
RTVSPost2010Prop38
140
0.0
102
RTVSPost2010PropOp38
 70
     1
102
RTVSPost2010Prop39
140
1.0
102
RTVSPost2010PropOp39
 70
     1
102
RTVSPost2010Prop40
 90
        0
102
RTVSPost2010PropOp40
 70
     1
102
RTVSPost2010Prop41ColorIndex
 90
       18
102
RTVSPost2010Prop41ColorRGB
 90
        0
102
RTVSPost2010PropOp41
 70
     1
102
RTVSPost2010Prop42
 90
       50
102
RTVSPost2010PropOp42
 70
     1
102
RTVSPost2010Prop43
 90
        3
102
RTVSPost2010PropOp43
 70
     1
102
RTVSPost2010Prop44ColorIndex
 90
        5
102
RTVSPost2010Prop44ColorRGB
 90
      255
102
RTVSPost2010PropOp44
 70
     1
102
RTVSPost2010Prop45
280
     0
102
RTVSPost2010PropOp45
 70
     1
102
RTVSPost2010Prop46
 90
       50
102
RTVSPost2010PropOp46
 70
     1
102
RTVSPost2010Prop47
 90
       50
102
RTVSPost2010PropOp47
 70
     1
102
RTVSPost2010Prop48
 90
       50
102
RTVSPost2010PropOp48
 70
     1
102
RTVSPost2010Prop49
280
     0
102
RTVSPost2010PropOp49
 70
     1
102
RTVSPost2010Prop50
 90
       50
102
RTVSPost2010PropOp50
 70
     1
102
RTVSPost2010Prop51ColorIndex
 90
      256
102
RTVSPost2010Prop51ColorRGB
 90
-16777216
102
RTVSPost2010PropOp51
 70
     0
102
RTVSPost2010Prop52
140
1.0
102
RTVSPost2010PropOp52
 70
     0
102
RTVSPost2010Prop53
 90
        2
102
RTVSPost2010PropOp53
 70
     1
102
RTVSPost2010Prop54
  1
strokes_ogs.tif
102
RTVSPost2010PropOp54
 70
     1
102
RTVSPost2010Prop55
280
     0
102
RTVSPost2010PropOp55
 70
     1
102
RTVSPost2010Prop56
140
1.0
102
RTVSPost2010PropOp56
 70
     1
102
RTVSPost2010Prop57
140
1.0
102
RTVSPost2010PropOp57
 70
     1
102
RTVSPropertyOp0
 70
     1
102
RTVSPropertyOp1
 70
     1
102
RTVSPropertyOp2
 70
     1
102
RTVSPropertyOp3
 70
     1
102
RTVSPropertyOp4
 70
     1
102
RTVSPropertyOp5
 70
     1
102
RTVSPropertyOp6
 70
     1
102
RTVSPropertyOp7
 70
     1
102
RTVSPropertyOp8
 70
     1
102
RTVSPropertyOp9
 70
     1
102
RTVSPropertyOp10
 70
     1
102
RTVSPropertyOp11
 70
     1
102
RTVSPropertyOp12
 70
     1
102
RTVSPropertyOp13
 70
     1
102
RTVSPropertyOp14
 70
     1
102
RTVSPropertyOp15
 70
     1
102
RTVSPropertyOp16
 70
     1
102
RTVSPropertyOp17
 70
     1
102
RTVSPropertyOp18
 70
     1
102
RTVSPropertyOp19
 70
     1
102
RTVSPropertyOp20
 70
     1
102
RTVSPropertyOp21
 70
     1
102
RTVSPropertyOp22
 70
     1
102
RTVSPropertyOp23
 70
     1
102
RTVSPropertyOp24
 70
     1
102
RTVSPropertyOp25
 70
     1
102
RTVSPropertyOp26
 70
     1
102
RTVSPropertyOp27
 70
     1
102
RTVSPropertyOp28
 70
     1
102
RTVSPropertyOp29
 70
     1
102
RTVSPropertyOp30
 70
     1
102
RTVSPropertyOp31
 70
     1
102
RTVSPropertyOp32
 70
     1
102
RTVSPropertyOp33
 70
     1
102
RTVSPropertyOp34
 70
     1
102
RTVSPropertyOp35
 70
     1
102
RTVSPropertyOp36
 70
     1
102
RTVSPropertyOp37
 70
     1
102
RTVSPropertyOp38
 70
     1
102
RTVSPropertyOp39
 70
     1
102
RTVSPropertyOp40
 70
     1
102
RTVSPropertyOp41
 70
     1
102
RTVSPropertyOp42
 70
     1
102
RTVSPropertyOp43
 70
     1
102
RTVSPropertyOp44
 70
     1
102
RTVSPropertyOp45
 70
     1
102
RTVSPropertyOp46
 70
     1
102
RTVSPropertyOp47
 70
     1
102
RTVSPropertyOp48
 70
     1
102
RTVSPropertyOp49
 70
     1
102
RTVSPropertyOp50
 70
     1
102
RTVSPropertyOp51
 70
     0
102
RTVSPropertyOp52
 70
     0
102
RTVSPropertyOp53
 70
     1
102
RTVSPropertyOp54
 70
     1
102
RTVSPropertyOp55
 70
     1
102
RTVSPropertyOp56
 70
     1
102
RTVSPropertyOp57
 70
     1
102
RTVSPropertyOp58
 70
     1
102
RTVSPropertyOp59
 70
     1
102
RTVSPropertyOp60
 70
     1
102
RTVSPropertyOp61
 70
     1
102
RTVSPropertyOp62
 70
     1
  0
ENDSEC
  0
EOF
