  0
SECTION
  2
HEADER
  9
$ACADVER
  1
AC1015
  9
$ACADMAINTVER
 70
    20
  9
$DWGCODEPAGE
  3
ANSI_932
  9
$INSBASE
 10
0.0
 20
0.0
 30
0.0
  9
$EXTMIN
 10
-0.1281640493871237
 20
-0.0906302920675444
 30
-0.0015258207003583
  9
$EXTMAX
 10
4200.128183607161
 20
2970.090644122207
 30
0.0000000349246037
  9
$LIMMIN
 10
0.0
 20
0.0
  9
$LIMMAX
 10
12.0
 20
9.0
  9
$ORTHOMODE
 70
     0
  9
$REGENMODE
 70
     1
  9
$FILLMODE
 70
     1
  9
$QTEXTMODE
 70
     0
  9
$MIRRTEXT
 70
     0
  9
$LTSCALE
 40
10.0
  9
$ATTMODE
 70
     1
  9
$TEXTSIZE
 40
0.0
  9
$TRACEWID
 40
0.05
  9
$TEXTSTYLE
  7
STANDARD
  9
$CLAYER
  8
0
  9
$CELTYPE
  6
CONTINUOUS
  9
$CECOLOR
 62
   256
  9
$CELTSCALE
 40
1.0
  9
$DISPSILH
 70
     0
  9
$DIMSCALE
 40
1.0
  9
$DIMASZ
 40
0.18
  9
$DIMEXO
 40
0.0625
  9
$DIMDLI
 40
0.38
  9
$DIMRND
 40
0.0
  9
$DIMDLE
 40
0.0
  9
$DIMEXE
 40
0.18
  9
$DIMTP
 40
0.0
  9
$DIMTM
 40
0.0
  9
$DIMTXT
 40
0.18
  9
$DIMCEN
 40
0.09
  9
$DIMTSZ
 40
0.0
  9
$DIMTOL
 70
     0
  9
$DIMLIM
 70
     0
  9
$DIMTIH
 70
     1
  9
$DIMTOH
 70
     1
  9
$DIMSE1
 70
     0
  9
$DIMSE2
 70
     0
  9
$DIMTAD
 70
     0
  9
$DIMZIN
 70
     0
  9
$DIMBLK
  1

  9
$DIMASO
 70
     1
  9
$DIMSHO
 70
     1
  9
$DIMPOST
  1

  9
$DIMAPOST
  1

  9
$DIMALT
 70
     0
  9
$DIMALTD
 70
     2
  9
$DIMALTF
 40
25.4
  9
$DIMLFAC
 40
1.0
  9
$DIMTOFL
 70
     0
  9
$DIMTVP
 40
0.0
  9
$DIMTIX
 70
     0
  9
$DIMSOXD
 70
     0
  9
$DIMSAH
 70
     0
  9
$DIMBLK1
  1

  9
$DIMBLK2
  1

  9
$DIMSTYLE
  2
Standard
  9
$DIMCLRD
 70
     0
  9
$DIMCLRE
 70
     0
  9
$DIMCLRT
 70
     0
  9
$DIMTFAC
 40
1.0
  9
$DIMGAP
 40
0.09
  9
$DIMJUST
 70
     0
  9
$DIMSD1
 70
     0
  9
$DIMSD2
 70
     0
  9
$DIMTOLJ
 70
     1
  9
$DIMTZIN
 70
     0
  9
$DIMALTZ
 70
     0
  9
$DIMALTTZ
 70
     0
  9
$DIMUPT
 70
     0
  9
$DIMDEC
 70
     4
  9
$DIMTDEC
 70
     4
  9
$DIMALTU
 70
     2
  9
$DIMALTTD
 70
     2
  9
$DIMTXSTY
  7
STANDARD
  9
$DIMAUNIT
 70
     0
  9
$DIMADEC
 70
     0
  9
$DIMALTRND
 40
0.0
  9
$DIMAZIN
 70
     0
  9
$DIMDSEP
 70
    46
  9
$DIMATFIT
 70
     3
  9
$DIMFRAC
 70
     0
  9
$DIMLDRBLK
  1

  9
$DIMLUNIT
 70
     2
  9
$DIMLWD
 70
    -2
  9
$DIMLWE
 70
    -2
  9
$DIMTMOVE
 70
     0
  9
$LUNITS
 70
     2
  9
$LUPREC
 70
     4
  9
$SKETCHINC
 40
0.1
  9
$FILLETRAD
 40
0.0
  9
$AUNITS
 70
     0
  9
$AUPREC
 70
     0
  9
$MENU
  1
.
  9
$ELEVATION
 40
0.0
  9
$PELEVATION
 40
0.0
  9
$THICKNESS
 40
0.0
  9
$LIMCHECK
 70
     0
  9
$CHAMFERA
 40
0.0
  9
$CHAMFERB
 40
0.0
  9
$CHAMFERC
 40
0.0
  9
$CHAMFERD
 40
0.0
  9
$SKPOLY
 70
     0
  9
$TDCREATE
 40
2459647.759930556
  9
$TDUCREATE
 40
2459647.384930556
  9
$TDUPDATE
 40
2459647.760289352
  9
$TDUUPDATE
 40
2459647.385289352
  9
$TDINDWG
 40
0.0003587963
  9
$TDUSRTIMER
 40
0.0003587963
  9
$USRTIMER
 70
     1
  9
$ANGBASE
 50
0.0
  9
$ANGDIR
 70
     0
  9
$PDMODE
 70
     0
  9
$PDSIZE
 40
5.0
  9
$PLINEWID
 40
0.0
  9
$SPLFRAME
 70
     0
  9
$SPLINETYPE
 70
     6
  9
$SPLINESEGS
 70
     8
  9
$HANDSEED
  5
47E
  9
$SURFTAB1
 70
     6
  9
$SURFTAB2
 70
     6
  9
$SURFTYPE
 70
     6
  9
$SURFU
 70
     6
  9
$SURFV
 70
     6
  9
$UCSBASE
  2

  9
$UCSNAME
  2

  9
$UCSORG
 10
0.0
 20
0.0
 30
0.0
  9
$UCSXDIR
 10
1.0
 20
0.0
 30
0.0
  9
$UCSYDIR
 10
0.0
 20
1.0
 30
0.0
  9
$UCSORTHOREF
  2

  9
$UCSORTHOVIEW
 70
     0
  9
$UCSORGTOP
 10
0.0
 20
0.0
 30
0.0
  9
$UCSORGBOTTOM
 10
0.0
 20
0.0
 30
0.0
  9
$UCSORGLEFT
 10
0.0
 20
0.0
 30
0.0
  9
$UCSORGRIGHT
 10
0.0
 20
0.0
 30
0.0
  9
$UCSORGFRONT
 10
0.0
 20
0.0
 30
0.0
  9
$UCSORGBACK
 10
0.0
 20
0.0
 30
0.0
  9
$PUCSBASE
  2

  9
$PUCSNAME
  2

  9
$PUCSORG
 10
0.0
 20
0.0
 30
0.0
  9
$PUCSXDIR
 10
1.0
 20
0.0
 30
0.0
  9
$PUCSYDIR
 10
0.0
 20
1.0
 30
0.0
  9
$PUCSORTHOREF
  2

  9
$PUCSORTHOVIEW
 70
     0
  9
$PUCSORGTOP
 10
0.0
 20
0.0
 30
0.0
  9
$PUCSORGBOTTOM
 10
0.0
 20
0.0
 30
0.0
  9
$PUCSORGLEFT
 10
0.0
 20
0.0
 30
0.0
  9
$PUCSORGRIGHT
 10
0.0
 20
0.0
 30
0.0
  9
$PUCSORGFRONT
 10
0.0
 20
0.0
 30
0.0
  9
$PUCSORGBACK
 10
0.0
 20
0.0
 30
0.0
  9
$USERI1
 70
     0
  9
$USERI2
 70
     0
  9
$USERI3
 70
     0
  9
$USERI4
 70
     0
  9
$USERI5
 70
     0
  9
$USERR1
 40
0.0
  9
$USERR2
 40
0.0
  9
$USERR3
 40
0.0
  9
$USERR4
 40
0.0
  9
$USERR5
 40
0.0
  9
$WORLDVIEW
 70
     1
  9
$SHADEDGE
 70
     3
  9
$SHADEDIF
 70
    70
  9
$TILEMODE
 70
     1
  9
$MAXACTVP
 70
    64
  9
$PINSBASE
 10
0.0
 20
0.0
 30
0.0
  9
$PLIMCHECK
 70
     0
  9
$PEXTMIN
 10
1.000000000000000E+20
 20
1.000000000000000E+20
 30
1.000000000000000E+20
  9
$PEXTMAX
 10
-1.000000000000000E+20
 20
-1.000000000000000E+20
 30
-1.000000000000000E+20
  9
$PLIMMIN
 10
0.0
 20
0.0
  9
$PLIMMAX
 10
12.0
 20
9.0
  9
$UNITMODE
 70
     0
  9
$VISRETAIN
 70
     1
  9
$PLINEGEN
 70
     0
  9
$PSLTSCALE
 70
     1
  9
$TREEDEPTH
 70
  3020
  9
$CMLSTYLE
  2
Standard
  9
$CMLJUST
 70
     0
  9
$CMLSCALE
 40
1.0
  9
$PROXYGRAPHICS
 70
     1
  9
$MEASUREMENT
 70
     0
  9
$CELWEIGHT
370
    -1
  9
$ENDCAPS
280
     0
  9
$JOINSTYLE
280
     0
  9
$LWDISPLAY
290
     0
  9
$INSUNITS
 70
     0
  9
$HYPERLINKBASE
  1

  9
$STYLESHEET
  1

  9
$XEDIT
290
     1
  9
$CEPSNTYPE
380
     0
  9
$PSTYLEMODE
290
     1
  9
$FINGERPRINTGUID
  2
{E7CD68C5-99A4-4344-89B9-25851C3A3182}
  9
$VERSIONGUID
  2
{BD95967E-FA1B-E642-B9F7-4D96EF32B1B7}
  9
$EXTNAMES
290
     1
  9
$PSVPSCALE
 40
0.0
  9
$OLESTARTUP
290
     0
  0
ENDSEC
  0
SECTION
  2
CLASSES
  0
CLASS
  1
ACDBDICTIONARYWDFLT
  2
AcDbDictionaryWithDefault
  3
ObjectDBX Classes
 90
        0
280
     0
281
     0
  0
CLASS
  1
MATERIAL
  2
AcDbMaterial
  3
ObjectDBX Classes
 90
     1153
280
     0
281
     0
  0
CLASS
  1
VISUALSTYLE
  2
AcDbVisualStyle
  3
ObjectDBX Classes
 90
     4095
280
     0
281
     0
  0
CLASS
  1
SCALE
  2
AcDbScale
  3
ObjectDBX Classes
 90
     1153
280
     0
281
     0
  0
CLASS
  1
TABLESTYLE
  2
AcDbTableStyle
  3
ObjectDBX Classes
 90
     4095
280
     0
281
     0
  0
CLASS
  1
MLEADERSTYLE
  2
AcDbMLeaderStyle
  3
ACDB_MLEADERSTYLE_CLASS
 90
     4095
280
     0
281
     0
  0
CLASS
  1
ACDBSECTIONVIEWSTYLE
  2
AcDbSectionViewStyle
  3
ObjectDBX Classes
 90
     1025
280
     0
281
     0
  0
CLASS
  1
ACDBDETAILVIEWSTYLE
  2
AcDbDetailViewStyle
  3
ObjectDBX Classes
 90
     1025
280
     0
281
     0
  0
CLASS
  1
DICTIONARYVAR
  2
AcDbDictionaryVar
  3
ObjectDBX Classes
 90
        0
280
     0
281
     0
  0
CLASS
  1
CELLSTYLEMAP
  2
AcDbCellStyleMap
  3
ObjectDBX Classes
 90
     1152
280
     0
281
     0
  0
CLASS
  1
ACDBPLACEHOLDER
  2
AcDbPlaceHolder
  3
ObjectDBX Classes
 90
        0
280
     0
281
     0
  0
CLASS
  1
LAYOUT
  2
AcDbLayout
  3
ObjectDBX Classes
 90
        0
280
     0
281
     0
  0
ENDSEC
  0
SECTION
  2
TABLES
  0
TABLE
  2
VPORT
  5
8
330
0
100
AcDbSymbolTable
 70
     1
  0
VPORT
  5
8D
330
8
100
AcDbSymbolTableRecord
100
AcDbViewportTableRecord
  2
*Active
 70
     0
 10
0.0
 20
0.0
 11
1.0
 21
1.0
 12
2100.000009778887
 22
1485.00000691507
 13
0.0
 23
0.0
 14
1.0
 24
1.0
 15
0.0
 25
0.0
 16
0.0
 26
0.0
 36
1.0
 17
0.0
 27
0.0
 37
0.0
 40
2991.6524643498
 41
2.285886610373944
 42
50.0
 43
0.0
 44
0.0
 50
0.0
 51
0.0
 71
     0
 72
   100
 73
     1
 74
     0
 75
     1
 76
     0
 77
     0
 78
     0
281
     0
 65
     1
110
0.0
120
0.0
130
0.0
111
1.0
121
0.0
131
0.0
112
0.0
122
1.0
132
0.0
 79
     0
146
0.0
1001
ACAD_NAV_VCDISPLAY
1070
     3
  0
ENDTAB
  0
TABLE
  2
LTYPE
  5
5
330
0
100
AcDbSymbolTable
 70
     9
  0
LTYPE
  5
5A
330
5
100
AcDbSymbolTableRecord
100
AcDbLinetypeTableRecord
  2
ByBlock
 70
     0
  3

 72
    65
 73
     0
 40
0.0
  0
LTYPE
  5
5B
330
5
100
AcDbSymbolTableRecord
100
AcDbLinetypeTableRecord
  2
ByLayer
 70
     0
  3

 72
    65
 73
     0
 40
0.0
  0
LTYPE
  5
5C
330
5
100
AcDbSymbolTableRecord
100
AcDbLinetypeTableRecord
  2
CONTINUOUS
 70
     0
  3
SolidLine
 72
    65
 73
     0
 40
0.0
  0
LTYPE
  5
73
330
5
100
AcDbSymbolTableRecord
100
AcDbLinetypeTableRecord
  2
DOT
 70
     0
  3
--  --  --  --  --  --  --  --     
 72
    65
 73
     2
 40
3.0
 49
1.0
 74
     0
 49
-2.0
 74
     0
  0
LTYPE
  5
74
330
5
100
AcDbSymbolTableRecord
100
AcDbLinetypeTableRecord
  2
DASHED
 70
     0
  3
----    ----    ----    ----    
 72
    65
 73
     2
 40
5.0
 49
2.0
 74
     0
 49
-3.0
 74
     0
  0
LTYPE
  5
75
330
5
100
AcDbSymbolTableRecord
100
AcDbLinetypeTableRecord
  2
DASHED2
 70
     0
  3
------  ------  ------  ------ 
 72
    65
 73
     2
 40
10.0
 49
4.0
 74
     0
 49
-6.0
 74
     0
  0
LTYPE
  5
76
330
5
100
AcDbSymbolTableRecord
100
AcDbLinetypeTableRecord
  2
CENTER
 70
     0
  3
----- - ----- - ----- - ----- - 
 72
    65
 73
     4
 40
10.0
 49
6.0
 74
     0
 49
-3.0
 74
     0
 49
1.0
 74
     0
 49
-3.0
 74
     0
  0
LTYPE
  5
77
330
5
100
AcDbSymbolTableRecord
100
AcDbLinetypeTableRecord
  2
CENTER2
 70
     0
  3
----------  --  ----------  -- 
 72
    65
 73
     4
 40
17.0
 49
12.0
 74
     0
 49
-5.0
 74
     0
 49
2.0
 74
     0
 49
-5.0
 74
     0
  0
LTYPE
  5
78
330
5
100
AcDbSymbolTableRecord
100
AcDbLinetypeTableRecord
  2
PHANTOM
 70
     0
  3
--- - - --- - - --- - - --- - -
 72
    65
 73
     6
 40
13.0
 49
5.0
 74
     0
 49
-3.0
 74
     0
 49
1.0
 74
     0
 49
-3.0
 74
     0
 49
1.0
 74
     0
 49
-3.0
 74
     0
  0
LTYPE
  5
79
330
5
100
AcDbSymbolTableRecord
100
AcDbLinetypeTableRecord
  2
PHANTOM2
 70
     0
  3
--------  -  -  --------  -  -
 72
    65
 73
     6
 40
20.0
 49
6.0
 74
     0
 49
-5.0
 74
     0
 49
2.0
 74
     0
 49
-5.0
 74
     0
 49
2.0
 74
     0
 49
-5.0
 74
     0
  0
LTYPE
  5
7A
330
5
100
AcDbSymbolTableRecord
100
AcDbLinetypeTableRecord
  2
HIDDEN
 70
     0
  3
-   -   -   -   -   -   -   -   
 72
    65
 73
     2
 40
3.0
 49
0.5
 74
     0
 49
-2.5
 74
     0
  0
ENDTAB
  0
TABLE
  2
LAYER
  5
2
330
0
100
AcDbSymbolTable
 70
    12
  0
LAYER
  5
54
102
{ACAD_XDICTIONARY
360
41A
102
}
330
2
100
AcDbSymbolTableRecord
100
AcDbLayerTableRecord
  2
0
 70
     0
 62
     7
  6
CONTINUOUS
370
    -3
390
F
  0
LAYER
  5
7F
102
{ACAD_XDICTIONARY
360
41C
102
}
330
2
100
AcDbSymbolTableRecord
100
AcDbLayerTableRecord
  2
2-0
 70
     0
 62
     7
  6
CONTINUOUS
370
    -3
390
F
  0
LAYER
  5
80
102
{ACAD_XDICTIONARY
360
41E
102
}
330
2
100
AcDbSymbolTableRecord
100
AcDbLayerTableRecord
  2
3-0
 70
     0
 62
     7
  6
CONTINUOUS
370
    -3
390
F
  0
LAYER
  5
81
102
{ACAD_XDICTIONARY
360
420
102
}
330
2
100
AcDbSymbolTableRecord
100
AcDbLayerTableRecord
  2
4-0
 70
     0
 62
     7
  6
CONTINUOUS
370
    -3
390
F
  0
LAYER
  5
82
102
{ACAD_XDICTIONARY
360
422
102
}
330
2
100
AcDbSymbolTableRecord
100
AcDbLayerTableRecord
  2
6-0
 70
     0
 62
    -7
  6
CONTINUOUS
370
    -3
390
F
  0
LAYER
  5
83
102
{ACAD_XDICTIONARY
360
424
102
}
330
2
100
AcDbSymbolTableRecord
100
AcDbLayerTableRecord
  2
7-0
 70
     0
 62
    -7
  6
CONTINUOUS
370
    -3
390
F
  0
LAYER
  5
84
102
{ACAD_XDICTIONARY
360
426
102
}
330
2
100
AcDbSymbolTableRecord
100
AcDbLayerTableRecord
  2
8-0
 70
     0
 62
     7
  6
CONTINUOUS
370
    -3
390
F
  0
LAYER
  5
85
102
{ACAD_XDICTIONARY
360
428
102
}
330
2
100
AcDbSymbolTableRecord
100
AcDbLayerTableRecord
  2
A-0
 70
     0
 62
     7
  6
CONTINUOUS
370
    -3
390
F
  0
LAYER
  5
86
102
{ACAD_XDICTIONARY
360
42A
102
}
330
2
100
AcDbSymbolTableRecord
100
AcDbLayerTableRecord
  2
B-0
 70
     0
 62
     1
  6
CONTINUOUS
370
    -3
390
F
  0
LAYER
  5
87
102
{ACAD_XDICTIONARY
360
42C
102
}
330
2
100
AcDbSymbolTableRecord
100
AcDbLayerTableRecord
  2
C-0
 70
     0
 62
     6
  6
CENTER
370
    -3
390
F
  0
LAYER
  5
88
102
{ACAD_XDICTIONARY
360
42E
102
}
330
2
100
AcDbSymbolTableRecord
100
AcDbLayerTableRecord
  2
1-1
 70
     0
 62
     5
  6
CONTINUOUS
370
    -3
390
F
  0
LAYER
  5
8E
102
{ACAD_XDICTIONARY
360
430
102
}
330
2
100
AcDbSymbolTableRecord
100
AcDbLayerTableRecord
  2
1-0
 70
     0
 62
     7
  6
CONTINUOUS
370
    -3
390
F
  0
ENDTAB
  0
TABLE
  2
STYLE
  5
3
330
0
100
AcDbSymbolTable
 70
     6
  0
STYLE
  5
55
330
3
100
AcDbSymbolTableRecord
100
AcDbTextStyleTableRecord
  2
STANDARD
 70
     0
 40
0.0
 41
1.0
 50
0.0
 71
     0
 42
0.0
  3
txt.shx
  4
extfont.shx
  0
STYLE
  5
59
330
3
100
AcDbSymbolTableRecord
100
AcDbTextStyleTableRecord
  2
Annotative
 70
     0
 40
0.0
 41
1.0
 50
0.0
 71
     0
 42
0.2
  3
txt
  4

1001
AcadAnnotative
1000
AnnotativeData
1002
{
1070
     1
1070
     1
1002
}
  0
STYLE
  5
7B
330
3
100
AcDbSymbolTableRecord
100
AcDbTextStyleTableRecord
  2
TATEGAKI
 70
     4
 40
0.0
 41
1.0
 50
0.0
 71
     0
 42
0.0
  3
txt.shx
  4
extfont.shx
  0
STYLE
  5
7C
330
3
100
AcDbSymbolTableRecord
100
AcDbTextStyleTableRecord
  2
DIM
 70
     0
 40
0.0
 41
0.75
 50
0.0
 71
     0
 42
0.0
  3
txt.shx
  4
extfont.shx
  0
STYLE
  5
7D
330
3
100
AcDbSymbolTableRecord
100
AcDbTextStyleTableRecord
  2
_GOTHIC__
 70
     0
 40
0.0
 41
1.0
 50
0.0
 71
     0
 42
0.0
  3
MS Gothic
  4

  0
STYLE
  5
7E
330
3
100
AcDbSymbolTableRecord
100
AcDbTextStyleTableRecord
  2
_TATEGOTHIC_
 70
     4
 40
0.0
 41
1.0
 50
0.0
 71
     0
 42
0.0
  3
@MS Gothic
  4

  0
ENDTAB
  0
TABLE
  2
VIEW
  5
6
330
0
100
AcDbSymbolTable
 70
     0
  0
ENDTAB
  0
TABLE
  2
UCS
  5
7
330
0
100
AcDbSymbolTable
 70
     0
  0
ENDTAB
  0
TABLE
  2
APPID
  5
9
330
0
100
AcDbSymbolTable
 70
     4
  0
APPID
  5
56
330
9
100
AcDbSymbolTableRecord
100
AcDbRegAppTableRecord
  2
ACAD
 70
     0
  0
APPID
  5
5D
330
9
100
AcDbSymbolTableRecord
100
AcDbRegAppTableRecord
  2
AcadAnnotative
 70
     0
  0
APPID
  5
43C
330
9
100
AcDbSymbolTableRecord
100
AcDbRegAppTableRecord
  2
ACAD_NAV_VCDISPLAY
 70
     0
  0
APPID
  5
475
330
9
100
AcDbSymbolTableRecord
100
AcDbRegAppTableRecord
  2
ACAD_MLEADERVER
 70
     0
  0
ENDTAB
  0
TABLE
  2
DIMSTYLE
  5
A
330
0
100
AcDbSymbolTable
 70
     2
100
AcDbDimStyleTable
 71
     0
  0
DIMSTYLE
105
57
330
A
100
AcDbSymbolTableRecord
100
AcDbDimStyleTableRecord
  2
Standard
 70
     0
340
55
  0
DIMSTYLE
105
58
330
A
100
AcDbSymbolTableRecord
100
AcDbDimStyleTableRecord
  2
Annotative
 70
     0
340
55
1001
AcadAnnotative
1000
AnnotativeData
1002
{
1070
     1
1070
     1
1002
}
  0
ENDTAB
  0
TABLE
  2
BLOCK_RECORD
  5
1
330
0
100
AcDbSymbolTable
 70
     0
  0
BLOCK_RECORD
  5
6F
330
1
100
AcDbSymbolTableRecord
100
AcDbBlockTableRecord
  2
*Model_Space
340
72
  0
BLOCK_RECORD
  5
6B
330
1
100
AcDbSymbolTableRecord
100
AcDbBlockTableRecord
  2
*Paper_Space
340
6E
  0
ENDTAB
  0
ENDSEC
  0
SECTION
  2
BLOCKS
  0
BLOCK
  5
70
330
6F
100
AcDbEntity
  8
0
100
AcDbBlockBegin
  2
*Model_Space
 70
     0
 10
0.0
 20
0.0
 30
0.0
  3
*Model_Space
  1

  0
ENDBLK
  5
71
330
6F
100
AcDbEntity
  8
0
100
AcDbBlockEnd
  0
BLOCK
  5
6C
330
6B
100
AcDbEntity
 67
     1
  8
0
100
AcDbBlockBegin
  2
*Paper_Space
 70
     0
 10
0.0
 20
0.0
 30
0.0
  3
*Paper_Space
  1

  0
ENDBLK
  5
6D
330
6B
100
AcDbEntity
 67
     1
  8
0
100
AcDbBlockEnd
  0
ENDSEC
  0
SECTION
  2
ENTITIES
  0
LINE
  5
8F
330
6F
100
AcDbEntity
  8
1-0
  6
Continuous
 62
     7
100
AcDbLine
 10
0.128173828274
 20
0.090637207137
 30
0.0
 11
4200.128173828274
 21
0.090637207137
 31
0.0
  0
LINE
  5
90
330
6F
100
AcDbEntity
  8
1-0
  6
Continuous
 62
     7
100
AcDbLine
 10
4200.128173828274
 20
0.090637207137
 30
0.0
 11
4200.128173828274
 21
2970.090637207137
 31
0.0
  0
LINE
  5
91
330
6F
100
AcDbEntity
  8
1-0
  6
Continuous
 62
     7
100
AcDbLine
 10
4200.128173828274
 20
2970.090637207137
 30
0.0
 11
0.128173828274
 21
2970.090637207137
 31
0.0
  0
LINE
  5
92
330
6F
100
AcDbEntity
  8
1-0
  6
Continuous
 62
     7
100
AcDbLine
 10
0.128173828274
 20
2970.090637207137
 30
0.0
 11
0.128173828274
 21
0.090637207137
 31
0.0
  0
LINE
  5
93
330
6F
100
AcDbEntity
  8
A-0
  6
Continuous
 62
     7
100
AcDbLine
 10
100.128173778887
 20
100.09063691507
 30
0.0
 11
4100.128173778887
 21
100.09063691507
 31
0.0
  0
LINE
  5
94
330
6F
100
AcDbEntity
  8
A-0
  6
Continuous
 62
     7
100
AcDbLine
 10
2500.128173778887
 20
300.09063691507
 30
0.0
 11
4100.128173778887
 21
300.09063691507
 31
0.0
  0
LINE
  5
95
330
6F
100
AcDbEntity
  8
8-0
  6
Continuous
 62
     7
100
AcDbLine
 10
2500.128173778887
 20
240.09063691507
 30
0.0
 11
3150.128173778887
 21
240.09063691507
 31
0.0
  0
LINE
  5
96
330
6F
100
AcDbEntity
  8
A-0
  6
Continuous
 62
     7
100
AcDbLine
 10
4100.128173778887
 20
100.09063691507
 30
0.0
 11
4100.128173778887
 21
2870.090636915071
 31
0.0
  0
LINE
  5
97
330
6F
100
AcDbEntity
  8
A-0
  6
Continuous
 62
     7
100
AcDbLine
 10
4100.128173778887
 20
2870.090636915071
 30
0.0
 11
100.128173778887
 21
2870.090636915071
 31
0.0
  0
LINE
  5
98
330
6F
100
AcDbEntity
  8
A-0
  6
Continuous
 62
     7
100
AcDbLine
 10
100.128173778887
 20
2870.090636915071
 30
0.0
 11
100.128173778887
 21
100.09063691507
 31
0.0
  0
LINE
  5
99
330
6F
100
AcDbEntity
  8
8-0
  6
Continuous
 62
     7
100
AcDbLine
 10
3150.128173778887
 20
100.09063691507
 30
0.0
 11
3150.128173778887
 21
300.09063691507
 31
0.0
  0
LINE
  5
9A
330
6F
100
AcDbEntity
  8
A-0
  6
Continuous
 62
     7
100
AcDbLine
 10
2500.128173778887
 20
100.09063691507
 30
0.0
 11
2500.128173778887
 21
300.09063691507
 31
0.0
  0
TEXT
  5
9B
330
6F
100
AcDbEntity
  8
1-1
 62
     5
100
AcDbText
 10
2788.563
 20
252.621
 30
0.0
 40
31.104
  1
品番
100
AcDbText
  0
TEXT
  5
9C
330
6F
100
AcDbEntity
  8
1-1
 62
     5
100
AcDbText
 10
2639.211
 20
145.071
 30
0.0
 40
51.84000000000001
  1
LW-900 R
100
AcDbText
  0
TEXT
  5
9D
330
6F
100
AcDbEntity
  8
1-1
 62
     5
100
AcDbText
 10
3353.688
 20
192.4109999999999
 30
0.0
 40
62.208
  1
アイオ産業株式会社
100
AcDbText
  0
TEXT
  5
9E
330
6F
100
AcDbEntity
  8
1-1
 62
     5
100
AcDbText
 10
3428.069000000001
 20
124.604
 30
0.0
 40
31.104
  1
アイオシステムキッチン事業部
100
AcDbText
  0
ARC
  5
9F
330
6F
100
AcDbEntity
  8
2-0
  6
Continuous
 62
     7
100
AcDbCircle
 10
3255.78771200376
 20
200.294803481434
 30
0.0
 40
63.24278074506601
100
AcDbArc
 50
319.753
 51
220.247
  0
CIRCLE
  5
A0
330
6F
100
AcDbEntity
  8
2-0
  6
Continuous
 62
     7
100
AcDbCircle
 10
3255.78771200376
 20
200.294803481434
 30
0.0
 40
71.58304716886799
  0
CIRCLE
  5
A1
330
6F
100
AcDbEntity
  8
2-0
  6
Continuous
 62
     7
100
AcDbCircle
 10
3255.78771200376
 20
200.294803481434
 30
0.0
 40
72.000060490058
  0
CIRCLE
  5
A2
330
6F
100
AcDbEntity
  8
2-0
  6
Continuous
 62
     7
100
AcDbCircle
 10
3255.78771200376
 20
200.294803481434
 30
0.0
 40
72.417073811248
  0
CIRCLE
  5
A3
330
6F
100
AcDbEntity
  8
2-0
  6
Continuous
 62
     7
100
AcDbCircle
 10
3255.78771200376
 20
200.294803481434
 30
0.0
 40
72.834087132438
  0
CIRCLE
  5
A4
330
6F
100
AcDbEntity
  8
2-0
  6
Continuous
 62
     7
100
AcDbCircle
 10
3255.78771200376
 20
200.294803481434
 30
0.0
 40
73.251100453628
  0
CIRCLE
  5
A5
330
6F
100
AcDbEntity
  8
2-0
  6
Continuous
 62
     7
100
AcDbCircle
 10
3255.78771200376
 20
200.294803481434
 30
0.0
 40
73.459607114223
  0
CIRCLE
  5
A6
330
6F
100
AcDbEntity
  8
2-0
  6
Continuous
 62
     7
100
AcDbCircle
 10
3255.78771200376
 20
200.294803481434
 30
0.0
 40
73.04259379303299
  0
CIRCLE
  5
A7
330
6F
100
AcDbEntity
  8
2-0
  6
Continuous
 62
     7
100
AcDbCircle
 10
3255.78771200376
 20
200.294803481434
 30
0.0
 40
72.62558047184301
  0
CIRCLE
  5
A8
330
6F
100
AcDbEntity
  8
2-0
  6
Continuous
 62
     7
100
AcDbCircle
 10
3255.78771200376
 20
200.294803481434
 30
0.0
 40
72.20856715065299
  0
CIRCLE
  5
A9
330
6F
100
AcDbEntity
  8
2-0
  6
Continuous
 62
     7
100
AcDbCircle
 10
3255.78771200376
 20
200.294803481434
 30
0.0
 40
71.791553829463
  0
CIRCLE
  5
AA
330
6F
100
AcDbEntity
  8
2-0
  6
Continuous
 62
     7
100
AcDbCircle
 10
3255.78771200376
 20
200.294803481434
 30
0.0
 40
71.791553829463
  0
ARC
  5
AB
330
6F
100
AcDbEntity
  8
2-0
  6
Continuous
 62
     7
100
AcDbCircle
 10
3255.78771200376
 20
200.294803481434
 30
0.0
 40
63.45128740566099
100
AcDbArc
 50
319.753
 51
220.247
  0
CIRCLE
  5
AC
330
6F
100
AcDbEntity
  8
2-0
  6
Continuous
 62
     7
100
AcDbCircle
 10
3255.78771200376
 20
200.294803481434
 30
0.0
 40
71.374540508273
  0
ARC
  5
AD
330
6F
100
AcDbEntity
  8
2-0
  6
Continuous
 62
     7
100
AcDbCircle
 10
3255.78771200376
 20
200.294803481434
 30
0.0
 40
63.03427408447099
100
AcDbArc
 50
319.753
 51
220.247
  0
TEXT
  5
AE
330
6F
100
AcDbEntity
  8
2-0
 62
     7
100
AcDbText
 10
3216.583
 20
142.289
 30
0.0
 40
48.64
  1
A
100
AcDbText
  0
TEXT
  5
AF
330
6F
100
AcDbEntity
  8
2-0
 62
     7
100
AcDbText
 10
3259.074
 20
142.392
 30
0.0
 40
48.64
  1
I
100
AcDbText
  0
TEXT
  5
B0
330
6F
100
AcDbEntity
  8
2-0
 62
     7
100
AcDbText
 10
3269.472
 20
142.357
 30
0.0
 40
48.64
  1
O
100
AcDbText
  0
LINE
  5
B1
330
6F
100
AcDbEntity
  8
1-1
  6
Continuous
 62
     5
100
AcDbLine
 10
2825.933230778887
 20
2720.08731591507
 30
0.0
 11
2825.933230778887
 21
2020.08731591507
 31
0.0
  0
LINE
  5
B2
330
6F
100
AcDbEntity
  8
1-1
  6
Continuous
 62
     5
100
AcDbLine
 10
2825.933230778887
 20
2670.08731591507
 30
0.0
 11
3920.967622778887
 21
2670.08731591507
 31
0.0
  0
LINE
  5
B3
330
6F
100
AcDbEntity
  8
1-1
  6
Continuous
 62
     5
100
AcDbLine
 10
2825.933230778887
 20
2620.08731591507
 30
0.0
 11
3920.967622778887
 21
2620.08731591507
 31
0.0
  0
LINE
  5
B4
330
6F
100
AcDbEntity
  8
1-1
  6
Continuous
 62
     5
100
AcDbLine
 10
2825.933230778887
 20
2470.08731591507
 30
0.0
 11
3920.967622778887
 21
2470.08731591507
 31
0.0
  0
LINE
  5
B5
330
6F
100
AcDbEntity
  8
1-1
  6
Continuous
 62
     5
100
AcDbLine
 10
2825.933230778887
 20
2720.08731591507
 30
0.0
 11
3920.967622778887
 21
2720.08731591507
 31
0.0
  0
TEXT
  5
B6
330
6F
100
AcDbEntity
  8
1-1
 62
     5
100
AcDbText
 10
2865.524
 20
1907.533
 30
0.0
 40
25.92
  1
※　弊社製品はすべてF☆☆☆☆に対応しております。
100
AcDbText
  0
LINE
  5
B7
330
6F
100
AcDbEntity
  8
1-1
  6
Continuous
 62
     5
100
AcDbLine
 10
2825.933230778887
 20
2020.08731591507
 30
0.0
 11
3920.967622778887
 21
2020.08731591507
 31
0.0
  0
LINE
  5
B8
330
6F
100
AcDbEntity
  8
1-1
  6
Continuous
 62
     5
100
AcDbLine
 10
2825.933230778887
 20
2070.08731591507
 30
0.0
 11
3920.967622778887
 21
2070.08731591507
 31
0.0
  0
LINE
  5
B9
330
6F
100
AcDbEntity
  8
1-1
  6
Continuous
 62
     5
100
AcDbLine
 10
2825.933230778887
 20
2120.087315915069
 30
0.0
 11
3920.967622778887
 21
2120.087315915069
 31
0.0
  0
LINE
  5
BA
330
6F
100
AcDbEntity
  8
1-1
  6
Continuous
 62
     5
100
AcDbLine
 10
2825.933230778887
 20
2170.08731591507
 30
0.0
 11
3920.967622778887
 21
2170.08731591507
 31
0.0
  0
LINE
  5
BB
330
6F
100
AcDbEntity
  8
1-1
  6
Continuous
 62
     5
100
AcDbLine
 10
2825.933230778887
 20
2220.08731591507
 30
0.0
 11
3920.967622778887
 21
2220.08731591507
 31
0.0
  0
TEXT
  5
BC
330
6F
100
AcDbEntity
  8
1-1
 62
     5
100
AcDbText
 10
2865.524
 20
2082.533
 30
0.0
 40
25.92
  1
ホース
100
AcDbText
  0
TEXT
  5
BD
330
6F
100
AcDbEntity
  8
1-1
 62
     5
100
AcDbText
 10
2865.524
 20
2032.533
 30
0.0
 40
25.92
  1
包丁差し
100
AcDbText
  0
TEXT
  5
BE
330
6F
100
AcDbEntity
  8
1-1
 62
     5
100
AcDbText
 10
2865.524
 20
2182.533
 30
0.0
 40
25.92
  1
丁番
100
AcDbText
  0
TEXT
  5
BF
330
6F
100
AcDbEntity
  8
1-1
 62
     5
100
AcDbText
 10
2865.524
 20
2132.533
 30
0.0
 40
25.92
  1
排水金具
100
AcDbText
  0
TEXT
  5
C0
330
6F
100
AcDbEntity
  8
1-1
 62
     5
100
AcDbText
 10
2865.524
 20
2432.533
 30
0.0
 40
25.92
  1
扉
100
AcDbText
  0
TEXT
  5
C1
330
6F
100
AcDbEntity
  8
1-1
 62
     5
100
AcDbText
 10
2865.524
 20
2582.533
 30
0.0
 40
25.92
  1
木部本体
100
AcDbText
  0
TEXT
  5
C2
330
6F
100
AcDbEntity
  8
1-1
 62
     5
100
AcDbText
 10
2865.524
 20
2632.533
 30
0.0
 40
25.92
  1
シンク
100
AcDbText
  0
TEXT
  5
C3
330
6F
100
AcDbEntity
  8
1-1
 62
     5
100
AcDbText
 10
2865.524
 20
2682.533
 30
0.0
 40
25.92
  1
天板
100
AcDbText
  0
TEXT
  5
C4
330
6F
100
AcDbEntity
  8
1-1
 62
     5
100
AcDbText
 10
3199.944
 20
2082.533
 30
0.0
 40
25.92
  1
塩化ビニール蛇腹30Φｘ80ｃｍ（回転板付）
100
AcDbText
  0
LINE
  5
C5
330
6F
100
AcDbEntity
  8
1-1
  6
Continuous
 62
     5
100
AcDbLine
 10
3920.967622778887
 20
2720.08731591507
 30
0.0
 11
3920.967622778887
 21
2020.08731591507
 31
0.0
  0
LINE
  5
C6
330
6F
100
AcDbEntity
  8
1-1
  6
Continuous
 62
     5
100
AcDbLine
 10
3169.816608778887
 20
2720.08731591507
 30
0.0
 11
3169.816608778887
 21
2020.08731591507
 31
0.0
  0
TEXT
  5
C7
330
6F
100
AcDbEntity
  8
1-1
 62
     5
100
AcDbText
 10
3038.283
 20
2332.533
 30
0.0
 40
25.92
  1
裏
100
AcDbText
  0
TEXT
  5
C8
330
6F
100
AcDbEntity
  8
1-1
 62
     5
100
AcDbText
 10
3199.944
 20
2332.533
 30
0.0
 40
25.92
  1
ウレタンコート化粧ボード（PB)
100
AcDbText
  0
LINE
  5
C9
330
6F
100
AcDbEntity
  8
1-1
  6
Continuous
 62
     5
100
AcDbLine
 10
3018.344182778887
 20
2620.08731591507
 30
0.0
 11
3018.344182778887
 21
2220.08731591507
 31
0.0
  0
TEXT
  5
CA
330
6F
100
AcDbEntity
  8
1-1
 62
     5
100
AcDbText
 10
3199.944
 20
2282.533
 30
0.0
 40
25.92
  1
木口テープ巻
100
AcDbText
  0
TEXT
  5
CB
330
6F
100
AcDbEntity
  8
1-1
 62
     5
100
AcDbText
 10
3199.944
 20
2182.533
 30
0.0
 40
25.92
  1
スライドヒンジ
100
AcDbText
  0
TEXT
  5
CC
330
6F
100
AcDbEntity
  8
1-1
 62
     5
100
AcDbText
 10
3038.283
 20
2282.533
 30
0.0
 40
25.92
  1
木口
100
AcDbText
  0
TEXT
  5
CD
330
6F
100
AcDbEntity
  8
1-1
 62
     5
100
AcDbText
 10
3199.944
 20
2532.533
 30
0.0
 40
25.92
  1
クリーンイーゴスMDF
100
AcDbText
  0
TEXT
  5
CE
330
6F
100
AcDbEntity
  8
1-1
 62
     5
100
AcDbText
 10
3199.944
 20
2482.533
 30
0.0
 40
25.92
  1
EBコート化粧板
100
AcDbText
  0
TEXT
  5
CF
330
6F
100
AcDbEntity
  8
1-1
 62
     5
100
AcDbText
 10
3199.944
 20
2432.533
 30
0.0
 40
25.92
  1
プレコート化粧ボード（PB)
100
AcDbText
  0
TEXT
  5
D0
330
6F
100
AcDbEntity
  8
1-1
 62
     5
100
AcDbText
 10
3199.944
 20
2582.533
 30
0.0
 40
25.92
  1
ウレタンコート化粧ボード（PB)
100
AcDbText
  0
TEXT
  5
D1
330
6F
100
AcDbEntity
  8
1-1
 62
     5
100
AcDbText
 10
3038.283
 20
2482.533
 30
0.0
 40
25.92
  1
地板
100
AcDbText
  0
TEXT
  5
D2
330
6F
100
AcDbEntity
  8
1-1
 62
     5
100
AcDbText
 10
3038.283
 20
2432.533
 30
0.0
 40
25.92
  1
表
100
AcDbText
  0
TEXT
  5
D3
330
6F
100
AcDbEntity
  8
1-1
 62
     5
100
AcDbText
 10
3038.283
 20
2582.533
 30
0.0
 40
25.92
  1
側板
100
AcDbText
  0
TEXT
  5
D4
330
6F
100
AcDbEntity
  8
1-1
 62
     5
100
AcDbText
 10
3038.283
 20
2532.533
 30
0.0
 40
25.92
  1
背板
100
AcDbText
  0
TEXT
  5
D5
330
6F
100
AcDbEntity
  8
1-1
 62
     5
100
AcDbText
 10
3199.944
 20
2682.533
 30
0.0
 40
25.92
  1
SUS-430 ステンレス0.5ｔ（エンボス仕上）
100
AcDbText
  0
TEXT
  5
D6
330
6F
100
AcDbEntity
  8
1-1
 62
     5
100
AcDbText
 10
3199.944
 20
2632.533
 30
0.0
 40
25.92
  1
SUS-430 ステンレス0.4ｔ　静音シンク
100
AcDbText
  0
TEXT
  5
D7
330
6F
100
AcDbEntity
  8
1-1
 62
     5
100
AcDbText
 10
3040.306
 20
2233.387
 30
0.0
 40
25.92
  1
取っ手
100
AcDbText
  0
TEXT
  5
D8
330
6F
100
AcDbEntity
  8
1-1
 62
     5
100
AcDbText
 10
2866.511
 20
1849.131
 30
0.0
 40
25.92
  1
※　左シンクは本図の左右対称です。
100
AcDbText
  0
TEXT
  5
D9
330
6F
100
AcDbEntity
  8
1-1
 62
     5
100
AcDbText
 10
3205.532
 20
2234.567
 30
0.0
 40
25.92
  1
アルミ製　ラインハンドル
100
AcDbText
  0
TEXT
  5
DA
330
6F
100
AcDbEntity
  8
1-1
 62
     5
100
AcDbText
 10
3200.059
 20
2130.773
 30
0.0
 40
25.92
  1
180Φ大型排水トラップ付（\U+FF76
100
AcDbText
  0
LINE
  5
DB
330
6F
100
AcDbEntity
  8
2-0
  6
Continuous
 62
     7
100
AcDbLine
 10
2929.688711778887
 20
513.2725689150699
 30
0.0
 11
3319.404606778887
 21
513.2725689150699
 31
0.0
  0
TEXT
  5
DC
330
6F
100
AcDbEntity
  8
1-1
 62
     5
100
AcDbText
 10
2926.691
 20
520.964
 30
0.0
 40
25.92
  1
排水穴　φ110（工場加工）
100
AcDbText
  0
TEXT
  5
DD
330
6F
100
AcDbEntity
  8
1-1
 62
     5
100
AcDbText
 10
2926.517
 20
477.577
 30
0.0
 40
25.92
  1
（回転板付）
100
AcDbText
  0
TEXT
  5
DE
330
6F
100
AcDbEntity
  8
1-1
 62
     5
100
AcDbText
 10
3195.487
 20
2385.926
 30
0.0
 40
25.92
  1
(SW)は鏡面仕上げ
100
AcDbText
  0
TEXT
  5
DF
330
6F
100
AcDbEntity
  8
1-1
 62
     5
100
AcDbText
 10
3200.396
 20
2030.206
 30
0.0
 40
25.92
  1
ポリプロピレン製　4本収納
100
AcDbText
  0
TEXT
  5
E0
330
6F
100
AcDbEntity
  8
1-1
 62
     5
100
AcDbText
 10
3968.394
 20
48.69699999999999
 30
0.0
 40
31.104
  1
 2022.1
100
AcDbText
  0
LINE
  5
E1
330
6F
100
AcDbEntity
  8
B-0
  6
Continuous
 62
     4
100
AcDbLine
 10
1556.572238828274
 20
2543.013884207137
 30
0.0
 11
1686.572238828274
 21
2543.013884207137
 31
0.0
  0
LINE
  5
E2
330
6F
100
AcDbEntity
  8
B-0
  6
Continuous
 62
     4
100
AcDbLine
 10
1556.572238828274
 20
2510.013884207137
 30
0.0
 11
1686.572238828274
 21
2510.013884207137
 31
0.0
  0
LINE
  5
E3
330
6F
100
AcDbEntity
  8
B-0
  6
Continuous
 62
     4
100
AcDbLine
 10
1686.572238828274
 20
2553.013884207137
 30
0.0
 11
1686.572238828274
 21
2563.013884207137
 31
0.0
  0
LINE
  5
E4
330
6F
100
AcDbEntity
  8
B-0
  6
Continuous
 62
     4
100
AcDbLine
 10
1686.572238828274
 20
2500.013884207137
 30
0.0
 11
1686.572238828274
 21
2490.013884207137
 31
0.0
  0
LINE
  5
E5
330
6F
100
AcDbEntity
  8
B-0
  6
Continuous
 62
     4
100
AcDbLine
 10
1686.572238828274
 20
2526.513884207137
 30
0.0
 11
1746.572238828274
 21
2508.145482207138
 31
0.0
  0
LINE
  5
E6
330
6F
100
AcDbEntity
  8
B-0
  6
Continuous
 62
     4
100
AcDbLine
 10
1746.572238828274
 20
2508.145482207138
 30
0.0
 11
1746.572238828274
 21
2447.282538207137
 31
0.0
  0
TEXT
  5
E7
330
6F
100
AcDbEntity
  8
B-0
 62
     4
100
AcDbText
 10
1745.952
 20
2455.314
 30
0.0
 40
36.288
  1
33
 50
90.0
100
AcDbText
  0
LINE
  5
E8
330
6F
100
AcDbEntity
  8
B-0
  6
Continuous
 62
     4
100
AcDbLine
 10
1686.572238828274
 20
2543.013884207137
 30
0.0
 11
1686.572238828274
 21
2510.013884207137
 31
0.0
  0
LINE
  5
E9
330
6F
100
AcDbEntity
  8
B-0
  6
Continuous
 62
     4
100
AcDbLine
 10
1686.572238828274
 20
2543.013884207137
 30
0.0
 11
1686.572238828274
 21
2510.013884207137
 31
0.0
  0
CIRCLE
  5
EA
330
6F
100
AcDbEntity
  8
B-0
  6
Continuous
 62
     4
100
AcDbCircle
 10
1686.572239014276
 20
2543.01388391861
 30
0.0
 40
0.25
  0
CIRCLE
  5
EB
330
6F
100
AcDbEntity
  8
B-0
  6
Continuous
 62
     4
100
AcDbCircle
 10
1686.572239014276
 20
2543.01388391861
 30
0.0
 40
0.1875
  0
CIRCLE
  5
EC
330
6F
100
AcDbEntity
  8
B-0
  6
Continuous
 62
     4
100
AcDbCircle
 10
1686.572239014276
 20
2543.01388391861
 30
0.0
 40
0.125
  0
CIRCLE
  5
ED
330
6F
100
AcDbEntity
  8
B-0
  6
Continuous
 62
     4
100
AcDbCircle
 10
1686.572239014276
 20
2543.01388391861
 30
0.0
 40
0.0625
  0
ARC
  5
EE
330
6F
100
AcDbEntity
  8
B-0
 62
     4
100
AcDbCircle
 10
1686.577239014276
 20
2543.01388391861
 30
0.0
 40
2.5
100
AcDbArc
 50
270.1145914065301
 51
90.11459140594496
  0
LINE
  5
EF
330
6F
100
AcDbEntity
  8
B-0
 62
     4
100
AcDbLine
 10
1686.5722390142
 20
2548.01388391861
 30
0.0
 11
1686.572239014123
 21
2553.01388391861
 31
0.0
  0
CIRCLE
  5
F0
330
6F
100
AcDbEntity
  8
B-0
  6
Continuous
 62
     4
100
AcDbCircle
 10
1686.572239014276
 20
2510.013883918611
 30
0.0
 40
0.25
  0
CIRCLE
  5
F1
330
6F
100
AcDbEntity
  8
B-0
  6
Continuous
 62
     4
100
AcDbCircle
 10
1686.572239014276
 20
2510.013883918611
 30
0.0
 40
0.1875
  0
CIRCLE
  5
F2
330
6F
100
AcDbEntity
  8
B-0
  6
Continuous
 62
     4
100
AcDbCircle
 10
1686.572239014276
 20
2510.013883918611
 30
0.0
 40
0.125
  0
CIRCLE
  5
F3
330
6F
100
AcDbEntity
  8
B-0
  6
Continuous
 62
     4
100
AcDbCircle
 10
1686.572239014276
 20
2510.013883918611
 30
0.0
 40
0.0625
  0
ARC
  5
F4
330
6F
100
AcDbEntity
  8
B-0
 62
     4
100
AcDbCircle
 10
1686.567239014276
 20
2510.013883918611
 30
0.0
 40
2.5
100
AcDbArc
 50
90.11459140653
 51
270.114591405945
  0
LINE
  5
F5
330
6F
100
AcDbEntity
  8
B-0
 62
     4
100
AcDbLine
 10
1686.572239014302
 20
2505.013883918611
 30
0.0
 11
1686.572239014327
 21
2500.013883918611
 31
0.0
  0
LINE
  5
F6
330
6F
100
AcDbEntity
  8
B-0
  6
Continuous
 62
     4
100
AcDbLine
 10
1556.572238828274
 20
2543.013884207137
 30
0.0
 11
1686.572238828274
 21
2543.013884207137
 31
0.0
  0
LINE
  5
F7
330
6F
100
AcDbEntity
  8
B-0
  6
Continuous
 62
     4
100
AcDbLine
 10
1559.072238828274
 20
2568.013884207137
 30
0.0
 11
1686.572238828274
 21
2568.013884207137
 31
0.0
  0
LINE
  5
F8
330
6F
100
AcDbEntity
  8
B-0
  6
Continuous
 62
     4
100
AcDbLine
 10
1686.572238828274
 20
2533.013884207137
 30
0.0
 11
1686.572238828274
 21
2523.013884207137
 31
0.0
  0
LINE
  5
F9
330
6F
100
AcDbEntity
  8
B-0
  6
Continuous
 62
     4
100
AcDbLine
 10
1686.572238828274
 20
2578.013884207137
 30
0.0
 11
1686.572238828274
 21
2588.013884207137
 31
0.0
  0
LINE
  5
FA
330
6F
100
AcDbEntity
  8
B-0
  6
Continuous
 62
     4
100
AcDbLine
 10
1686.572238828274
 20
2555.513884207137
 30
0.0
 11
1746.572238828274
 21
2566.013884207137
 31
0.0
  0
LINE
  5
FB
330
6F
100
AcDbEntity
  8
B-0
  6
Continuous
 62
     4
100
AcDbLine
 10
1746.572238828274
 20
2566.013884207137
 30
0.0
 11
1746.572238828274
 21
2626.699163207137
 31
0.0
  0
TEXT
  5
FC
330
6F
100
AcDbEntity
  8
B-0
 62
     4
100
AcDbText
 10
1745.952
 20
2573.957
 30
0.0
 40
36.288
  1
25
 50
90.0
100
AcDbText
  0
LINE
  5
FD
330
6F
100
AcDbEntity
  8
B-0
  6
Continuous
 62
     4
100
AcDbLine
 10
1686.572238828274
 20
2543.013884207137
 30
0.0
 11
1686.572238828274
 21
2568.013884207137
 31
0.0
  0
LINE
  5
FE
330
6F
100
AcDbEntity
  8
B-0
  6
Continuous
 62
     4
100
AcDbLine
 10
1686.572238828274
 20
2543.013884207137
 30
0.0
 11
1686.572238828274
 21
2568.013884207137
 31
0.0
  0
CIRCLE
  5
FF
330
6F
100
AcDbEntity
  8
B-0
  6
Continuous
 62
     4
100
AcDbCircle
 10
1686.572239014275
 20
2543.01388391861
 30
0.0
 40
0.25
  0
CIRCLE
  5
100
330
6F
100
AcDbEntity
  8
B-0
  6
Continuous
 62
     4
100
AcDbCircle
 10
1686.572239014275
 20
2543.01388391861
 30
0.0
 40
0.1875
  0
CIRCLE
  5
101
330
6F
100
AcDbEntity
  8
B-0
  6
Continuous
 62
     4
100
AcDbCircle
 10
1686.572239014275
 20
2543.01388391861
 30
0.0
 40
0.125
  0
CIRCLE
  5
102
330
6F
100
AcDbEntity
  8
B-0
  6
Continuous
 62
     4
100
AcDbCircle
 10
1686.572239014275
 20
2543.01388391861
 30
0.0
 40
0.0625
  0
ARC
  5
103
330
6F
100
AcDbEntity
  8
B-0
 62
     4
100
AcDbCircle
 10
1686.567239014275
 20
2543.01388391861
 30
0.0
 40
2.5
100
AcDbArc
 50
90.11459140653
 51
270.114591405945
  0
LINE
  5
104
330
6F
100
AcDbEntity
  8
B-0
 62
     4
100
AcDbLine
 10
1686.572239014301
 20
2538.01388391861
 30
0.0
 11
1686.572239014326
 21
2533.01388391861
 31
0.0
  0
CIRCLE
  5
105
330
6F
100
AcDbEntity
  8
B-0
  6
Continuous
 62
     4
100
AcDbCircle
 10
1686.572239014276
 20
2568.01388391861
 30
0.0
 40
0.25
  0
CIRCLE
  5
106
330
6F
100
AcDbEntity
  8
B-0
  6
Continuous
 62
     4
100
AcDbCircle
 10
1686.572239014276
 20
2568.01388391861
 30
0.0
 40
0.1875
  0
CIRCLE
  5
107
330
6F
100
AcDbEntity
  8
B-0
  6
Continuous
 62
     4
100
AcDbCircle
 10
1686.572239014276
 20
2568.01388391861
 30
0.0
 40
0.125
  0
CIRCLE
  5
108
330
6F
100
AcDbEntity
  8
B-0
  6
Continuous
 62
     4
100
AcDbCircle
 10
1686.572239014276
 20
2568.01388391861
 30
0.0
 40
0.0625
  0
ARC
  5
109
330
6F
100
AcDbEntity
  8
B-0
 62
     4
100
AcDbCircle
 10
1686.577239014276
 20
2568.01388391861
 30
0.0
 40
2.5
100
AcDbArc
 50
270.1145914065301
 51
90.11459140594496
  0
LINE
  5
10A
330
6F
100
AcDbEntity
  8
B-0
 62
     4
100
AcDbLine
 10
1686.5722390142
 20
2573.01388391861
 30
0.0
 11
1686.572239014123
 21
2578.01388391861
 31
0.0
  0
LINE
  5
10B
330
6F
100
AcDbEntity
  8
B-0
  6
Continuous
 62
     4
100
AcDbLine
 10
1556.572238828274
 20
2140.013884207137
 30
0.0
 11
1686.572238828274
 21
2140.013884207137
 31
0.0
  0
LINE
  5
10C
330
6F
100
AcDbEntity
  8
B-0
  6
Continuous
 62
     4
100
AcDbLine
 10
1559.072238828274
 20
2108.013884207137
 30
0.0
 11
1686.572238828274
 21
2108.013884207137
 31
0.0
  0
LINE
  5
10D
330
6F
100
AcDbEntity
  8
B-0
  6
Continuous
 62
     4
100
AcDbLine
 10
1686.572238828274
 20
2150.013884207137
 30
0.0
 11
1686.572238828274
 21
2160.013884207137
 31
0.0
  0
LINE
  5
10E
330
6F
100
AcDbEntity
  8
B-0
  6
Continuous
 62
     4
100
AcDbLine
 10
1686.572238828274
 20
2098.013884207137
 30
0.0
 11
1686.572238828274
 21
2088.013884207137
 31
0.0
  0
LINE
  5
10F
330
6F
100
AcDbEntity
  8
B-0
  6
Continuous
 62
     4
100
AcDbLine
 10
1686.572238828274
 20
2124.013884207137
 30
0.0
 11
1746.572238828274
 21
2142.013884207137
 31
0.0
  0
LINE
  5
110
330
6F
100
AcDbEntity
  8
B-0
  6
Continuous
 62
     4
100
AcDbLine
 10
1746.572238828274
 20
2142.013884207137
 30
0.0
 11
1746.572238828274
 21
2203.054493207137
 31
0.0
  0
TEXT
  5
111
330
6F
100
AcDbEntity
  8
B-0
 62
     4
100
AcDbText
 10
1745.952
 20
2150.134
 30
0.0
 40
36.288
  1
32
 50
90.0
100
AcDbText
  0
LINE
  5
112
330
6F
100
AcDbEntity
  8
B-0
  6
Continuous
 62
     4
100
AcDbLine
 10
1686.572238828274
 20
2140.013884207137
 30
0.0
 11
1686.572238828274
 21
2108.013884207137
 31
0.0
  0
LINE
  5
113
330
6F
100
AcDbEntity
  8
B-0
  6
Continuous
 62
     4
100
AcDbLine
 10
1686.572238828274
 20
2140.013884207137
 30
0.0
 11
1686.572238828274
 21
2108.013884207137
 31
0.0
  0
CIRCLE
  5
114
330
6F
100
AcDbEntity
  8
B-0
  6
Continuous
 62
     4
100
AcDbCircle
 10
1686.572239014276
 20
2140.013883918611
 30
0.0
 40
0.25
  0
CIRCLE
  5
115
330
6F
100
AcDbEntity
  8
B-0
  6
Continuous
 62
     4
100
AcDbCircle
 10
1686.572239014276
 20
2140.013883918611
 30
0.0
 40
0.1875
  0
CIRCLE
  5
116
330
6F
100
AcDbEntity
  8
B-0
  6
Continuous
 62
     4
100
AcDbCircle
 10
1686.572239014276
 20
2140.013883918611
 30
0.0
 40
0.125
  0
CIRCLE
  5
117
330
6F
100
AcDbEntity
  8
B-0
  6
Continuous
 62
     4
100
AcDbCircle
 10
1686.572239014276
 20
2140.013883918611
 30
0.0
 40
0.0625
  0
ARC
  5
118
330
6F
100
AcDbEntity
  8
B-0
 62
     4
100
AcDbCircle
 10
1686.577239014276
 20
2140.013883918611
 30
0.0
 40
2.5
100
AcDbArc
 50
270.1145914065301
 51
90.11459140594496
  0
LINE
  5
119
330
6F
100
AcDbEntity
  8
B-0
 62
     4
100
AcDbLine
 10
1686.5722390142
 20
2145.013883918611
 30
0.0
 11
1686.572239014123
 21
2150.013883918611
 31
0.0
  0
CIRCLE
  5
11A
330
6F
100
AcDbEntity
  8
B-0
  6
Continuous
 62
     4
100
AcDbCircle
 10
1686.572239014276
 20
2108.01388391861
 30
0.0
 40
0.25
  0
CIRCLE
  5
11B
330
6F
100
AcDbEntity
  8
B-0
  6
Continuous
 62
     4
100
AcDbCircle
 10
1686.572239014276
 20
2108.01388391861
 30
0.0
 40
0.1875
  0
CIRCLE
  5
11C
330
6F
100
AcDbEntity
  8
B-0
  6
Continuous
 62
     4
100
AcDbCircle
 10
1686.572239014276
 20
2108.01388391861
 30
0.0
 40
0.125
  0
CIRCLE
  5
11D
330
6F
100
AcDbEntity
  8
B-0
  6
Continuous
 62
     4
100
AcDbCircle
 10
1686.572239014276
 20
2108.01388391861
 30
0.0
 40
0.0625
  0
ARC
  5
11E
330
6F
100
AcDbEntity
  8
B-0
 62
     4
100
AcDbCircle
 10
1686.567239014276
 20
2108.01388391861
 30
0.0
 40
2.5
100
AcDbArc
 50
90.11459140653
 51
270.114591405945
  0
LINE
  5
11F
330
6F
100
AcDbEntity
  8
B-0
 62
     4
100
AcDbLine
 10
1686.572239014302
 20
2103.01388391861
 30
0.0
 11
1686.572239014327
 21
2098.01388391861
 31
0.0
  0
LINE
  5
120
330
6F
100
AcDbEntity
  8
B-0
  6
Continuous
 62
     4
100
AcDbLine
 10
1655.072238828274
 20
1409.760294207137
 30
0.0
 11
1785.072238828274
 21
1409.760294207137
 31
0.0
  0
LINE
  5
121
330
6F
100
AcDbEntity
  8
B-0
  6
Continuous
 62
     4
100
AcDbLine
 10
1655.072238828274
 20
609.760294207137
 30
0.0
 11
1785.072238828274
 21
609.760294207137
 31
0.0
  0
TEXT
  5
122
330
6F
100
AcDbEntity
  8
B-0
 62
     4
100
AcDbText
 10
1784.452
 20
976.1599999999999
 30
0.0
 40
36.288
  1
800
 50
90.0
100
AcDbText
  0
LINE
  5
123
330
6F
100
AcDbEntity
  8
B-0
  6
Continuous
 62
     4
100
AcDbLine
 10
1785.072239014274
 20
609.7602946353069
 30
0.0
 11
1785.072239014274
 21
1409.760294635306
 31
0.0
  0
CIRCLE
  5
124
330
6F
100
AcDbEntity
  8
B-0
  6
Continuous
 62
     4
100
AcDbCircle
 10
1785.072239014274
 20
609.7602946353069
 30
0.0
 40
0.25
  0
CIRCLE
  5
125
330
6F
100
AcDbEntity
  8
B-0
  6
Continuous
 62
     4
100
AcDbCircle
 10
1785.072239014274
 20
609.7602946353069
 30
0.0
 40
0.1875
  0
CIRCLE
  5
126
330
6F
100
AcDbEntity
  8
B-0
  6
Continuous
 62
     4
100
AcDbCircle
 10
1785.072239014274
 20
609.7602946353069
 30
0.0
 40
0.125
  0
CIRCLE
  5
127
330
6F
100
AcDbEntity
  8
B-0
  6
Continuous
 62
     4
100
AcDbCircle
 10
1785.072239014274
 20
609.7602946353069
 30
0.0
 40
0.0625
  0
CIRCLE
  5
128
330
6F
100
AcDbEntity
  8
B-0
  6
Continuous
 62
     4
100
AcDbCircle
 10
1785.072239014274
 20
1409.760294635306
 30
0.0
 40
0.25
  0
CIRCLE
  5
129
330
6F
100
AcDbEntity
  8
B-0
  6
Continuous
 62
     4
100
AcDbCircle
 10
1785.072239014274
 20
1409.760294635306
 30
0.0
 40
0.1875
  0
CIRCLE
  5
12A
330
6F
100
AcDbEntity
  8
B-0
  6
Continuous
 62
     4
100
AcDbCircle
 10
1785.072239014274
 20
1409.760294635306
 30
0.0
 40
0.125
  0
CIRCLE
  5
12B
330
6F
100
AcDbEntity
  8
B-0
  6
Continuous
 62
     4
100
AcDbCircle
 10
1785.072239014274
 20
1409.760294635306
 30
0.0
 40
0.0625
  0
LINE
  5
12C
330
6F
100
AcDbEntity
  8
B-0
  6
Continuous
 62
     4
100
AcDbLine
 10
1655.072238828274
 20
1409.760294207137
 30
0.0
 11
1785.072238828274
 21
1409.760294207137
 31
0.0
  0
LINE
  5
12D
330
6F
100
AcDbEntity
  8
B-0
  6
Continuous
 62
     4
100
AcDbLine
 10
1555.072238828274
 20
1499.760294207137
 30
0.0
 11
1785.072238828274
 21
1499.760294207137
 31
0.0
  0
TEXT
  5
12E
330
6F
100
AcDbEntity
  8
B-0
 62
     4
100
AcDbText
 10
1784.452
 20
1432.36
 30
0.0
 40
36.288
  1
90
 50
90.0
100
AcDbText
  0
LINE
  5
12F
330
6F
100
AcDbEntity
  8
B-0
  6
Continuous
 62
     4
100
AcDbLine
 10
1785.072239014274
 20
1499.760294635306
 30
0.0
 11
1785.072239014274
 21
1409.760294635306
 31
0.0
  0
CIRCLE
  5
130
330
6F
100
AcDbEntity
  8
B-0
  6
Continuous
 62
     4
100
AcDbCircle
 10
1785.072239014274
 20
1499.760294635306
 30
0.0
 40
0.25
  0
CIRCLE
  5
131
330
6F
100
AcDbEntity
  8
B-0
  6
Continuous
 62
     4
100
AcDbCircle
 10
1785.072239014274
 20
1499.760294635306
 30
0.0
 40
0.1875
  0
CIRCLE
  5
132
330
6F
100
AcDbEntity
  8
B-0
  6
Continuous
 62
     4
100
AcDbCircle
 10
1785.072239014274
 20
1499.760294635306
 30
0.0
 40
0.125
  0
CIRCLE
  5
133
330
6F
100
AcDbEntity
  8
B-0
  6
Continuous
 62
     4
100
AcDbCircle
 10
1785.072239014274
 20
1499.760294635306
 30
0.0
 40
0.0625
  0
CIRCLE
  5
134
330
6F
100
AcDbEntity
  8
B-0
  6
Continuous
 62
     4
100
AcDbCircle
 10
1785.072239014274
 20
1409.760294635306
 30
0.0
 40
0.25
  0
CIRCLE
  5
135
330
6F
100
AcDbEntity
  8
B-0
  6
Continuous
 62
     4
100
AcDbCircle
 10
1785.072239014274
 20
1409.760294635306
 30
0.0
 40
0.1875
  0
CIRCLE
  5
136
330
6F
100
AcDbEntity
  8
B-0
  6
Continuous
 62
     4
100
AcDbCircle
 10
1785.072239014274
 20
1409.760294635306
 30
0.0
 40
0.125
  0
CIRCLE
  5
137
330
6F
100
AcDbEntity
  8
B-0
  6
Continuous
 62
     4
100
AcDbCircle
 10
1785.072239014274
 20
1409.760294635306
 30
0.0
 40
0.0625
  0
LINE
  5
138
330
6F
100
AcDbEntity
  8
2-0
  6
Continuous
 62
     7
100
AcDbLine
 10
639.072238778887
 20
609.76029491507
 30
0.0
 11
639.072238778887
 21
1384.76029491507
 31
0.0
  0
LINE
  5
139
330
6F
100
AcDbEntity
  8
B-0
  6
Continuous
 62
     4
100
AcDbLine
 10
1554.072238828274
 20
1374.760294207137
 30
0.0
 11
1685.072238828274
 21
1374.760294207137
 31
0.0
  0
LINE
  5
13A
330
6F
100
AcDbEntity
  8
B-0
  6
Continuous
 62
     4
100
AcDbLine
 10
1554.072238828274
 20
699.7602942071369
 30
0.0
 11
1685.072238828274
 21
699.7602942071369
 31
0.0
  0
TEXT
  5
13B
330
6F
100
AcDbEntity
  8
B-0
 62
     4
100
AcDbText
 10
1684.452
 20
1003.66
 30
0.0
 40
36.288
  1
675
 50
90.0
100
AcDbText
  0
LINE
  5
13C
330
6F
100
AcDbEntity
  8
B-0
  6
Continuous
 62
     4
100
AcDbLine
 10
1685.072239014274
 20
699.760294635307
 30
0.0
 11
1685.072239014274
 21
1374.760294635306
 31
0.0
  0
CIRCLE
  5
13D
330
6F
100
AcDbEntity
  8
B-0
  6
Continuous
 62
     4
100
AcDbCircle
 10
1685.072239014274
 20
699.760294635307
 30
0.0
 40
0.25
  0
CIRCLE
  5
13E
330
6F
100
AcDbEntity
  8
B-0
  6
Continuous
 62
     4
100
AcDbCircle
 10
1685.072239014274
 20
699.760294635307
 30
0.0
 40
0.1875
  0
CIRCLE
  5
13F
330
6F
100
AcDbEntity
  8
B-0
  6
Continuous
 62
     4
100
AcDbCircle
 10
1685.072239014274
 20
699.760294635307
 30
0.0
 40
0.125
  0
CIRCLE
  5
140
330
6F
100
AcDbEntity
  8
B-0
  6
Continuous
 62
     4
100
AcDbCircle
 10
1685.072239014274
 20
699.760294635307
 30
0.0
 40
0.0625
  0
CIRCLE
  5
141
330
6F
100
AcDbEntity
  8
B-0
  6
Continuous
 62
     4
100
AcDbCircle
 10
1685.072239014274
 20
1374.760294635306
 30
0.0
 40
0.25
  0
CIRCLE
  5
142
330
6F
100
AcDbEntity
  8
B-0
  6
Continuous
 62
     4
100
AcDbCircle
 10
1685.072239014274
 20
1374.760294635306
 30
0.0
 40
0.1875
  0
CIRCLE
  5
143
330
6F
100
AcDbEntity
  8
B-0
  6
Continuous
 62
     4
100
AcDbCircle
 10
1685.072239014274
 20
1374.760294635306
 30
0.0
 40
0.125
  0
CIRCLE
  5
144
330
6F
100
AcDbEntity
  8
B-0
  6
Continuous
 62
     4
100
AcDbCircle
 10
1685.072239014274
 20
1374.760294635306
 30
0.0
 40
0.0625
  0
LINE
  5
145
330
6F
100
AcDbEntity
  8
2-0
  6
Continuous
 62
     7
100
AcDbLine
 10
1534.072238778887
 20
1384.76029491507
 30
0.0
 11
1534.072238778887
 21
609.76029491507
 31
0.0
  0
LINE
  5
146
330
6F
100
AcDbEntity
  8
2-0
  6
DASHED2
 62
     7
100
AcDbLine
 10
1520.072238778887
 20
714.7602949150701
 30
0.0
 11
653.572238778887
 21
714.7602949150701
 31
0.0
  0
LINE
  5
147
330
6F
100
AcDbEntity
  8
2-0
  6
Continuous
 62
     7
100
AcDbLine
 10
1534.072238778887
 20
609.76029491507
 30
0.0
 11
639.072238778887
 21
609.76029491507
 31
0.0
  0
LINE
  5
148
330
6F
100
AcDbEntity
  8
2-0
  6
Continuous
 62
     7
100
AcDbLine
 10
1534.072238778887
 20
699.76029491507
 30
0.0
 11
639.072238778887
 21
699.76029491507
 31
0.0
  0
LINE
  5
149
330
6F
100
AcDbEntity
  8
B-0
  6
Continuous
 62
     4
100
AcDbLine
 10
1554.072238828274
 20
699.7602942071369
 30
0.0
 11
1685.072238828274
 21
699.7602942071369
 31
0.0
  0
LINE
  5
14A
330
6F
100
AcDbEntity
  8
B-0
  6
Continuous
 62
     4
100
AcDbLine
 10
1554.072238828274
 20
609.760294207137
 30
0.0
 11
1685.072238828274
 21
609.760294207137
 31
0.0
  0
TEXT
  5
14B
330
6F
100
AcDbEntity
  8
B-0
 62
     4
100
AcDbText
 10
1684.452
 20
632.3599999999999
 30
0.0
 40
36.288
  1
90
 50
90.0
100
AcDbText
  0
LINE
  5
14C
330
6F
100
AcDbEntity
  8
B-0
  6
Continuous
 62
     4
100
AcDbLine
 10
1685.072239014274
 20
609.7602946353069
 30
0.0
 11
1685.072239014274
 21
699.760294635307
 31
0.0
  0
CIRCLE
  5
14D
330
6F
100
AcDbEntity
  8
B-0
  6
Continuous
 62
     4
100
AcDbCircle
 10
1685.072239014274
 20
609.7602946353069
 30
0.0
 40
0.25
  0
CIRCLE
  5
14E
330
6F
100
AcDbEntity
  8
B-0
  6
Continuous
 62
     4
100
AcDbCircle
 10
1685.072239014274
 20
609.7602946353069
 30
0.0
 40
0.1875
  0
CIRCLE
  5
14F
330
6F
100
AcDbEntity
  8
B-0
  6
Continuous
 62
     4
100
AcDbCircle
 10
1685.072239014274
 20
609.7602946353069
 30
0.0
 40
0.125
  0
CIRCLE
  5
150
330
6F
100
AcDbEntity
  8
B-0
  6
Continuous
 62
     4
100
AcDbCircle
 10
1685.072239014274
 20
609.7602946353069
 30
0.0
 40
0.0625
  0
CIRCLE
  5
151
330
6F
100
AcDbEntity
  8
B-0
  6
Continuous
 62
     4
100
AcDbCircle
 10
1685.072239014274
 20
699.760294635307
 30
0.0
 40
0.25
  0
CIRCLE
  5
152
330
6F
100
AcDbEntity
  8
B-0
  6
Continuous
 62
     4
100
AcDbCircle
 10
1685.072239014274
 20
699.760294635307
 30
0.0
 40
0.1875
  0
CIRCLE
  5
153
330
6F
100
AcDbEntity
  8
B-0
  6
Continuous
 62
     4
100
AcDbCircle
 10
1685.072239014274
 20
699.760294635307
 30
0.0
 40
0.125
  0
CIRCLE
  5
154
330
6F
100
AcDbEntity
  8
B-0
  6
Continuous
 62
     4
100
AcDbCircle
 10
1685.072239014274
 20
699.760294635307
 30
0.0
 40
0.0625
  0
LINE
  5
155
330
6F
100
AcDbEntity
  8
2-0
  6
DASHED2
 62
     7
100
AcDbLine
 10
1520.072238778887
 20
714.7602949150701
 30
0.0
 11
1520.072238778887
 21
836.59215491507
 31
0.0
  0
LINE
  5
156
330
6F
100
AcDbEntity
  8
2-0
  6
DASHED2
 62
     7
100
AcDbLine
 10
932.0722387788871
 20
714.7602949150701
 30
0.0
 11
932.0722387788871
 21
836.59215491507
 31
0.0
  0
LINE
  5
157
330
6F
100
AcDbEntity
  8
2-0
  6
DASHED2
 62
     7
100
AcDbLine
 10
945.572238778887
 20
714.7602949150701
 30
0.0
 11
945.572238778887
 21
836.59215491507
 31
0.0
  0
LINE
  5
158
330
6F
100
AcDbEntity
  8
2-0
  6
DASHED2
 62
     7
100
AcDbLine
 10
653.572238778887
 20
714.7602949150701
 30
0.0
 11
653.572238778887
 21
836.59215491507
 31
0.0
  0
LINE
  5
159
330
6F
100
AcDbEntity
  8
B-0
  6
Continuous
 62
     4
100
AcDbLine
 10
951.5722388282739
 20
2088.013884207137
 30
0.0
 11
951.5722388282739
 21
1958.013884207137
 31
0.0
  0
LINE
  5
15A
330
6F
100
AcDbEntity
  8
B-0
  6
Continuous
 62
     4
100
AcDbLine
 10
636.572238828274
 20
2088.013884207137
 30
0.0
 11
636.572238828274
 21
1958.013884207137
 31
0.0
  0
TEXT
  5
15B
330
6F
100
AcDbEntity
  8
B-0
 62
     4
100
AcDbText
 10
763.295
 20
1958.634
 30
0.0
 40
36.288
  1
315
100
AcDbText
  0
LINE
  5
15C
330
6F
100
AcDbEntity
  8
B-0
  6
Continuous
 62
     4
100
AcDbLine
 10
636.5722390142759
 20
1958.013883918603
 30
0.0
 11
951.5722390142778
 21
1958.013883918603
 31
0.0
  0
CIRCLE
  5
15D
330
6F
100
AcDbEntity
  8
B-0
  6
Continuous
 62
     4
100
AcDbCircle
 10
636.5722390142759
 20
1958.013883918603
 30
0.0
 40
0.25
  0
CIRCLE
  5
15E
330
6F
100
AcDbEntity
  8
B-0
  6
Continuous
 62
     4
100
AcDbCircle
 10
636.5722390142759
 20
1958.013883918603
 30
0.0
 40
0.1875
  0
CIRCLE
  5
15F
330
6F
100
AcDbEntity
  8
B-0
  6
Continuous
 62
     4
100
AcDbCircle
 10
636.5722390142759
 20
1958.013883918603
 30
0.0
 40
0.125
  0
CIRCLE
  5
160
330
6F
100
AcDbEntity
  8
B-0
  6
Continuous
 62
     4
100
AcDbCircle
 10
636.5722390142759
 20
1958.013883918603
 30
0.0
 40
0.0625
  0
CIRCLE
  5
161
330
6F
100
AcDbEntity
  8
B-0
  6
Continuous
 62
     4
100
AcDbCircle
 10
951.5722390142778
 20
1958.013883918603
 30
0.0
 40
0.25
  0
CIRCLE
  5
162
330
6F
100
AcDbEntity
  8
B-0
  6
Continuous
 62
     4
100
AcDbCircle
 10
951.5722390142778
 20
1958.013883918603
 30
0.0
 40
0.1875
  0
CIRCLE
  5
163
330
6F
100
AcDbEntity
  8
B-0
  6
Continuous
 62
     4
100
AcDbCircle
 10
951.5722390142778
 20
1958.013883918603
 30
0.0
 40
0.125
  0
CIRCLE
  5
164
330
6F
100
AcDbEntity
  8
B-0
  6
Continuous
 62
     4
100
AcDbCircle
 10
951.5722390142778
 20
1958.013883918603
 30
0.0
 40
0.0625
  0
LINE
  5
165
330
6F
100
AcDbEntity
  8
B-0
  6
Continuous
 62
     4
100
AcDbLine
 10
1536.572238828274
 20
2088.013884207137
 30
0.0
 11
1536.572238828274
 21
1958.013884207137
 31
0.0
  0
LINE
  5
166
330
6F
100
AcDbEntity
  8
B-0
  6
Continuous
 62
     4
100
AcDbLine
 10
1486.572238828274
 20
2088.013884207137
 30
0.0
 11
1486.572238828274
 21
1958.013884207137
 31
0.0
  0
LINE
  5
167
330
6F
100
AcDbEntity
  8
B-0
  6
Continuous
 62
     4
100
AcDbLine
 10
1526.572238828274
 20
1958.013884207137
 30
0.0
 11
1496.572238828274
 21
1958.013884207137
 31
0.0
  0
LINE
  5
168
330
6F
100
AcDbEntity
  8
B-0
  6
Continuous
 62
     4
100
AcDbLine
 10
1511.572238828274
 20
1958.013884207137
 30
0.0
 11
1487.217520828274
 21
1898.013884207137
 31
0.0
  0
LINE
  5
169
330
6F
100
AcDbEntity
  8
B-0
  6
Continuous
 62
     4
100
AcDbLine
 10
1487.217520828274
 20
1898.013884207137
 30
0.0
 11
1425.466251828274
 21
1898.013884207137
 31
0.0
  0
TEXT
  5
16A
330
6F
100
AcDbEntity
  8
B-0
 62
     4
100
AcDbText
 10
1436.764
 20
1898.634
 30
0.0
 40
36.288
  1
50
100
AcDbText
  0
CIRCLE
  5
16B
330
6F
100
AcDbEntity
  8
B-0
  6
Continuous
 62
     4
100
AcDbCircle
 10
1536.572239014276
 20
1958.013883918603
 30
0.0
 40
0.25
  0
CIRCLE
  5
16C
330
6F
100
AcDbEntity
  8
B-0
  6
Continuous
 62
     4
100
AcDbCircle
 10
1536.572239014276
 20
1958.013883918603
 30
0.0
 40
0.1875
  0
CIRCLE
  5
16D
330
6F
100
AcDbEntity
  8
B-0
  6
Continuous
 62
     4
100
AcDbCircle
 10
1536.572239014276
 20
1958.013883918603
 30
0.0
 40
0.125
  0
CIRCLE
  5
16E
330
6F
100
AcDbEntity
  8
B-0
  6
Continuous
 62
     4
100
AcDbCircle
 10
1536.572239014276
 20
1958.013883918603
 30
0.0
 40
0.0625
  0
ARC
  5
16F
330
6F
100
AcDbEntity
  8
B-0
 62
     4
100
AcDbCircle
 10
1536.572239014276
 20
1958.018883918603
 30
0.0
 40
2.5
100
AcDbArc
 50
0.1145914065300158
 51
180.114591405945
  0
LINE
  5
170
330
6F
100
AcDbEntity
  8
B-0
 62
     4
100
AcDbLine
 10
1531.572239014276
 20
1958.013883918603
 30
0.0
 11
1526.572239014276
 21
1958.013883918603
 31
0.0
  0
CIRCLE
  5
171
330
6F
100
AcDbEntity
  8
B-0
  6
Continuous
 62
     4
100
AcDbCircle
 10
1486.572239014277
 20
1958.013883918603
 30
0.0
 40
0.25
  0
CIRCLE
  5
172
330
6F
100
AcDbEntity
  8
B-0
  6
Continuous
 62
     4
100
AcDbCircle
 10
1486.572239014277
 20
1958.013883918603
 30
0.0
 40
0.1875
  0
CIRCLE
  5
173
330
6F
100
AcDbEntity
  8
B-0
  6
Continuous
 62
     4
100
AcDbCircle
 10
1486.572239014277
 20
1958.013883918603
 30
0.0
 40
0.125
  0
CIRCLE
  5
174
330
6F
100
AcDbEntity
  8
B-0
  6
Continuous
 62
     4
100
AcDbCircle
 10
1486.572239014277
 20
1958.013883918603
 30
0.0
 40
0.0625
  0
ARC
  5
175
330
6F
100
AcDbEntity
  8
B-0
 62
     4
100
AcDbCircle
 10
1486.572239014277
 20
1958.008883918603
 30
0.0
 40
2.5
100
AcDbArc
 50
180.1145914065301
 51
0.1145914059449637
  0
LINE
  5
176
330
6F
100
AcDbEntity
  8
B-0
 62
     4
100
AcDbLine
 10
1491.572239014277
 20
1958.013883918654
 30
0.0
 11
1496.572239014277
 21
1958.013883918705
 31
0.0
  0
LINE
  5
177
330
6F
100
AcDbEntity
  8
B-0
  6
Continuous
 62
     4
100
AcDbLine
 10
951.5722388282739
 20
2088.013884207137
 30
0.0
 11
951.5722388282739
 21
1958.013884207137
 31
0.0
  0
LINE
  5
178
330
6F
100
AcDbEntity
  8
B-0
  6
Continuous
 62
     4
100
AcDbLine
 10
1486.572238828274
 20
2088.013884207137
 30
0.0
 11
1486.572238828274
 21
1958.013884207137
 31
0.0
  0
TEXT
  5
179
330
6F
100
AcDbEntity
  8
B-0
 62
     4
100
AcDbText
 10
1188.295
 20
1958.634
 30
0.0
 40
36.288
  1
535
100
AcDbText
  0
LINE
  5
17A
330
6F
100
AcDbEntity
  8
B-0
  6
Continuous
 62
     4
100
AcDbLine
 10
1486.572239014277
 20
1958.013883918603
 30
0.0
 11
951.5722390142778
 21
1958.013883918603
 31
0.0
  0
CIRCLE
  5
17B
330
6F
100
AcDbEntity
  8
B-0
  6
Continuous
 62
     4
100
AcDbCircle
 10
1486.572239014277
 20
1958.013883918603
 30
0.0
 40
0.25
  0
CIRCLE
  5
17C
330
6F
100
AcDbEntity
  8
B-0
  6
Continuous
 62
     4
100
AcDbCircle
 10
1486.572239014277
 20
1958.013883918603
 30
0.0
 40
0.1875
  0
CIRCLE
  5
17D
330
6F
100
AcDbEntity
  8
B-0
  6
Continuous
 62
     4
100
AcDbCircle
 10
1486.572239014277
 20
1958.013883918603
 30
0.0
 40
0.125
  0
CIRCLE
  5
17E
330
6F
100
AcDbEntity
  8
B-0
  6
Continuous
 62
     4
100
AcDbCircle
 10
1486.572239014277
 20
1958.013883918603
 30
0.0
 40
0.0625
  0
CIRCLE
  5
17F
330
6F
100
AcDbEntity
  8
B-0
  6
Continuous
 62
     4
100
AcDbCircle
 10
951.5722390142778
 20
1958.013883918603
 30
0.0
 40
0.25
  0
CIRCLE
  5
180
330
6F
100
AcDbEntity
  8
B-0
  6
Continuous
 62
     4
100
AcDbCircle
 10
951.5722390142778
 20
1958.013883918603
 30
0.0
 40
0.1875
  0
CIRCLE
  5
181
330
6F
100
AcDbEntity
  8
B-0
  6
Continuous
 62
     4
100
AcDbCircle
 10
951.5722390142778
 20
1958.013883918603
 30
0.0
 40
0.125
  0
CIRCLE
  5
182
330
6F
100
AcDbEntity
  8
B-0
  6
Continuous
 62
     4
100
AcDbCircle
 10
951.5722390142778
 20
1958.013883918603
 30
0.0
 40
0.0625
  0
LINE
  5
183
330
6F
100
AcDbEntity
  8
B-0
  6
Continuous
 62
     4
100
AcDbLine
 10
1536.572238828274
 20
1546.826882207137
 30
0.0
 11
1536.572238828274
 21
1676.826882207137
 31
0.0
  0
LINE
  5
184
330
6F
100
AcDbEntity
  8
B-0
  6
Continuous
 62
     4
100
AcDbLine
 10
636.572238828274
 20
1546.826882207137
 30
0.0
 11
636.572238828274
 21
1676.826882207137
 31
0.0
  0
TEXT
  5
185
330
6F
100
AcDbEntity
  8
B-0
 62
     4
100
AcDbText
 10
1055.795
 20
1677.447
 30
0.0
 40
36.288
  1
900
100
AcDbText
  0
LINE
  5
186
330
6F
100
AcDbEntity
  8
B-0
  6
Continuous
 62
     4
100
AcDbLine
 10
636.572239014274
 20
1676.82688178174
 30
0.0
 11
1536.572239014274
 21
1676.82688178174
 31
0.0
  0
CIRCLE
  5
187
330
6F
100
AcDbEntity
  8
B-0
  6
Continuous
 62
     4
100
AcDbCircle
 10
636.572239014274
 20
1676.82688178174
 30
0.0
 40
0.25
  0
CIRCLE
  5
188
330
6F
100
AcDbEntity
  8
B-0
  6
Continuous
 62
     4
100
AcDbCircle
 10
636.572239014274
 20
1676.82688178174
 30
0.0
 40
0.1875
  0
CIRCLE
  5
189
330
6F
100
AcDbEntity
  8
B-0
  6
Continuous
 62
     4
100
AcDbCircle
 10
636.572239014274
 20
1676.82688178174
 30
0.0
 40
0.125
  0
CIRCLE
  5
18A
330
6F
100
AcDbEntity
  8
B-0
  6
Continuous
 62
     4
100
AcDbCircle
 10
636.572239014274
 20
1676.82688178174
 30
0.0
 40
0.0625
  0
CIRCLE
  5
18B
330
6F
100
AcDbEntity
  8
B-0
  6
Continuous
 62
     4
100
AcDbCircle
 10
1536.572239014274
 20
1676.82688178174
 30
0.0
 40
0.25
  0
CIRCLE
  5
18C
330
6F
100
AcDbEntity
  8
B-0
  6
Continuous
 62
     4
100
AcDbCircle
 10
1536.572239014274
 20
1676.82688178174
 30
0.0
 40
0.1875
  0
CIRCLE
  5
18D
330
6F
100
AcDbEntity
  8
B-0
  6
Continuous
 62
     4
100
AcDbCircle
 10
1536.572239014274
 20
1676.82688178174
 30
0.0
 40
0.125
  0
CIRCLE
  5
18E
330
6F
100
AcDbEntity
  8
B-0
  6
Continuous
 62
     4
100
AcDbCircle
 10
1536.572239014274
 20
1676.82688178174
 30
0.0
 40
0.0625
  0
LINE
  5
18F
330
6F
100
AcDbEntity
  8
B-0
  6
Continuous
 62
     4
100
AcDbLine
 10
636.572238828274
 20
1988.013884207137
 30
0.0
 11
636.572238828274
 21
1858.013884207137
 31
0.0
  0
LINE
  5
190
330
6F
100
AcDbEntity
  8
B-0
  6
Continuous
 62
     4
100
AcDbLine
 10
1536.572238828274
 20
1988.013884207137
 30
0.0
 11
1536.572238828274
 21
1858.013884207137
 31
0.0
  0
TEXT
  5
191
330
6F
100
AcDbEntity
  8
B-0
 62
     4
100
AcDbText
 10
1055.795
 20
1858.634
 30
0.0
 40
36.288
  1
900
100
AcDbText
  0
LINE
  5
192
330
6F
100
AcDbEntity
  8
B-0
  6
Continuous
 62
     4
100
AcDbLine
 10
1536.572239014274
 20
1858.013883918603
 30
0.0
 11
636.5722390142759
 21
1858.013883918603
 31
0.0
  0
CIRCLE
  5
193
330
6F
100
AcDbEntity
  8
B-0
  6
Continuous
 62
     4
100
AcDbCircle
 10
1536.572239014274
 20
1858.013883918603
 30
0.0
 40
0.25
  0
CIRCLE
  5
194
330
6F
100
AcDbEntity
  8
B-0
  6
Continuous
 62
     4
100
AcDbCircle
 10
1536.572239014274
 20
1858.013883918603
 30
0.0
 40
0.1875
  0
CIRCLE
  5
195
330
6F
100
AcDbEntity
  8
B-0
  6
Continuous
 62
     4
100
AcDbCircle
 10
1536.572239014274
 20
1858.013883918603
 30
0.0
 40
0.125
  0
CIRCLE
  5
196
330
6F
100
AcDbEntity
  8
B-0
  6
Continuous
 62
     4
100
AcDbCircle
 10
1536.572239014274
 20
1858.013883918603
 30
0.0
 40
0.0625
  0
CIRCLE
  5
197
330
6F
100
AcDbEntity
  8
B-0
  6
Continuous
 62
     4
100
AcDbCircle
 10
636.5722390142759
 20
1858.013883918603
 30
0.0
 40
0.25
  0
CIRCLE
  5
198
330
6F
100
AcDbEntity
  8
B-0
  6
Continuous
 62
     4
100
AcDbCircle
 10
636.5722390142759
 20
1858.013883918603
 30
0.0
 40
0.1875
  0
CIRCLE
  5
199
330
6F
100
AcDbEntity
  8
B-0
  6
Continuous
 62
     4
100
AcDbCircle
 10
636.5722390142759
 20
1858.013883918603
 30
0.0
 40
0.125
  0
CIRCLE
  5
19A
330
6F
100
AcDbEntity
  8
B-0
  6
Continuous
 62
     4
100
AcDbCircle
 10
636.5722390142759
 20
1858.013883918603
 30
0.0
 40
0.0625
  0
LINE
  5
19B
330
6F
100
AcDbEntity
  8
2-0
  6
Continuous
 62
     7
100
AcDbLine
 10
1536.572238778887
 20
1384.76029491507
 30
0.0
 11
636.572238778887
 21
1384.76029491507
 31
0.0
  0
LINE
  5
19C
330
6F
100
AcDbEntity
  8
2-0
  6
Continuous
 62
     7
100
AcDbLine
 10
1536.572238778887
 20
1409.76029491507
 30
0.0
 11
636.572238778887
 21
1409.76029491507
 31
0.0
  0
LINE
  5
19D
330
6F
100
AcDbEntity
  8
2-0
  6
Continuous
 62
     7
100
AcDbLine
 10
1536.572238778887
 20
1499.76029491507
 30
0.0
 11
637.572238778887
 21
1499.76029491507
 31
0.0
  0
LINE
  5
19E
330
6F
100
AcDbEntity
  8
2-0
  6
Continuous
 62
     7
100
AcDbLine
 10
1536.572238778887
 20
1384.76029491507
 30
0.0
 11
1536.572238778887
 21
1499.76029491507
 31
0.0
  0
LINE
  5
19F
330
6F
100
AcDbEntity
  8
B-0
  6
Continuous
 62
     4
100
AcDbLine
 10
1536.572238828274
 20
1380.123381207137
 30
0.0
 11
1536.572238828274
 21
1250.123381207137
 31
0.0
  0
LINE
  5
1A0
330
6F
100
AcDbEntity
  8
B-0
  6
Continuous
 62
     4
100
AcDbLine
 10
1534.072238828274
 20
1380.123381207137
 30
0.0
 11
1534.072238828274
 21
1250.123381207137
 31
0.0
  0
LINE
  5
1A1
330
6F
100
AcDbEntity
  8
B-0
  6
Continuous
 62
     4
100
AcDbLine
 10
1546.572238828274
 20
1250.123381207137
 30
0.0
 11
1556.572238828274
 21
1250.123381207137
 31
0.0
  0
LINE
  5
1A2
330
6F
100
AcDbEntity
  8
B-0
  6
Continuous
 62
     4
100
AcDbLine
 10
1524.072238828274
 20
1250.123381207137
 30
0.0
 11
1514.072238828274
 21
1250.123381207137
 31
0.0
  0
LINE
  5
1A3
330
6F
100
AcDbEntity
  8
B-0
  6
Continuous
 62
     4
100
AcDbLine
 10
1535.322238828274
 20
1250.123381207137
 30
0.0
 11
1562.182090828274
 21
1190.123381207137
 31
0.0
  0
LINE
  5
1A4
330
6F
100
AcDbEntity
  8
B-0
  6
Continuous
 62
     4
100
AcDbLine
 10
1562.182090828274
 20
1190.123381207137
 30
0.0
 11
1645.608486828274
 21
1190.123381207137
 31
0.0
  0
TEXT
  5
1A5
330
6F
100
AcDbEntity
  8
B-0
 62
     4
100
AcDbText
 10
1573.118
 20
1190.743
 30
0.0
 40
36.288
  1
2.5
100
AcDbText
  0
LINE
  5
1A6
330
6F
100
AcDbEntity
  8
B-0
  6
Continuous
 62
     4
100
AcDbLine
 10
1536.572238828274
 20
1250.123381207137
 30
0.0
 11
1534.072238828274
 21
1250.123381207137
 31
0.0
  0
LINE
  5
1A7
330
6F
100
AcDbEntity
  8
B-0
  6
Continuous
 62
     4
100
AcDbLine
 10
1536.572238828274
 20
1250.123381207137
 30
0.0
 11
1534.072238828274
 21
1250.123381207137
 31
0.0
  0
CIRCLE
  5
1A8
330
6F
100
AcDbEntity
  8
B-0
  6
Continuous
 62
     4
100
AcDbCircle
 10
1536.572239014274
 20
1250.123380781247
 30
0.0
 40
0.25
  0
CIRCLE
  5
1A9
330
6F
100
AcDbEntity
  8
B-0
  6
Continuous
 62
     4
100
AcDbCircle
 10
1536.572239014274
 20
1250.123380781247
 30
0.0
 40
0.1875
  0
CIRCLE
  5
1AA
330
6F
100
AcDbEntity
  8
B-0
  6
Continuous
 62
     4
100
AcDbCircle
 10
1536.572239014274
 20
1250.123380781247
 30
0.0
 40
0.125
  0
CIRCLE
  5
1AB
330
6F
100
AcDbEntity
  8
B-0
  6
Continuous
 62
     4
100
AcDbCircle
 10
1536.572239014274
 20
1250.123380781247
 30
0.0
 40
0.0625
  0
ARC
  5
1AC
330
6F
100
AcDbEntity
  8
B-0
 62
     4
100
AcDbCircle
 10
1536.572239014274
 20
1250.118380781247
 30
0.0
 40
2.5
100
AcDbArc
 50
180.1145914065301
 51
0.1145914059449637
  0
LINE
  5
1AD
330
6F
100
AcDbEntity
  8
B-0
 62
     4
100
AcDbLine
 10
1541.572239014274
 20
1250.123380781298
 30
0.0
 11
1546.572239014274
 21
1250.123380781349
 31
0.0
  0
CIRCLE
  5
1AE
330
6F
100
AcDbEntity
  8
B-0
  6
Continuous
 62
     4
100
AcDbCircle
 10
1534.072239014274
 20
1250.123380781247
 30
0.0
 40
0.25
  0
CIRCLE
  5
1AF
330
6F
100
AcDbEntity
  8
B-0
  6
Continuous
 62
     4
100
AcDbCircle
 10
1534.072239014274
 20
1250.123380781247
 30
0.0
 40
0.1875
  0
CIRCLE
  5
1B0
330
6F
100
AcDbEntity
  8
B-0
  6
Continuous
 62
     4
100
AcDbCircle
 10
1534.072239014274
 20
1250.123380781247
 30
0.0
 40
0.125
  0
CIRCLE
  5
1B1
330
6F
100
AcDbEntity
  8
B-0
  6
Continuous
 62
     4
100
AcDbCircle
 10
1534.072239014274
 20
1250.123380781247
 30
0.0
 40
0.0625
  0
ARC
  5
1B2
330
6F
100
AcDbEntity
  8
B-0
 62
     4
100
AcDbCircle
 10
1534.072239014274
 20
1250.128380781247
 30
0.0
 40
2.5
100
AcDbArc
 50
0.1145914065300158
 51
180.114591405945
  0
LINE
  5
1B3
330
6F
100
AcDbEntity
  8
B-0
 62
     4
100
AcDbLine
 10
1529.072239014274
 20
1250.123380781247
 30
0.0
 11
1524.072239014274
 21
1250.123380781247
 31
0.0
  0
LINE
  5
1B4
330
6F
100
AcDbEntity
  8
B-0
  6
Continuous
 62
     4
100
AcDbLine
 10
1554.072238828274
 20
1384.760294207137
 30
0.0
 11
1685.072238828274
 21
1384.760294207137
 31
0.0
  0
LINE
  5
1B5
330
6F
100
AcDbEntity
  8
B-0
  6
Continuous
 62
     4
100
AcDbLine
 10
1554.072238828274
 20
1374.760294207137
 30
0.0
 11
1685.072238828274
 21
1374.760294207137
 31
0.0
  0
LINE
  5
1B6
330
6F
100
AcDbEntity
  8
B-0
  6
Continuous
 62
     4
100
AcDbLine
 10
1685.072238828274
 20
1394.760294207137
 30
0.0
 11
1685.072238828274
 21
1404.760294207137
 31
0.0
  0
LINE
  5
1B7
330
6F
100
AcDbEntity
  8
B-0
  6
Continuous
 62
     4
100
AcDbLine
 10
1685.072238828274
 20
1364.760294207137
 30
0.0
 11
1685.072238828274
 21
1354.760294207137
 31
0.0
  0
LINE
  5
1B8
330
6F
100
AcDbEntity
  8
B-0
  6
Continuous
 62
     4
100
AcDbLine
 10
1685.072238828274
 20
1379.760294207137
 30
0.0
 11
1720.879839828274
 21
1352.477923207137
 31
0.0
  0
LINE
  5
1B9
330
6F
100
AcDbEntity
  8
B-0
  6
Continuous
 62
     4
100
AcDbLine
 10
1720.879839828274
 20
1352.477923207137
 30
0.0
 11
1720.879839828274
 21
1293.213963207137
 31
0.0
  0
TEXT
  5
1BA
330
6F
100
AcDbEntity
  8
B-0
 62
     4
100
AcDbText
 10
1720.26
 20
1300.446
 30
0.0
 40
36.288
  1
10
 50
90.0
100
AcDbText
  0
LINE
  5
1BB
330
6F
100
AcDbEntity
  8
B-0
  6
Continuous
 62
     4
100
AcDbLine
 10
1685.072238828274
 20
1384.760294207137
 30
0.0
 11
1685.072238828274
 21
1374.760294207137
 31
0.0
  0
LINE
  5
1BC
330
6F
100
AcDbEntity
  8
B-0
  6
Continuous
 62
     4
100
AcDbLine
 10
1685.072238828274
 20
1384.760294207137
 30
0.0
 11
1685.072238828274
 21
1374.760294207137
 31
0.0
  0
CIRCLE
  5
1BD
330
6F
100
AcDbEntity
  8
B-0
  6
Continuous
 62
     4
100
AcDbCircle
 10
1685.072239014274
 20
1384.760294635306
 30
0.0
 40
0.25
  0
CIRCLE
  5
1BE
330
6F
100
AcDbEntity
  8
B-0
  6
Continuous
 62
     4
100
AcDbCircle
 10
1685.072239014274
 20
1384.760294635306
 30
0.0
 40
0.1875
  0
CIRCLE
  5
1BF
330
6F
100
AcDbEntity
  8
B-0
  6
Continuous
 62
     4
100
AcDbCircle
 10
1685.072239014274
 20
1384.760294635306
 30
0.0
 40
0.125
  0
CIRCLE
  5
1C0
330
6F
100
AcDbEntity
  8
B-0
  6
Continuous
 62
     4
100
AcDbCircle
 10
1685.072239014274
 20
1384.760294635306
 30
0.0
 40
0.0625
  0
ARC
  5
1C1
330
6F
100
AcDbEntity
  8
B-0
 62
     4
100
AcDbCircle
 10
1685.077239014274
 20
1384.760294635306
 30
0.0
 40
2.5
100
AcDbArc
 50
270.1145914065301
 51
90.11459140594496
  0
LINE
  5
1C2
330
6F
100
AcDbEntity
  8
B-0
 62
     4
100
AcDbLine
 10
1685.072239014198
 20
1389.760294635306
 30
0.0
 11
1685.072239014121
 21
1394.760294635306
 31
0.0
  0
CIRCLE
  5
1C3
330
6F
100
AcDbEntity
  8
B-0
  6
Continuous
 62
     4
100
AcDbCircle
 10
1685.072239014274
 20
1374.760294635306
 30
0.0
 40
0.25
  0
CIRCLE
  5
1C4
330
6F
100
AcDbEntity
  8
B-0
  6
Continuous
 62
     4
100
AcDbCircle
 10
1685.072239014274
 20
1374.760294635306
 30
0.0
 40
0.1875
  0
CIRCLE
  5
1C5
330
6F
100
AcDbEntity
  8
B-0
  6
Continuous
 62
     4
100
AcDbCircle
 10
1685.072239014274
 20
1374.760294635306
 30
0.0
 40
0.125
  0
CIRCLE
  5
1C6
330
6F
100
AcDbEntity
  8
B-0
  6
Continuous
 62
     4
100
AcDbCircle
 10
1685.072239014274
 20
1374.760294635306
 30
0.0
 40
0.0625
  0
ARC
  5
1C7
330
6F
100
AcDbEntity
  8
B-0
 62
     4
100
AcDbCircle
 10
1685.067239014274
 20
1374.760294635306
 30
0.0
 40
2.5
100
AcDbArc
 50
90.11459140653
 51
270.114591405945
  0
LINE
  5
1C8
330
6F
100
AcDbEntity
  8
B-0
 62
     4
100
AcDbLine
 10
1685.072239014299
 20
1369.760294635306
 30
0.0
 11
1685.072239014325
 21
1364.760294635306
 31
0.0
  0
LINE
  5
1C9
330
6F
100
AcDbEntity
  8
B-0
  6
Continuous
 62
     4
100
AcDbLine
 10
1554.072238828274
 20
1384.760294207137
 30
0.0
 11
1685.072238828274
 21
1384.760294207137
 31
0.0
  0
LINE
  5
1CA
330
6F
100
AcDbEntity
  8
B-0
  6
Continuous
 62
     4
100
AcDbLine
 10
1555.072238828274
 20
1409.760294207137
 30
0.0
 11
1685.072238828274
 21
1409.760294207137
 31
0.0
  0
LINE
  5
1CB
330
6F
100
AcDbEntity
  8
B-0
  6
Continuous
 62
     4
100
AcDbLine
 10
1685.072238828274
 20
1374.760294207137
 30
0.0
 11
1685.072238828274
 21
1364.760294207137
 31
0.0
  0
LINE
  5
1CC
330
6F
100
AcDbEntity
  8
B-0
  6
Continuous
 62
     4
100
AcDbLine
 10
1685.072238828274
 20
1419.760294207137
 30
0.0
 11
1685.072238828274
 21
1429.760294207137
 31
0.0
  0
LINE
  5
1CD
330
6F
100
AcDbEntity
  8
B-0
  6
Continuous
 62
     4
100
AcDbLine
 10
1685.072238828274
 20
1397.260294207137
 30
0.0
 11
1618.158390828274
 21
1424.113563207137
 31
0.0
  0
LINE
  5
1CE
330
6F
100
AcDbEntity
  8
B-0
  6
Continuous
 62
     4
100
AcDbLine
 10
1618.158390828274
 20
1424.113563207137
 30
0.0
 11
1618.158390828274
 21
1484.798842207137
 31
0.0
  0
TEXT
  5
1CF
330
6F
100
AcDbEntity
  8
B-0
 62
     4
100
AcDbText
 10
1617.537999999999
 20
1432.056
 30
0.0
 40
36.288
  1
25
 50
90.0
100
AcDbText
  0
LINE
  5
1D0
330
6F
100
AcDbEntity
  8
B-0
  6
Continuous
 62
     4
100
AcDbLine
 10
1685.072238828274
 20
1384.760294207137
 30
0.0
 11
1685.072238828274
 21
1409.760294207137
 31
0.0
  0
LINE
  5
1D1
330
6F
100
AcDbEntity
  8
B-0
  6
Continuous
 62
     4
100
AcDbLine
 10
1685.072238828274
 20
1384.760294207137
 30
0.0
 11
1685.072238828274
 21
1409.760294207137
 31
0.0
  0
CIRCLE
  5
1D2
330
6F
100
AcDbEntity
  8
B-0
  6
Continuous
 62
     4
100
AcDbCircle
 10
1685.072239014274
 20
1384.760294635306
 30
0.0
 40
0.25
  0
CIRCLE
  5
1D3
330
6F
100
AcDbEntity
  8
B-0
  6
Continuous
 62
     4
100
AcDbCircle
 10
1685.072239014274
 20
1384.760294635306
 30
0.0
 40
0.1875
  0
CIRCLE
  5
1D4
330
6F
100
AcDbEntity
  8
B-0
  6
Continuous
 62
     4
100
AcDbCircle
 10
1685.072239014274
 20
1384.760294635306
 30
0.0
 40
0.125
  0
CIRCLE
  5
1D5
330
6F
100
AcDbEntity
  8
B-0
  6
Continuous
 62
     4
100
AcDbCircle
 10
1685.072239014274
 20
1384.760294635306
 30
0.0
 40
0.0625
  0
ARC
  5
1D6
330
6F
100
AcDbEntity
  8
B-0
 62
     4
100
AcDbCircle
 10
1685.067239014274
 20
1384.760294635306
 30
0.0
 40
2.5
100
AcDbArc
 50
90.11459140653
 51
270.114591405945
  0
LINE
  5
1D7
330
6F
100
AcDbEntity
  8
B-0
 62
     4
100
AcDbLine
 10
1685.072239014299
 20
1379.760294635306
 30
0.0
 11
1685.072239014325
 21
1374.760294635306
 31
0.0
  0
CIRCLE
  5
1D8
330
6F
100
AcDbEntity
  8
B-0
  6
Continuous
 62
     4
100
AcDbCircle
 10
1685.072239014274
 20
1409.760294635306
 30
0.0
 40
0.25
  0
CIRCLE
  5
1D9
330
6F
100
AcDbEntity
  8
B-0
  6
Continuous
 62
     4
100
AcDbCircle
 10
1685.072239014274
 20
1409.760294635306
 30
0.0
 40
0.1875
  0
CIRCLE
  5
1DA
330
6F
100
AcDbEntity
  8
B-0
  6
Continuous
 62
     4
100
AcDbCircle
 10
1685.072239014274
 20
1409.760294635306
 30
0.0
 40
0.125
  0
CIRCLE
  5
1DB
330
6F
100
AcDbEntity
  8
B-0
  6
Continuous
 62
     4
100
AcDbCircle
 10
1685.072239014274
 20
1409.760294635306
 30
0.0
 40
0.0625
  0
ARC
  5
1DC
330
6F
100
AcDbEntity
  8
B-0
 62
     4
100
AcDbCircle
 10
1685.077239014274
 20
1409.760294635306
 30
0.0
 40
2.5
100
AcDbArc
 50
270.1145914065301
 51
90.11459140594496
  0
LINE
  5
1DD
330
6F
100
AcDbEntity
  8
B-0
 62
     4
100
AcDbLine
 10
1685.072239014198
 20
1414.760294635306
 30
0.0
 11
1685.072239014121
 21
1419.760294635306
 31
0.0
  0
TEXT
  5
1DE
330
6F
100
AcDbEntity
  8
1-1
 62
     5
100
AcDbText
 10
1085.208
 20
1019.354
 30
0.0
 40
25.92
  1
包丁差
100
AcDbText
  0
LINE
  5
1DF
330
6F
100
AcDbEntity
  8
2-0
  6
Continuous
 62
     7
100
AcDbLine
 10
636.572238778887
 20
1499.76029491507
 30
0.0
 11
636.572238778887
 21
1384.76029491507
 31
0.0
  0
LINE
  5
1E0
330
6F
100
AcDbEntity
  8
B-0
  6
Continuous
 62
     4
100
AcDbLine
 10
636.572238828274
 20
1380.123381207137
 30
0.0
 11
636.572238828274
 21
1250.123381207137
 31
0.0
  0
LINE
  5
1E1
330
6F
100
AcDbEntity
  8
B-0
  6
Continuous
 62
     4
100
AcDbLine
 10
639.0722388282739
 20
1380.123381207137
 30
0.0
 11
639.0722388282739
 21
1250.123381207137
 31
0.0
  0
LINE
  5
1E2
330
6F
100
AcDbEntity
  8
B-0
  6
Continuous
 62
     4
100
AcDbLine
 10
626.5722388282739
 20
1250.123381207137
 30
0.0
 11
616.5722388282739
 21
1250.123381207137
 31
0.0
  0
LINE
  5
1E3
330
6F
100
AcDbEntity
  8
B-0
  6
Continuous
 62
     4
100
AcDbLine
 10
649.072238828274
 20
1250.123381207137
 30
0.0
 11
659.0722388282739
 21
1250.123381207137
 31
0.0
  0
LINE
  5
1E4
330
6F
100
AcDbEntity
  8
B-0
  6
Continuous
 62
     4
100
AcDbLine
 10
637.8222388282739
 20
1250.123381207137
 30
0.0
 11
610.462386828274
 21
1190.123381207137
 31
0.0
  0
LINE
  5
1E5
330
6F
100
AcDbEntity
  8
B-0
  6
Continuous
 62
     4
100
AcDbLine
 10
610.462386828274
 20
1190.123381207137
 30
0.0
 11
527.0359908282739
 21
1190.123381207137
 31
0.0
  0
TEXT
  5
1E6
330
6F
100
AcDbEntity
  8
B-0
 62
     4
100
AcDbText
 10
537.9719999999999
 20
1190.743
 30
0.0
 40
36.288
  1
2.5
100
AcDbText
  0
LINE
  5
1E7
330
6F
100
AcDbEntity
  8
B-0
  6
Continuous
 62
     4
100
AcDbLine
 10
636.572238828274
 20
1250.123381207137
 30
0.0
 11
639.0722388282739
 21
1250.123381207137
 31
0.0
  0
LINE
  5
1E8
330
6F
100
AcDbEntity
  8
B-0
  6
Continuous
 62
     4
100
AcDbLine
 10
636.572238828274
 20
1250.123381207137
 30
0.0
 11
639.0722388282739
 21
1250.123381207137
 31
0.0
  0
CIRCLE
  5
1E9
330
6F
100
AcDbEntity
  8
B-0
  6
Continuous
 62
     4
100
AcDbCircle
 10
636.5722390142719
 20
1250.123380781247
 30
0.0
 40
0.25
  0
CIRCLE
  5
1EA
330
6F
100
AcDbEntity
  8
B-0
  6
Continuous
 62
     4
100
AcDbCircle
 10
636.5722390142719
 20
1250.123380781247
 30
0.0
 40
0.1875
  0
CIRCLE
  5
1EB
330
6F
100
AcDbEntity
  8
B-0
  6
Continuous
 62
     4
100
AcDbCircle
 10
636.5722390142719
 20
1250.123380781247
 30
0.0
 40
0.125
  0
CIRCLE
  5
1EC
330
6F
100
AcDbEntity
  8
B-0
  6
Continuous
 62
     4
100
AcDbCircle
 10
636.5722390142719
 20
1250.123380781247
 30
0.0
 40
0.0625
  0
ARC
  5
1ED
330
6F
100
AcDbEntity
  8
B-0
 62
     4
100
AcDbCircle
 10
636.5722390142719
 20
1250.128380781247
 30
0.0
 40
2.5
100
AcDbArc
 50
0.1145914065300158
 51
180.114591405945
  0
LINE
  5
1EE
330
6F
100
AcDbEntity
  8
B-0
 62
     4
100
AcDbLine
 10
631.5722390142719
 20
1250.123380781247
 30
0.0
 11
626.572239014272
 21
1250.123380781247
 31
0.0
  0
CIRCLE
  5
1EF
330
6F
100
AcDbEntity
  8
B-0
  6
Continuous
 62
     4
100
AcDbCircle
 10
639.072239014272
 20
1250.123380781247
 30
0.0
 40
0.25
  0
CIRCLE
  5
1F0
330
6F
100
AcDbEntity
  8
B-0
  6
Continuous
 62
     4
100
AcDbCircle
 10
639.072239014272
 20
1250.123380781247
 30
0.0
 40
0.1875
  0
CIRCLE
  5
1F1
330
6F
100
AcDbEntity
  8
B-0
  6
Continuous
 62
     4
100
AcDbCircle
 10
639.072239014272
 20
1250.123380781247
 30
0.0
 40
0.125
  0
CIRCLE
  5
1F2
330
6F
100
AcDbEntity
  8
B-0
  6
Continuous
 62
     4
100
AcDbCircle
 10
639.072239014272
 20
1250.123380781247
 30
0.0
 40
0.0625
  0
ARC
  5
1F3
330
6F
100
AcDbEntity
  8
B-0
 62
     4
100
AcDbCircle
 10
639.072239014272
 20
1250.118380781247
 30
0.0
 40
2.5
100
AcDbArc
 50
180.1145914065301
 51
0.1145914059449637
  0
LINE
  5
1F4
330
6F
100
AcDbEntity
  8
B-0
 62
     4
100
AcDbLine
 10
644.0722390142719
 20
1250.123380781298
 30
0.0
 11
649.0722390142719
 21
1250.123380781349
 31
0.0
  0
ARC
  5
1F5
330
6F
100
AcDbEntity
  8
2-0
  6
Continuous
 62
     7
100
AcDbCircle
 10
1058.834907778887
 20
2249.27181191507
 30
0.0
 40
100.0
100
AcDbArc
 50
190.550680239651
 51
263.40719648218
  0
ARC
  5
1F6
330
6F
100
AcDbEntity
  8
2-0
  6
Continuous
 62
     7
100
AcDbCircle
 10
1479.518292778887
 20
2325.01664291507
 30
0.0
 40
527.4455539999999
100
AcDbArc
 50
169.728550516653
 51
190.2720586726821
  0
ARC
  5
1F7
330
6F
100
AcDbEntity
  8
2-0
  6
Continuous
 62
     7
100
AcDbCircle
 10
1058.834907778887
 20
2400.75595591507
 30
0.0
 40
100.0
100
AcDbArc
 50
96.59280351781902
 51
169.449319760348
  0
ARC
  5
1F8
330
6F
100
AcDbEntity
  8
2-0
  6
Continuous
 62
     7
100
AcDbCircle
 10
1219.567912778887
 20
1010.01438391507
 30
0.0
 40
1500.0
100
AcDbArc
 50
83.40703013606697
 51
96.59263717170606
  0
ARC
  5
1F9
330
6F
100
AcDbEntity
  8
2-0
  6
Continuous
 62
     7
100
AcDbCircle
 10
1380.309570778887
 20
2400.75595591507
 30
0.0
 40
100.0
100
AcDbArc
 50
10.55068023965201
 51
83.40719648218097
  0
ARC
  5
1FA
330
6F
100
AcDbEntity
  8
2-0
  6
Continuous
 62
     7
100
AcDbCircle
 10
959.627185778887
 20
2325.01664291507
 30
0.0
 40
527.4455539999999
100
AcDbArc
 50
349.727941327318
 51
10.27144948334708
  0
ARC
  5
1FB
330
6F
100
AcDbEntity
  8
2-0
  6
Continuous
 62
     7
100
AcDbCircle
 10
1380.309570778887
 20
2249.27181191507
 30
0.0
 40
100.0
100
AcDbArc
 50
276.59280351782
 51
349.449319760348
  0
ARC
  5
1FC
330
6F
100
AcDbEntity
  8
2-0
  6
Continuous
 62
     7
100
AcDbCircle
 10
1219.572238778887
 20
3640.01388391507
 30
0.0
 40
1500.0
100
AcDbArc
 50
263.407196482181
 51
276.59280351782
  0
LINE
  5
1FD
330
6F
100
AcDbEntity
  8
2-0
  6
Continuous
 62
     7
100
AcDbLine
 10
636.572238778887
 20
2568.01388391507
 30
0.0
 11
1536.572238778887
 21
2568.01388391507
 31
0.0
  0
LINE
  5
1FE
330
6F
100
AcDbEntity
  8
2-0
  6
Continuous
 62
     7
100
AcDbLine
 10
636.572238778887
 20
2543.01388391507
 30
0.0
 11
1536.572238778887
 21
2543.01388391507
 31
0.0
  0
LINE
  5
1FF
330
6F
100
AcDbEntity
  8
2-0
  6
Continuous
 62
     7
100
AcDbLine
 10
1536.572238778887
 20
2108.01388391507
 30
0.0
 11
636.572238778887
 21
2108.01388391507
 31
0.0
  0
ARC
  5
200
330
6F
100
AcDbEntity
  8
2-0
  6
Continuous
 62
     7
100
AcDbCircle
 10
681.572238778887
 20
2508.01388391507
 30
0.0
 40
26.0
100
AcDbArc
 50
90.0
 51
179.9999999997081
  0
LINE
  5
201
330
6F
100
AcDbEntity
  8
2-0
  6
Continuous
 62
     7
100
AcDbLine
 10
681.572239014274
 20
2534.013883918611
 30
0.0
 11
1491.572239014276
 21
2534.013883918613
 31
0.0
  0
ARC
  5
202
330
6F
100
AcDbEntity
  8
2-0
  6
Continuous
 62
     7
100
AcDbCircle
 10
1491.572238778887
 20
2508.01388391507
 30
0.0
 40
26.0
100
AcDbArc
 50
0.0000000002920064
 51
90.00000000000095
  0
LINE
  5
203
330
6F
100
AcDbEntity
  8
2-0
  6
Continuous
 62
     7
100
AcDbLine
 10
1517.572239014276
 20
2508.013883918613
 30
0.0
 11
1517.572239014277
 21
2153.01388391861
 31
0.0
  0
ARC
  5
204
330
6F
100
AcDbEntity
  8
2-0
  6
Continuous
 62
     7
100
AcDbCircle
 10
1491.572238778887
 20
2153.01388391507
 30
0.0
 40
26.0
100
AcDbArc
 50
269.999999999999
 51
359.9999999997069
  0
LINE
  5
205
330
6F
100
AcDbEntity
  8
2-0
  6
Continuous
 62
     7
100
AcDbLine
 10
1491.572239014277
 20
2127.013883918611
 30
0.0
 11
681.572239014274
 21
2127.013883918611
 31
0.0
  0
ARC
  5
206
330
6F
100
AcDbEntity
  8
2-0
  6
Continuous
 62
     7
100
AcDbCircle
 10
681.572238778887
 20
2153.01388391507
 30
0.0
 40
26.0
100
AcDbArc
 50
180.000000000293
 51
270.000000000001
  0
LINE
  5
207
330
6F
100
AcDbEntity
  8
2-0
  6
Continuous
 62
     7
100
AcDbLine
 10
655.572239014274
 20
2153.01388391861
 30
0.0
 11
655.572239014274
 21
2508.013883918611
 31
0.0
  0
ARC
  5
208
330
6F
100
AcDbEntity
  8
2-0
  6
Continuous
 62
     7
100
AcDbCircle
 10
681.572238778887
 20
2508.01388391507
 30
0.0
 40
21.0
100
AcDbArc
 50
90.0
 51
179.9999999997081
  0
LINE
  5
209
330
6F
100
AcDbEntity
  8
2-0
  6
Continuous
 62
     7
100
AcDbLine
 10
681.572239014274
 20
2529.013883918612
 30
0.0
 11
1491.572239014276
 21
2529.013883918612
 31
0.0
  0
ARC
  5
20A
330
6F
100
AcDbEntity
  8
2-0
  6
Continuous
 62
     7
100
AcDbCircle
 10
1491.572238778887
 20
2508.01388391507
 30
0.0
 40
21.0
100
AcDbArc
 50
0.0000000002940048
 51
90.000000000002
  0
LINE
  5
20B
330
6F
100
AcDbEntity
  8
2-0
  6
Continuous
 62
     7
100
AcDbLine
 10
1512.572239014276
 20
2508.013883918613
 30
0.0
 11
1512.572239014277
 21
2153.01388391861
 31
0.0
  0
ARC
  5
20C
330
6F
100
AcDbEntity
  8
2-0
  6
Continuous
 62
     7
100
AcDbCircle
 10
1491.572238778887
 20
2153.01388391507
 30
0.0
 40
21.0
100
AcDbArc
 50
270.0
 51
359.9999999997079
  0
LINE
  5
20D
330
6F
100
AcDbEntity
  8
2-0
  6
Continuous
 62
     7
100
AcDbLine
 10
1491.572239014277
 20
2132.01388391861
 30
0.0
 11
681.572239014274
 21
2132.01388391861
 31
0.0
  0
ARC
  5
20E
330
6F
100
AcDbEntity
  8
2-0
  6
Continuous
 62
     7
100
AcDbCircle
 10
681.572238778887
 20
2153.01388391507
 30
0.0
 40
21.0
100
AcDbArc
 50
180.000000000292
 51
270.0
  0
LINE
  5
20F
330
6F
100
AcDbEntity
  8
2-0
  6
Continuous
 62
     7
100
AcDbLine
 10
660.572239014274
 20
2153.01388391861
 30
0.0
 11
660.572239014274
 21
2508.013883918611
 31
0.0
  0
LINE
  5
210
330
6F
100
AcDbEntity
  8
2-0
  6
Continuous
 62
     7
100
AcDbLine
 10
1536.572238778887
 20
2568.01388391507
 30
0.0
 11
1536.572238778887
 21
2108.01388391507
 31
0.0
  0
LINE
  5
211
330
6F
100
AcDbEntity
  8
B-0
  6
Continuous
 62
     4
100
AcDbLine
 10
1556.572238828274
 20
2140.013884207137
 30
0.0
 11
1686.572238828274
 21
2140.013884207137
 31
0.0
  0
LINE
  5
212
330
6F
100
AcDbEntity
  8
B-0
  6
Continuous
 62
     4
100
AcDbLine
 10
1556.572238828274
 20
2510.013884207137
 30
0.0
 11
1686.572238828274
 21
2510.013884207137
 31
0.0
  0
TEXT
  5
213
330
6F
100
AcDbEntity
  8
B-0
 62
     4
100
AcDbText
 10
1685.952
 20
2291.414
 30
0.0
 40
36.288
  1
370
 50
90.0
100
AcDbText
  0
LINE
  5
214
330
6F
100
AcDbEntity
  8
B-0
  6
Continuous
 62
     4
100
AcDbLine
 10
1686.572239014276
 20
2510.013883918611
 30
0.0
 11
1686.572239014276
 21
2140.013883918611
 31
0.0
  0
CIRCLE
  5
215
330
6F
100
AcDbEntity
  8
B-0
  6
Continuous
 62
     4
100
AcDbCircle
 10
1686.572239014276
 20
2510.013883918611
 30
0.0
 40
0.25
  0
CIRCLE
  5
216
330
6F
100
AcDbEntity
  8
B-0
  6
Continuous
 62
     4
100
AcDbCircle
 10
1686.572239014276
 20
2510.013883918611
 30
0.0
 40
0.1875
  0
CIRCLE
  5
217
330
6F
100
AcDbEntity
  8
B-0
  6
Continuous
 62
     4
100
AcDbCircle
 10
1686.572239014276
 20
2510.013883918611
 30
0.0
 40
0.125
  0
CIRCLE
  5
218
330
6F
100
AcDbEntity
  8
B-0
  6
Continuous
 62
     4
100
AcDbCircle
 10
1686.572239014276
 20
2510.013883918611
 30
0.0
 40
0.0625
  0
CIRCLE
  5
219
330
6F
100
AcDbEntity
  8
B-0
  6
Continuous
 62
     4
100
AcDbCircle
 10
1686.572239014276
 20
2140.013883918611
 30
0.0
 40
0.25
  0
CIRCLE
  5
21A
330
6F
100
AcDbEntity
  8
B-0
  6
Continuous
 62
     4
100
AcDbCircle
 10
1686.572239014276
 20
2140.013883918611
 30
0.0
 40
0.1875
  0
CIRCLE
  5
21B
330
6F
100
AcDbEntity
  8
B-0
  6
Continuous
 62
     4
100
AcDbCircle
 10
1686.572239014276
 20
2140.013883918611
 30
0.0
 40
0.125
  0
CIRCLE
  5
21C
330
6F
100
AcDbEntity
  8
B-0
  6
Continuous
 62
     4
100
AcDbCircle
 10
1686.572239014276
 20
2140.013883918611
 30
0.0
 40
0.0625
  0
LINE
  5
21D
330
6F
100
AcDbEntity
  8
2-0
  6
Continuous
 62
     7
100
AcDbLine
 10
636.572238778887
 20
2109.01388391507
 30
0.0
 11
636.572238778887
 21
2568.01388391507
 31
0.0
  0
LINE
  5
21E
330
6F
100
AcDbEntity
  8
2-0
  6
Continuous
 62
     7
100
AcDbLine
 10
691.5722390142779
 20
2496.013883918611
 30
0.0
 11
929.0977518751171
 21
2496.013883918611
 31
0.0
  0
ARC
  5
21F
330
6F
100
AcDbEntity
  8
2-0
  6
Continuous
 62
     7
100
AcDbCircle
 10
929.0977517788871
 20
2491.01388391507
 30
0.0
 40
5.0
100
AcDbArc
 50
322.200277564983
 51
90.000000000002
  0
ARC
  5
220
330
6F
100
AcDbEntity
  8
2-0
  6
Continuous
 62
     7
100
AcDbCircle
 10
1051.572238778887
 20
2396.01388391507
 30
0.0
 40
150.0
100
AcDbArc
 50
142.200277564404
 51
159.21644040393
  0
ARC
  5
221
330
6F
100
AcDbEntity
  8
2-0
  6
Continuous
 62
     7
100
AcDbCircle
 10
906.658471778887
 20
2451.01388391507
 30
0.0
 40
5.0
100
AcDbArc
 50
270.0000000000139
 51
339.216440403943
  0
LINE
  5
222
330
6F
100
AcDbEntity
  8
2-0
  6
Continuous
 62
     7
100
AcDbLine
 10
906.658471552382
 20
2446.01388391861
 30
0.0
 11
691.5722390142779
 21
2446.013883918612
 31
0.0
  0
ARC
  5
223
330
6F
100
AcDbEntity
  8
2-0
  6
Continuous
 62
     7
100
AcDbCircle
 10
691.572238778887
 20
2451.01388391507
 30
0.0
 40
5.0
100
AcDbArc
 50
180.000000000286
 51
269.999999999991
  0
LINE
  5
224
330
6F
100
AcDbEntity
  8
2-0
  6
Continuous
 62
     7
100
AcDbLine
 10
686.572239014278
 20
2451.013883918613
 30
0.0
 11
686.572239014278
 21
2491.01388391861
 31
0.0
  0
ARC
  5
225
330
6F
100
AcDbEntity
  8
2-0
  6
Continuous
 62
     7
100
AcDbCircle
 10
691.572238778887
 20
2491.01388391507
 30
0.0
 40
5.0
100
AcDbArc
 50
90.00000000000502
 51
179.9999999997129
  0
ARC
  5
226
330
6F
100
AcDbEntity
  8
2-0
  6
Continuous
 62
     7
100
AcDbCircle
 10
896.572238778887
 20
2419.01388391507
 30
0.0
 40
5.0
100
AcDbArc
 50
0.0000000002999201
 51
90.00000000000808
  0
LINE
  5
227
330
6F
100
AcDbEntity
  8
2-0
  6
Continuous
 62
     7
100
AcDbLine
 10
901.5722390142759
 20
2419.013883918613
 30
0.0
 11
901.5722390142759
 21
2379.013883918611
 31
0.0
  0
ARC
  5
228
330
6F
100
AcDbEntity
  8
2-0
  6
Continuous
 62
     7
100
AcDbCircle
 10
896.572238778887
 20
2379.01388391507
 30
0.0
 40
5.0
100
AcDbArc
 50
270.0000000000049
 51
359.9999999997129
  0
LINE
  5
229
330
6F
100
AcDbEntity
  8
2-0
  6
Continuous
 62
     7
100
AcDbLine
 10
896.572239014276
 20
2374.01388391861
 30
0.0
 11
691.5722390142759
 21
2374.01388391861
 31
0.0
  0
ARC
  5
22A
330
6F
100
AcDbEntity
  8
2-0
  6
Continuous
 62
     7
100
AcDbCircle
 10
691.572238778887
 20
2379.01388391507
 30
0.0
 40
5.0
100
AcDbArc
 50
180.0000000002901
 51
269.999999999993
  0
LINE
  5
22B
330
6F
100
AcDbEntity
  8
2-0
  6
Continuous
 62
     7
100
AcDbLine
 10
686.5722390142759
 20
2379.013883918611
 30
0.0
 11
686.572239014274
 21
2419.013883918611
 31
0.0
  0
ARC
  5
22C
330
6F
100
AcDbEntity
  8
2-0
  6
Continuous
 62
     7
100
AcDbCircle
 10
691.572238778887
 20
2419.01388391507
 30
0.0
 40
5.0
100
AcDbArc
 50
89.99999999999905
 51
179.9999999997089
  0
LINE
  5
22D
330
6F
100
AcDbEntity
  8
2-0
  6
Continuous
 62
     7
100
AcDbLine
 10
691.572239014274
 20
2424.013883918612
 30
0.0
 11
896.572239014276
 21
2424.013883918612
 31
0.0
  0
ARC
  5
22E
330
6F
100
AcDbEntity
  8
2-0
  6
Continuous
 62
     7
100
AcDbCircle
 10
899.503175778887
 20
2235.01388391507
 30
0.0
 40
5.0
100
AcDbArc
 50
270.000000000006
 51
11.15993687186405
  0
ARC
  5
22F
330
6F
100
AcDbEntity
  8
2-0
  6
Continuous
 62
     7
100
AcDbCircle
 10
1051.572238778887
 20
2265.01388391507
 30
0.0
 40
150.0
100
AcDbArc
 50
176.3009289371399
 51
191.159936872443
  0
ARC
  5
230
330
6F
100
AcDbEntity
  8
2-0
  6
Continuous
 62
     7
100
AcDbCircle
 10
896.8951557788869
 20
2275.01388391507
 30
0.0
 40
5.0
100
AcDbArc
 50
356.30092893713
 51
89.99999999997195
  0
LINE
  5
231
330
6F
100
AcDbEntity
  8
2-0
  6
Continuous
 62
     7
100
AcDbLine
 10
896.8951560316979
 20
2280.013883918611
 30
0.0
 11
691.5722390142779
 21
2280.013883918611
 31
0.0
  0
ARC
  5
232
330
6F
100
AcDbEntity
  8
2-0
  6
Continuous
 62
     7
100
AcDbCircle
 10
691.572238778887
 20
2275.01388391507
 30
0.0
 40
5.0
100
AcDbArc
 50
90.00000000000502
 51
179.9999999997129
  0
LINE
  5
233
330
6F
100
AcDbEntity
  8
2-0
  6
Continuous
 62
     7
100
AcDbLine
 10
686.572239014278
 20
2275.01388391861
 30
0.0
 11
686.5722390142759
 21
2235.013883918611
 31
0.0
  0
ARC
  5
234
330
6F
100
AcDbEntity
  8
2-0
  6
Continuous
 62
     7
100
AcDbCircle
 10
691.572238778887
 20
2235.01388391507
 30
0.0
 40
5.0
100
AcDbArc
 50
180.000000000287
 51
269.999999999995
  0
LINE
  5
235
330
6F
100
AcDbEntity
  8
2-0
  6
Continuous
 62
     7
100
AcDbLine
 10
691.5722390142759
 20
2230.01388391861
 30
0.0
 11
899.5031757568209
 21
2230.01388391861
 31
0.0
  0
ARC
  5
236
330
6F
100
AcDbEntity
  8
2-0
  6
Continuous
 62
     7
100
AcDbCircle
 10
896.572238778887
 20
2347.01388391507
 30
0.0
 40
5.0
100
AcDbArc
 50
0.0000000002999201
 51
90.00000000000808
  0
LINE
  5
237
330
6F
100
AcDbEntity
  8
2-0
  6
Continuous
 62
     7
100
AcDbLine
 10
901.5722390142759
 20
2347.013883918613
 30
0.0
 11
901.5722390142759
 21
2307.01388391861
 31
0.0
  0
ARC
  5
238
330
6F
100
AcDbEntity
  8
2-0
  6
Continuous
 62
     7
100
AcDbCircle
 10
896.572238778887
 20
2307.01388391507
 30
0.0
 40
5.0
100
AcDbArc
 50
270.0
 51
359.9999999997079
  0
LINE
  5
239
330
6F
100
AcDbEntity
  8
2-0
  6
Continuous
 62
     7
100
AcDbLine
 10
896.572239014276
 20
2302.01388391861
 30
0.0
 11
691.5722390142759
 21
2302.01388391861
 31
0.0
  0
ARC
  5
23A
330
6F
100
AcDbEntity
  8
2-0
  6
Continuous
 62
     7
100
AcDbCircle
 10
691.572238778887
 20
2307.01388391507
 30
0.0
 40
5.0
100
AcDbArc
 50
180.000000000295
 51
269.9999999999981
  0
LINE
  5
23B
330
6F
100
AcDbEntity
  8
2-0
  6
Continuous
 62
     7
100
AcDbLine
 10
686.5722390142759
 20
2307.01388391861
 30
0.0
 11
686.572239014274
 21
2347.013883918611
 31
0.0
  0
ARC
  5
23C
330
6F
100
AcDbEntity
  8
2-0
  6
Continuous
 62
     7
100
AcDbCircle
 10
691.572238778887
 20
2347.01388391507
 30
0.0
 40
5.0
100
AcDbArc
 50
89.99999999999401
 51
179.9999999997029
  0
LINE
  5
23D
330
6F
100
AcDbEntity
  8
2-0
  6
Continuous
 62
     7
100
AcDbLine
 10
691.572239014274
 20
2352.01388391861
 30
0.0
 11
896.572239014276
 21
2352.013883918612
 31
0.0
  0
LINE
  5
23E
330
6F
100
AcDbEntity
  8
2-0
  6
Continuous
 62
     7
100
AcDbLine
 10
691.5722390142779
 20
2158.013883918611
 30
0.0
 11
929.0977518751171
 21
2158.013883918611
 31
0.0
  0
ARC
  5
23F
330
6F
100
AcDbEntity
  8
2-0
  6
Continuous
 62
     7
100
AcDbCircle
 10
929.0977517788871
 20
2163.01388391507
 30
0.0
 40
5.0
100
AcDbArc
 50
270.000000000002
 51
37.79972243502003
  0
ARC
  5
240
330
6F
100
AcDbEntity
  8
2-0
  6
Continuous
 62
     7
100
AcDbCircle
 10
1051.572238778887
 20
2258.01388391507
 30
0.0
 40
150.0
100
AcDbArc
 50
200.78355959607
 51
217.799722435596
  0
ARC
  5
241
330
6F
100
AcDbEntity
  8
2-0
  6
Continuous
 62
     7
100
AcDbCircle
 10
906.658471778887
 20
2203.01388391507
 30
0.0
 40
5.0
100
AcDbArc
 50
20.78355959608293
 51
90.00000000001294
  0
LINE
  5
242
330
6F
100
AcDbEntity
  8
2-0
  6
Continuous
 62
     7
100
AcDbLine
 10
906.658471552382
 20
2208.01388391861
 30
0.0
 11
691.5722390142779
 21
2208.01388391861
 31
0.0
  0
ARC
  5
243
330
6F
100
AcDbEntity
  8
2-0
  6
Continuous
 62
     7
100
AcDbCircle
 10
691.572238778887
 20
2203.01388391507
 30
0.0
 40
5.0
100
AcDbArc
 50
89.999999999996
 51
179.9999999997009
  0
LINE
  5
244
330
6F
100
AcDbEntity
  8
2-0
  6
Continuous
 62
     7
100
AcDbLine
 10
686.572239014278
 20
2203.013883918611
 30
0.0
 11
686.572239014278
 21
2163.013883918611
 31
0.0
  0
ARC
  5
245
330
6F
100
AcDbEntity
  8
2-0
  6
Continuous
 62
     7
100
AcDbCircle
 10
691.572238778887
 20
2163.01388391507
 30
0.0
 40
5.0
100
AcDbArc
 50
180.000000000292
 51
270.0
  0
LINE
  5
246
330
6F
100
AcDbEntity
  8
B-0
  6
Continuous
 62
     4
100
AcDbLine
 10
616.5722388282739
 20
2568.013884207137
 30
0.0
 11
491.153798828274
 21
2568.013884207137
 31
0.0
  0
LINE
  5
247
330
6F
100
AcDbEntity
  8
B-0
  6
Continuous
 62
     4
100
AcDbLine
 10
616.5722388282739
 20
2108.013884207137
 30
0.0
 11
491.153798828274
 21
2108.013884207137
 31
0.0
  0
TEXT
  5
248
330
6F
100
AcDbEntity
  8
B-0
 62
     4
100
AcDbText
 10
490.5339999999999
 20
2304.414
 30
0.0
 40
36.288
  1
460
 50
90.0
100
AcDbText
  0
LINE
  5
249
330
6F
100
AcDbEntity
  8
B-0
  6
Continuous
 62
     4
100
AcDbLine
 10
491.1537992480019
 20
2108.01388391861
 30
0.0
 11
491.1537992480019
 21
2568.013883918616
 31
0.0
  0
CIRCLE
  5
24A
330
6F
100
AcDbEntity
  8
B-0
  6
Continuous
 62
     4
100
AcDbCircle
 10
491.1537992480019
 20
2108.01388391861
 30
0.0
 40
0.25
  0
CIRCLE
  5
24B
330
6F
100
AcDbEntity
  8
B-0
  6
Continuous
 62
     4
100
AcDbCircle
 10
491.1537992480019
 20
2108.01388391861
 30
0.0
 40
0.1875
  0
CIRCLE
  5
24C
330
6F
100
AcDbEntity
  8
B-0
  6
Continuous
 62
     4
100
AcDbCircle
 10
491.1537992480019
 20
2108.01388391861
 30
0.0
 40
0.125
  0
CIRCLE
  5
24D
330
6F
100
AcDbEntity
  8
B-0
  6
Continuous
 62
     4
100
AcDbCircle
 10
491.1537992480019
 20
2108.01388391861
 30
0.0
 40
0.0625
  0
CIRCLE
  5
24E
330
6F
100
AcDbEntity
  8
B-0
  6
Continuous
 62
     4
100
AcDbCircle
 10
491.1537992480019
 20
2568.013883918616
 30
0.0
 40
0.25
  0
CIRCLE
  5
24F
330
6F
100
AcDbEntity
  8
B-0
  6
Continuous
 62
     4
100
AcDbCircle
 10
491.1537992480019
 20
2568.013883918616
 30
0.0
 40
0.1875
  0
CIRCLE
  5
250
330
6F
100
AcDbEntity
  8
B-0
  6
Continuous
 62
     4
100
AcDbCircle
 10
491.1537992480019
 20
2568.013883918616
 30
0.0
 40
0.125
  0
CIRCLE
  5
251
330
6F
100
AcDbEntity
  8
B-0
  6
Continuous
 62
     4
100
AcDbCircle
 10
491.1537992480019
 20
2568.013883918616
 30
0.0
 40
0.0625
  0
LINE
  5
252
330
6F
100
AcDbEntity
  8
B-0
  6
Continuous
 62
     4
100
AcDbLine
 10
1536.572238828274
 20
2588.013884207137
 30
0.0
 11
1536.572238828274
 21
2648.013884207137
 31
0.0
  0
LINE
  5
253
330
6F
100
AcDbEntity
  8
B-0
  6
Continuous
 62
     4
100
AcDbLine
 10
1336.572238828274
 20
2588.013884207137
 30
0.0
 11
1336.572238828274
 21
2648.013884207137
 31
0.0
  0
TEXT
  5
254
330
6F
100
AcDbEntity
  8
B-0
 62
     4
100
AcDbText
 10
1405.795
 20
2648.634
 30
0.0
 40
36.288
  1
200
100
AcDbText
  0
LINE
  5
255
330
6F
100
AcDbEntity
  8
B-0
  6
Continuous
 62
     4
100
AcDbLine
 10
1336.572239014277
 20
2648.01388391861
 30
0.0
 11
1536.572239014276
 21
2648.01388391861
 31
0.0
  0
CIRCLE
  5
256
330
6F
100
AcDbEntity
  8
B-0
  6
Continuous
 62
     4
100
AcDbCircle
 10
1336.572239014277
 20
2648.01388391861
 30
0.0
 40
0.25
  0
CIRCLE
  5
257
330
6F
100
AcDbEntity
  8
B-0
  6
Continuous
 62
     4
100
AcDbCircle
 10
1336.572239014277
 20
2648.01388391861
 30
0.0
 40
0.1875
  0
CIRCLE
  5
258
330
6F
100
AcDbEntity
  8
B-0
  6
Continuous
 62
     4
100
AcDbCircle
 10
1336.572239014277
 20
2648.01388391861
 30
0.0
 40
0.125
  0
CIRCLE
  5
259
330
6F
100
AcDbEntity
  8
B-0
  6
Continuous
 62
     4
100
AcDbCircle
 10
1336.572239014277
 20
2648.01388391861
 30
0.0
 40
0.0625
  0
CIRCLE
  5
25A
330
6F
100
AcDbEntity
  8
B-0
  6
Continuous
 62
     4
100
AcDbCircle
 10
1536.572239014276
 20
2648.01388391861
 30
0.0
 40
0.25
  0
CIRCLE
  5
25B
330
6F
100
AcDbEntity
  8
B-0
  6
Continuous
 62
     4
100
AcDbCircle
 10
1536.572239014276
 20
2648.01388391861
 30
0.0
 40
0.1875
  0
CIRCLE
  5
25C
330
6F
100
AcDbEntity
  8
B-0
  6
Continuous
 62
     4
100
AcDbCircle
 10
1536.572239014276
 20
2648.01388391861
 30
0.0
 40
0.125
  0
CIRCLE
  5
25D
330
6F
100
AcDbEntity
  8
B-0
  6
Continuous
 62
     4
100
AcDbCircle
 10
1536.572239014276
 20
2648.01388391861
 30
0.0
 40
0.0625
  0
LINE
  5
25E
330
6F
100
AcDbEntity
  8
B-0
  6
Continuous
 62
     4
100
AcDbLine
 10
1192.898837828274
 20
2568.013884207137
 30
0.0
 11
1168.947212828274
 21
2568.013884207137
 31
0.0
  0
LINE
  5
25F
330
6F
100
AcDbEntity
  8
B-0
  6
Continuous
 62
     4
100
AcDbLine
 10
1221.557972828274
 20
2325.013884207137
 30
0.0
 11
1168.947212828274
 21
2325.013884207137
 31
0.0
  0
TEXT
  5
260
330
6F
100
AcDbEntity
  8
B-0
 62
     4
100
AcDbText
 10
1168.327
 20
2412.914
 30
0.0
 40
36.288
  1
243
 50
90.0
100
AcDbText
  0
LINE
  5
261
330
6F
100
AcDbEntity
  8
B-0
  6
Continuous
 62
     4
100
AcDbLine
 10
1168.94721315695
 20
2325.01388391861
 30
0.0
 11
1168.94721315695
 21
2568.01388391861
 31
0.0
  0
CIRCLE
  5
262
330
6F
100
AcDbEntity
  8
B-0
  6
Continuous
 62
     4
100
AcDbCircle
 10
1168.94721315695
 20
2325.01388391861
 30
0.0
 40
0.25
  0
CIRCLE
  5
263
330
6F
100
AcDbEntity
  8
B-0
  6
Continuous
 62
     4
100
AcDbCircle
 10
1168.94721315695
 20
2325.01388391861
 30
0.0
 40
0.1875
  0
CIRCLE
  5
264
330
6F
100
AcDbEntity
  8
B-0
  6
Continuous
 62
     4
100
AcDbCircle
 10
1168.94721315695
 20
2325.01388391861
 30
0.0
 40
0.125
  0
CIRCLE
  5
265
330
6F
100
AcDbEntity
  8
B-0
  6
Continuous
 62
     4
100
AcDbCircle
 10
1168.94721315695
 20
2325.01388391861
 30
0.0
 40
0.0625
  0
CIRCLE
  5
266
330
6F
100
AcDbEntity
  8
B-0
  6
Continuous
 62
     4
100
AcDbCircle
 10
1168.94721315695
 20
2568.01388391861
 30
0.0
 40
0.25
  0
CIRCLE
  5
267
330
6F
100
AcDbEntity
  8
B-0
  6
Continuous
 62
     4
100
AcDbCircle
 10
1168.94721315695
 20
2568.01388391861
 30
0.0
 40
0.1875
  0
CIRCLE
  5
268
330
6F
100
AcDbEntity
  8
B-0
  6
Continuous
 62
     4
100
AcDbCircle
 10
1168.94721315695
 20
2568.01388391861
 30
0.0
 40
0.125
  0
CIRCLE
  5
269
330
6F
100
AcDbEntity
  8
B-0
  6
Continuous
 62
     4
100
AcDbCircle
 10
1168.94721315695
 20
2568.01388391861
 30
0.0
 40
0.0625
  0
LINE
  5
26A
330
6F
100
AcDbEntity
  8
2-0
  6
Continuous
 62
     7
100
AcDbLine
 10
1393.313287029026
 20
2166.788200137721
 30
0.0
 11
1336.572239014279
 21
2325.01388391861
 31
0.0
  0
LINE
  5
26B
330
6F
100
AcDbEntity
  8
2-0
  6
Continuous
 62
     7
100
AcDbLine
 10
1336.572239014279
 20
2325.01388391861
 30
0.0
 11
1362.360210226722
 21
2305.213430962458
 31
0.0
  0
CIRCLE
  5
26C
330
6F
100
AcDbEntity
  8
2-0
  6
Continuous
 62
     7
100
AcDbCircle
 10
1336.572238778887
 20
2325.01388391507
 30
0.0
 40
90.0
  0
CIRCLE
  5
26D
330
6F
100
AcDbEntity
  8
2-0
  6
Continuous
 62
     7
100
AcDbCircle
 10
1336.572238778887
 20
2325.01388391507
 30
0.0
 40
80.0
  0
TEXT
  5
26E
330
6F
100
AcDbEntity
  8
1-1
 62
     5
100
AcDbText
 10
1212.222
 20
2178.109
 30
0.0
 40
25.92
  1
床板排水芯
100
AcDbText
  0
LINE
  5
26F
330
6F
100
AcDbEntity
  8
2-0
  6
Continuous
 62
     7
100
AcDbLine
 10
1393.313286778887
 20
2166.78819991507
 30
0.0
 11
1207.880031778887
 21
2166.78819991507
 31
0.0
  0
LINE
  5
270
330
6F
100
AcDbEntity
  8
2-0
  6
DASHED2
 62
     7
100
AcDbLine
 10
661.572238778887
 20
1404.76029491507
 30
0.0
 11
946.572238778887
 21
1404.76029491507
 31
0.0
  0
LINE
  5
271
330
6F
100
AcDbEntity
  8
2-0
  6
DASHED2
 62
     7
100
AcDbLine
 10
951.557370778887
 20
1400.02349391507
 30
0.0
 11
951.5722387788869
 21
1281.76029491507
 31
0.0
  0
ARC
  5
272
330
6F
100
AcDbEntity
  8
2-0
  6
DASHED2
 62
     7
100
AcDbCircle
 10
971.572238778887
 20
1281.76029491507
 30
0.0
 40
20.0
100
AcDbArc
 50
180.0
 51
270.0
  0
LINE
  5
273
330
6F
100
AcDbEntity
  8
2-0
  6
DASHED2
 62
     7
100
AcDbLine
 10
971.572238778887
 20
1261.76029491507
 30
0.0
 11
1466.572238778887
 21
1261.76029491507
 31
0.0
  0
ARC
  5
274
330
6F
100
AcDbEntity
  8
2-0
  6
DASHED2
 62
     7
100
AcDbCircle
 10
1466.572238778887
 20
1281.76029491507
 30
0.0
 40
20.0
100
AcDbArc
 50
270.0
 51
0.0
  0
LINE
  5
275
330
6F
100
AcDbEntity
  8
2-0
  6
DASHED2
 62
     7
100
AcDbLine
 10
1486.572238778887
 20
1281.76029491507
 30
0.0
 11
1486.572238778887
 21
1399.76029491507
 31
0.0
  0
LINE
  5
276
330
6F
100
AcDbEntity
  8
2-0
  6
DASHED2
 62
     7
100
AcDbLine
 10
1351.572238778887
 20
1073.76029491507
 30
0.0
 11
1351.572238778887
 21
609.76029491507
 31
0.0
  0
LINE
  5
277
330
6F
100
AcDbEntity
  8
B-0
  6
Continuous
 62
     4
100
AcDbLine
 10
1310.398854828274
 20
1073.760294207137
 30
0.0
 11
1296.776367828274
 21
1073.760294207137
 31
0.0
  0
LINE
  5
278
330
6F
100
AcDbEntity
  8
B-0
  6
Continuous
 62
     4
100
AcDbLine
 10
1306.341863828274
 20
609.760294207137
 30
0.0
 11
1296.776367828274
 21
609.760294207137
 31
0.0
  0
TEXT
  5
279
330
6F
100
AcDbEntity
  8
B-0
 62
     4
100
AcDbText
 10
1296.156
 20
808.1599999999999
 30
0.0
 40
36.288
  1
464
 50
90.0
100
AcDbText
  0
LINE
  5
27A
330
6F
100
AcDbEntity
  8
B-0
  6
Continuous
 62
     4
100
AcDbLine
 10
1296.776367713564
 20
609.7602946353069
 30
0.0
 11
1296.776367713564
 21
1073.760294635307
 31
0.0
  0
CIRCLE
  5
27B
330
6F
100
AcDbEntity
  8
B-0
  6
Continuous
 62
     4
100
AcDbCircle
 10
1296.776367713564
 20
609.7602946353069
 30
0.0
 40
0.25
  0
CIRCLE
  5
27C
330
6F
100
AcDbEntity
  8
B-0
  6
Continuous
 62
     4
100
AcDbCircle
 10
1296.776367713564
 20
609.7602946353069
 30
0.0
 40
0.1875
  0
CIRCLE
  5
27D
330
6F
100
AcDbEntity
  8
B-0
  6
Continuous
 62
     4
100
AcDbCircle
 10
1296.776367713564
 20
609.7602946353069
 30
0.0
 40
0.125
  0
CIRCLE
  5
27E
330
6F
100
AcDbEntity
  8
B-0
  6
Continuous
 62
     4
100
AcDbCircle
 10
1296.776367713564
 20
609.7602946353069
 30
0.0
 40
0.0625
  0
CIRCLE
  5
27F
330
6F
100
AcDbEntity
  8
B-0
  6
Continuous
 62
     4
100
AcDbCircle
 10
1296.776367713564
 20
1073.760294635307
 30
0.0
 40
0.25
  0
CIRCLE
  5
280
330
6F
100
AcDbEntity
  8
B-0
  6
Continuous
 62
     4
100
AcDbCircle
 10
1296.776367713564
 20
1073.760294635307
 30
0.0
 40
0.1875
  0
CIRCLE
  5
281
330
6F
100
AcDbEntity
  8
B-0
  6
Continuous
 62
     4
100
AcDbCircle
 10
1296.776367713564
 20
1073.760294635307
 30
0.0
 40
0.125
  0
CIRCLE
  5
282
330
6F
100
AcDbEntity
  8
B-0
  6
Continuous
 62
     4
100
AcDbCircle
 10
1296.776367713564
 20
1073.760294635307
 30
0.0
 40
0.0625
  0
LINE
  5
283
330
6F
100
AcDbEntity
  8
2-0
  6
DASHED2
 62
     7
100
AcDbLine
 10
1273.1458957145
 20
1167.760295039166
 30
0.0
 11
1273.1458957145
 21
1114.660295039166
 31
0.0
  0
ARC
  5
284
330
6F
100
AcDbEntity
  8
2-0
  6
DASHED2
 62
     7
100
AcDbCircle
 10
1283.145895778887
 20
1114.66029491507
 30
0.0
 40
10.0
100
AcDbArc
 50
180.000000000292
 51
270.0
  0
LINE
  5
285
330
6F
100
AcDbEntity
  8
2-0
  6
DASHED2
 62
     7
100
AcDbLine
 10
1283.1458957145
 20
1104.660295039166
 30
0.0
 11
1389.998582314048
 21
1104.660295039166
 31
0.0
  0
ARC
  5
286
330
6F
100
AcDbEntity
  8
2-0
  6
DASHED2
 62
     7
100
AcDbCircle
 10
1389.998582778887
 20
1114.66029491507
 30
0.0
 40
10.0
100
AcDbArc
 50
270.0
 51
359.999999999708
  0
LINE
  5
287
330
6F
100
AcDbEntity
  8
2-0
  6
DASHED2
 62
     7
100
AcDbLine
 10
1399.998582314047
 20
1114.660295039166
 30
0.0
 11
1399.998582314047
 21
1167.760295039166
 31
0.0
  0
LINE
  5
288
330
6F
100
AcDbEntity
  8
2-0
  6
DASHED2
 62
     7
100
AcDbLine
 10
1366.572239014272
 20
1104.660295039166
 30
0.0
 11
1366.572239014274
 21
1073.760294635307
 31
0.0
  0
LINE
  5
289
330
6F
100
AcDbEntity
  8
2-0
  6
DASHED2
 62
     7
100
AcDbLine
 10
1366.572239014274
 20
1073.760294635307
 30
0.0
 11
1306.572239014272
 21
1073.760294635307
 31
0.0
  0
LINE
  5
28A
330
6F
100
AcDbEntity
  8
2-0
  6
DASHED2
 62
     7
100
AcDbLine
 10
1306.572239014272
 20
1073.760294635307
 30
0.0
 11
1306.572239014272
 21
1104.660295039166
 31
0.0
  0
LINE
  5
28B
330
6F
100
AcDbEntity
  8
2-0
  6
DASHED2
 62
     7
100
AcDbLine
 10
1246.572238778887
 20
1256.76029491507
 30
0.0
 11
1426.572238778887
 21
1256.76029491507
 31
0.0
  0
LINE
  5
28C
330
6F
100
AcDbEntity
  8
2-0
  6
DASHED2
 62
     7
100
AcDbLine
 10
1426.572238778887
 20
1261.76029491507
 30
0.0
 11
1426.572238778887
 21
1256.76029491507
 31
0.0
  0
LINE
  5
28D
330
6F
100
AcDbEntity
  8
2-0
  6
DASHED2
 62
     7
100
AcDbLine
 10
1414.572238778887
 20
1239.55877091507
 30
0.0
 11
1405.483439778887
 21
1234.55877091507
 31
0.0
  0
LINE
  5
28E
330
6F
100
AcDbEntity
  8
2-0
  6
DASHED2
 62
     7
100
AcDbLine
 10
1405.483439778887
 20
1234.55877091507
 30
0.0
 11
1405.483439778887
 21
1169.97506091507
 31
0.0
  0
LINE
  5
28F
330
6F
100
AcDbEntity
  8
2-0
  6
DASHED2
 62
     7
100
AcDbLine
 10
1267.661037778887
 20
1234.55877091507
 30
0.0
 11
1405.483439778887
 21
1234.55877091507
 31
0.0
  0
LINE
  5
290
330
6F
100
AcDbEntity
  8
2-0
  6
DASHED2
 62
     7
100
AcDbLine
 10
1267.661037871042
 20
1167.760295039166
 30
0.0
 11
1405.483440157504
 21
1167.760295039166
 31
0.0
  0
LINE
  5
291
330
6F
100
AcDbEntity
  8
2-0
  6
DASHED2
 62
     7
100
AcDbLine
 10
1258.572238778887
 20
1239.55877091507
 30
0.0
 11
1414.572238778887
 21
1239.55877091507
 31
0.0
  0
LINE
  5
292
330
6F
100
AcDbEntity
  8
2-0
  6
DASHED2
 62
     7
100
AcDbLine
 10
1424.324582778887
 20
1256.76029491507
 30
0.0
 11
1424.324582778887
 21
1242.76029491507
 31
0.0
  0
LINE
  5
293
330
6F
100
AcDbEntity
  8
2-0
  6
DASHED2
 62
     7
100
AcDbLine
 10
1424.324582778887
 20
1242.76029491507
 30
0.0
 11
1414.572238778887
 21
1242.76029491507
 31
0.0
  0
LINE
  5
294
330
6F
100
AcDbEntity
  8
2-0
  6
DASHED2
 62
     7
100
AcDbLine
 10
1414.572238778887
 20
1256.76029491507
 30
0.0
 11
1414.572238778887
 21
1239.55877091507
 31
0.0
  0
LINE
  5
295
330
6F
100
AcDbEntity
  8
2-0
  6
CENTER
 62
     8
100
AcDbLine
 10
1235.572239014274
 20
1374.760294635307
 30
0.0
 11
941.572239014274
 21
1039.760294635307
 31
0.0
  0
LINE
  5
296
330
6F
100
AcDbEntity
  8
2-0
  6
CENTER
 62
     8
100
AcDbLine
 10
941.572239014274
 20
1039.760294635307
 30
0.0
 11
1235.572239014274
 21
699.760294635307
 31
0.0
  0
LINE
  5
297
330
6F
100
AcDbEntity
  8
2-0
  6
CENTER
 62
     8
100
AcDbLine
 10
1236.572239014274
 20
1374.760294635307
 30
0.0
 11
1530.572239014274
 21
1037.260294635307
 31
0.0
  0
LINE
  5
298
330
6F
100
AcDbEntity
  8
2-0
  6
CENTER
 62
     8
100
AcDbLine
 10
1530.572239014274
 20
1037.260294635307
 30
0.0
 11
1236.572239014274
 21
699.760294635307
 31
0.0
  0
LINE
  5
299
330
6F
100
AcDbEntity
  8
2-0
  6
Continuous
 62
     7
100
AcDbLine
 10
936.5722390142741
 20
699.760294635307
 30
0.0
 11
642.572239014278
 21
699.760294635307
 31
0.0
  0
LINE
  5
29A
330
6F
100
AcDbEntity
  8
2-0
  6
Continuous
 62
     7
100
AcDbLine
 10
642.572239014278
 20
699.760294635307
 30
0.0
 11
642.572239014274
 21
1204.760294635307
 31
0.0
  0
LINE
  5
29B
330
6F
100
AcDbEntity
  8
2-0
  6
Continuous
 62
     7
100
AcDbLine
 10
642.572239014274
 20
1204.760294635307
 30
0.0
 11
936.5722390142778
 21
1204.760294635307
 31
0.0
  0
LINE
  5
29C
330
6F
100
AcDbEntity
  8
2-0
  6
Continuous
 62
     7
100
AcDbLine
 10
936.5722390142778
 20
1204.760294635307
 30
0.0
 11
936.5722390142741
 21
699.760294635307
 31
0.0
  0
LINE
  5
29D
330
6F
100
AcDbEntity
  8
2-0
  6
CENTER
 62
     8
100
AcDbLine
 10
936.5722390142778
 20
1204.760294635307
 30
0.0
 11
642.572239014274
 21
954.760294635307
 31
0.0
  0
LINE
  5
29E
330
6F
100
AcDbEntity
  8
2-0
  6
CENTER
 62
     8
100
AcDbLine
 10
642.572239014274
 20
954.760294635307
 30
0.0
 11
936.5722390142741
 21
699.760294635307
 31
0.0
  0
LINE
  5
29F
330
6F
100
AcDbEntity
  8
2-0
  6
Continuous
 62
     7
100
AcDbLine
 10
936.5722390142778
 20
1209.760294635307
 30
0.0
 11
642.572239014278
 21
1209.760294635307
 31
0.0
  0
LINE
  5
2A0
330
6F
100
AcDbEntity
  8
2-0
  6
Continuous
 62
     7
100
AcDbLine
 10
642.572239014278
 20
1209.760294635307
 30
0.0
 11
642.572239014278
 21
1374.760294635307
 31
0.0
  0
LINE
  5
2A1
330
6F
100
AcDbEntity
  8
2-0
  6
Continuous
 62
     7
100
AcDbLine
 10
642.572239014278
 20
1374.760294635307
 30
0.0
 11
936.5722390142778
 21
1374.760294635307
 31
0.0
  0
LINE
  5
2A2
330
6F
100
AcDbEntity
  8
2-0
  6
Continuous
 62
     7
100
AcDbLine
 10
936.5722390142778
 20
1374.760294635307
 30
0.0
 11
936.5722390142778
 21
1209.760294635307
 31
0.0
  0
LINE
  5
2A3
330
6F
100
AcDbEntity
  8
2-0
  6
CENTER
 62
     8
100
AcDbLine
 10
642.572238778887
 20
1374.76029491507
 30
0.0
 11
936.5722387788871
 21
1209.76029491507
 31
0.0
  0
LINE
  5
2A4
330
6F
100
AcDbEntity
  8
2-0
  6
DASHED2
 62
     7
100
AcDbLine
 10
921.5722390142779
 20
1224.760294635307
 30
0.0
 11
657.572239014278
 21
1224.760294635308
 31
0.0
  0
LINE
  5
2A5
330
6F
100
AcDbEntity
  8
2-0
  6
DASHED2
 62
     7
100
AcDbLine
 10
657.572239014278
 20
1224.760294635308
 30
0.0
 11
657.572239014278
 21
1294.760294635307
 31
0.0
  0
LINE
  5
2A6
330
6F
100
AcDbEntity
  8
2-0
  6
DASHED2
 62
     7
100
AcDbLine
 10
657.572239014278
 20
1294.760294635307
 30
0.0
 11
921.5722390142779
 21
1294.760294635307
 31
0.0
  0
LINE
  5
2A7
330
6F
100
AcDbEntity
  8
2-0
  6
DASHED2
 62
     7
100
AcDbLine
 10
921.5722390142779
 20
1294.760294635307
 30
0.0
 11
921.5722390142779
 21
1224.760294635307
 31
0.0
  0
LINE
  5
2A8
330
6F
100
AcDbEntity
  8
3-0
  6
Continuous
 62
     7
100
AcDbLine
 10
1530.572238778887
 20
1367.76029491507
 30
0.0
 11
1236.572238778887
 21
1367.76029491507
 31
0.0
  0
LINE
  5
2A9
330
6F
100
AcDbEntity
  8
3-0
  6
Continuous
 62
     7
100
AcDbLine
 10
1530.572238778887
 20
1348.06029491507
 30
0.0
 11
1236.572238778887
 21
1348.06029491507
 31
0.0
  0
LINE
  5
2AA
330
6F
100
AcDbEntity
  8
3-0
  6
Continuous
 62
     7
100
AcDbLine
 10
1235.572238778887
 20
1367.76029491507
 30
0.0
 11
941.572238778887
 21
1367.76029491507
 31
0.0
  0
LINE
  5
2AB
330
6F
100
AcDbEntity
  8
3-0
  6
Continuous
 62
     7
100
AcDbLine
 10
1235.572238778887
 20
1348.06029491507
 30
0.0
 11
941.572238778887
 21
1348.06029491507
 31
0.0
  0
LINE
  5
2AC
330
6F
100
AcDbEntity
  8
2-0
  6
Continuous
 62
     7
100
AcDbLine
 10
1235.572239014274
 20
699.760294635307
 30
0.0
 11
941.572239014274
 21
699.760294635307
 31
0.0
  0
LINE
  5
2AD
330
6F
100
AcDbEntity
  8
2-0
  6
Continuous
 62
     7
100
AcDbLine
 10
941.572239014274
 20
699.760294635307
 30
0.0
 11
941.572239014274
 21
1374.760294635307
 31
0.0
  0
LINE
  5
2AE
330
6F
100
AcDbEntity
  8
2-0
  6
Continuous
 62
     7
100
AcDbLine
 10
941.572239014274
 20
1374.760294635307
 30
0.0
 11
1235.572239014274
 21
1374.760294635307
 31
0.0
  0
LINE
  5
2AF
330
6F
100
AcDbEntity
  8
2-0
  6
Continuous
 62
     7
100
AcDbLine
 10
1235.572239014274
 20
1374.760294635307
 30
0.0
 11
1235.572239014274
 21
699.760294635307
 31
0.0
  0
LINE
  5
2B0
330
6F
100
AcDbEntity
  8
2-0
  6
Continuous
 62
     7
100
AcDbLine
 10
1236.572239014274
 20
699.760294635307
 30
0.0
 11
1530.572239014274
 21
699.760294635307
 31
0.0
  0
LINE
  5
2B1
330
6F
100
AcDbEntity
  8
2-0
  6
Continuous
 62
     7
100
AcDbLine
 10
1530.572239014274
 20
699.760294635307
 30
0.0
 11
1530.572239014274
 21
1374.760294635307
 31
0.0
  0
LINE
  5
2B2
330
6F
100
AcDbEntity
  8
2-0
  6
Continuous
 62
     7
100
AcDbLine
 10
1530.572239014274
 20
1374.760294635307
 30
0.0
 11
1236.572239014274
 21
1374.760294635307
 31
0.0
  0
LINE
  5
2B3
330
6F
100
AcDbEntity
  8
2-0
  6
Continuous
 62
     7
100
AcDbLine
 10
1236.572239014274
 20
1374.760294635307
 30
0.0
 11
1236.572239014274
 21
699.760294635307
 31
0.0
  0
LINE
  5
2B4
330
6F
100
AcDbEntity
  8
3-0
  6
Continuous
 62
     7
100
AcDbLine
 10
936.5722387788871
 20
1367.76029491507
 30
0.0
 11
642.572238778887
 21
1367.76029491507
 31
0.0
  0
LINE
  5
2B5
330
6F
100
AcDbEntity
  8
3-0
  6
Continuous
 62
     7
100
AcDbLine
 10
936.5722387788871
 20
1348.06029491507
 30
0.0
 11
642.572238778887
 21
1348.06029491507
 31
0.0
  0
LINE
  5
2B6
330
6F
100
AcDbEntity
  8
3-0
  6
Continuous
 62
     7
100
AcDbLine
 10
936.5722387788871
 20
1197.76029491507
 30
0.0
 11
642.572238778887
 21
1197.76029491507
 31
0.0
  0
LINE
  5
2B7
330
6F
100
AcDbEntity
  8
3-0
  6
Continuous
 62
     7
100
AcDbLine
 10
936.5722387788871
 20
1178.06029491507
 30
0.0
 11
642.572238778887
 21
1178.06029491507
 31
0.0
  0
LINE
  5
2B8
330
6F
100
AcDbEntity
  8
2-0
  6
DASHED2
 62
     7
100
AcDbLine
 10
1486.572238778887
 20
1281.76029491507
 30
0.0
 11
1486.572238778887
 21
1399.76029491507
 31
0.0
  0
ARC
  5
2B9
330
6F
100
AcDbEntity
  8
2-0
  6
DASHED2
 62
     7
100
AcDbCircle
 10
1491.572238778887
 20
1399.76029491507
 30
0.0
 40
5.0
100
AcDbArc
 50
90.0
 51
180.0
  0
LINE
  5
2BA
330
6F
100
AcDbEntity
  8
2-0
  6
DASHED2
 62
     7
100
AcDbLine
 10
1491.572238778887
 20
1404.76029491507
 30
0.0
 11
1511.572238778887
 21
1404.76029491507
 31
0.0
  0
LINE
  5
2BB
330
6F
100
AcDbEntity
  8
2-0
  6
DASHED2
 62
     7
100
AcDbLine
 10
1511.572238778887
 20
1404.76029491507
 30
0.0
 11
1511.572238778887
 21
1409.76029491507
 31
0.0
  0
LINE
  5
2BC
330
6F
100
AcDbEntity
  8
2-0
  6
DASHED2
 62
     7
100
AcDbLine
 10
1321.572238778887
 20
1073.76029491507
 30
0.0
 11
1321.572238778887
 21
609.76029491507
 31
0.0
  0
LINE
  5
2BD
330
6F
100
AcDbEntity
  8
2-0
  6
DASHED2
 62
     7
100
AcDbLine
 10
1273.1458957145
 20
1167.760295039166
 30
0.0
 11
1273.1458957145
 21
1114.660295039166
 31
0.0
  0
ARC
  5
2BE
330
6F
100
AcDbEntity
  8
2-0
  6
DASHED2
 62
     7
100
AcDbCircle
 10
1283.145895778887
 20
1114.66029491507
 30
0.0
 40
10.0
100
AcDbArc
 50
180.000000000292
 51
270.0
  0
LINE
  5
2BF
330
6F
100
AcDbEntity
  8
2-0
  6
DASHED2
 62
     7
100
AcDbLine
 10
1283.1458957145
 20
1104.660295039166
 30
0.0
 11
1389.998582314048
 21
1104.660295039166
 31
0.0
  0
ARC
  5
2C0
330
6F
100
AcDbEntity
  8
2-0
  6
DASHED2
 62
     7
100
AcDbCircle
 10
1389.998582778887
 20
1114.66029491507
 30
0.0
 40
10.0
100
AcDbArc
 50
270.0
 51
359.999999999708
  0
LINE
  5
2C1
330
6F
100
AcDbEntity
  8
2-0
  6
DASHED2
 62
     7
100
AcDbLine
 10
1399.998582314047
 20
1114.660295039166
 30
0.0
 11
1399.998582314047
 21
1167.760295039166
 31
0.0
  0
LINE
  5
2C2
330
6F
100
AcDbEntity
  8
2-0
  6
DASHED2
 62
     7
100
AcDbLine
 10
1366.572239014272
 20
1104.660295039166
 30
0.0
 11
1366.572239014274
 21
1073.760294635307
 31
0.0
  0
LINE
  5
2C3
330
6F
100
AcDbEntity
  8
2-0
  6
DASHED2
 62
     7
100
AcDbLine
 10
1366.572239014274
 20
1073.760294635307
 30
0.0
 11
1306.572239014272
 21
1073.760294635307
 31
0.0
  0
LINE
  5
2C4
330
6F
100
AcDbEntity
  8
2-0
  6
DASHED2
 62
     7
100
AcDbLine
 10
1306.572239014272
 20
1073.760294635307
 30
0.0
 11
1306.572239014272
 21
1104.660295039166
 31
0.0
  0
LINE
  5
2C5
330
6F
100
AcDbEntity
  8
2-0
  6
DASHED2
 62
     7
100
AcDbLine
 10
1246.572238778887
 20
1256.76029491507
 30
0.0
 11
1426.572238778887
 21
1256.76029491507
 31
0.0
  0
LINE
  5
2C6
330
6F
100
AcDbEntity
  8
2-0
  6
DASHED2
 62
     7
100
AcDbLine
 10
1258.572238778887
 20
1239.55877091507
 30
0.0
 11
1267.661037778887
 21
1234.55877091507
 31
0.0
  0
LINE
  5
2C7
330
6F
100
AcDbEntity
  8
2-0
  6
DASHED2
 62
     7
100
AcDbLine
 10
1267.661037778887
 20
1234.55877091507
 30
0.0
 11
1405.483439778887
 21
1234.55877091507
 31
0.0
  0
LINE
  5
2C8
330
6F
100
AcDbEntity
  8
2-0
  6
DASHED2
 62
     7
100
AcDbLine
 10
1258.572238778887
 20
1239.55877091507
 30
0.0
 11
1414.572238778887
 21
1239.55877091507
 31
0.0
  0
LINE
  5
2C9
330
6F
100
AcDbEntity
  8
2-0
  6
DASHED2
 62
     7
100
AcDbLine
 10
1248.819895778887
 20
1256.76029491507
 30
0.0
 11
1248.819895778887
 21
1242.76029491507
 31
0.0
  0
LINE
  5
2CA
330
6F
100
AcDbEntity
  8
2-0
  6
DASHED2
 62
     7
100
AcDbLine
 10
1248.819895778887
 20
1242.76029491507
 30
0.0
 11
1258.572238778887
 21
1242.76029491507
 31
0.0
  0
LINE
  5
2CB
330
6F
100
AcDbEntity
  8
2-0
  6
DASHED2
 62
     7
100
AcDbLine
 10
1258.572238778887
 20
1256.76029491507
 30
0.0
 11
1258.572238778887
 21
1239.55877091507
 31
0.0
  0
LINE
  5
2CC
330
6F
100
AcDbEntity
  8
2-0
  6
DASHED2
 62
     7
100
AcDbLine
 10
1267.661037778887
 20
1234.55877091507
 30
0.0
 11
1267.661037778887
 21
1169.97506091507
 31
0.0
  0
ARC
  5
2CD
330
6F
100
AcDbEntity
  8
2-0
  6
DASHED2
 62
     7
100
AcDbCircle
 10
946.439799778887
 20
1399.62927091507
 30
0.0
 40
5.132732999999999
100
AcDbArc
 50
0.612
 51
88.521
  0
LINE
  5
2CE
330
6F
100
AcDbEntity
  8
B-0
  6
Continuous
 62
     4
100
AcDbLine
 10
642.5722388282739
 20
589.760294207137
 30
0.0
 11
642.5722388282739
 21
459.760294207137
 31
0.0
  0
LINE
  5
2CF
330
6F
100
AcDbEntity
  8
B-0
  6
Continuous
 62
     4
100
AcDbLine
 10
639.0722388282739
 20
589.760294207137
 30
0.0
 11
639.0722388282739
 21
459.760294207137
 31
0.0
  0
LINE
  5
2D0
330
6F
100
AcDbEntity
  8
B-0
  6
Continuous
 62
     4
100
AcDbLine
 10
652.5722388282739
 20
459.760294207137
 30
0.0
 11
662.5722388282739
 21
459.760294207137
 31
0.0
  0
LINE
  5
2D1
330
6F
100
AcDbEntity
  8
B-0
  6
Continuous
 62
     4
100
AcDbLine
 10
629.0722388282739
 20
459.760294207137
 30
0.0
 11
619.0722388282739
 21
459.760294207137
 31
0.0
  0
LINE
  5
2D2
330
6F
100
AcDbEntity
  8
B-0
  6
Continuous
 62
     4
100
AcDbLine
 10
640.8222388282739
 20
459.760294207137
 30
0.0
 11
667.8199838282739
 21
399.760294207137
 31
0.0
  0
LINE
  5
2D3
330
6F
100
AcDbEntity
  8
B-0
  6
Continuous
 62
     4
100
AcDbLine
 10
667.8199838282739
 20
399.760294207137
 30
0.0
 11
751.4240448282739
 21
399.760294207137
 31
0.0
  0
TEXT
  5
2D4
330
6F
100
AcDbEntity
  8
B-0
 62
     4
100
AcDbText
 10
678.8439999999999
 20
400.38
 30
0.0
 40
36.288
  1
3.5
100
AcDbText
  0
LINE
  5
2D5
330
6F
100
AcDbEntity
  8
B-0
  6
Continuous
 62
     4
100
AcDbLine
 10
642.5722388282739
 20
459.760294207137
 30
0.0
 11
639.0722388282739
 21
459.760294207137
 31
0.0
  0
LINE
  5
2D6
330
6F
100
AcDbEntity
  8
B-0
  6
Continuous
 62
     4
100
AcDbLine
 10
642.5722388282739
 20
459.760294207137
 30
0.0
 11
639.0722388282739
 21
459.760294207137
 31
0.0
  0
CIRCLE
  5
2D7
330
6F
100
AcDbEntity
  8
B-0
  6
Continuous
 62
     4
100
AcDbCircle
 10
642.5722390142759
 20
459.7602946353069
 30
0.0
 40
0.25
  0
CIRCLE
  5
2D8
330
6F
100
AcDbEntity
  8
B-0
  6
Continuous
 62
     4
100
AcDbCircle
 10
642.5722390142759
 20
459.7602946353069
 30
0.0
 40
0.1875
  0
CIRCLE
  5
2D9
330
6F
100
AcDbEntity
  8
B-0
  6
Continuous
 62
     4
100
AcDbCircle
 10
642.5722390142759
 20
459.7602946353069
 30
0.0
 40
0.125
  0
CIRCLE
  5
2DA
330
6F
100
AcDbEntity
  8
B-0
  6
Continuous
 62
     4
100
AcDbCircle
 10
642.5722390142759
 20
459.7602946353069
 30
0.0
 40
0.0625
  0
ARC
  5
2DB
330
6F
100
AcDbEntity
  8
B-0
 62
     4
100
AcDbCircle
 10
642.5722390142759
 20
459.7552946353069
 30
0.0
 40
2.5
100
AcDbArc
 50
180.1145914065301
 51
0.1145914059449637
  0
LINE
  5
2DC
330
6F
100
AcDbEntity
  8
B-0
 62
     4
100
AcDbLine
 10
647.572239014276
 20
459.7602946353579
 30
0.0
 11
652.5722390142759
 21
459.760294635409
 31
0.0
  0
CIRCLE
  5
2DD
330
6F
100
AcDbEntity
  8
B-0
  6
Continuous
 62
     4
100
AcDbCircle
 10
639.07223901428
 20
459.7602946353069
 30
0.0
 40
0.25
  0
CIRCLE
  5
2DE
330
6F
100
AcDbEntity
  8
B-0
  6
Continuous
 62
     4
100
AcDbCircle
 10
639.07223901428
 20
459.7602946353069
 30
0.0
 40
0.1875
  0
CIRCLE
  5
2DF
330
6F
100
AcDbEntity
  8
B-0
  6
Continuous
 62
     4
100
AcDbCircle
 10
639.07223901428
 20
459.7602946353069
 30
0.0
 40
0.125
  0
CIRCLE
  5
2E0
330
6F
100
AcDbEntity
  8
B-0
  6
Continuous
 62
     4
100
AcDbCircle
 10
639.07223901428
 20
459.7602946353069
 30
0.0
 40
0.0625
  0
ARC
  5
2E1
330
6F
100
AcDbEntity
  8
B-0
 62
     4
100
AcDbCircle
 10
639.07223901428
 20
459.7652946353069
 30
0.0
 40
2.5
100
AcDbArc
 50
0.1145914065300158
 51
180.114591405945
  0
LINE
  5
2E2
330
6F
100
AcDbEntity
  8
B-0
 62
     4
100
AcDbLine
 10
634.0722390142801
 20
459.7602946353069
 30
0.0
 11
629.07223901428
 21
459.7602946353069
 31
0.0
  0
LINE
  5
2E3
330
6F
100
AcDbEntity
  8
B-0
  6
Continuous
 62
     4
100
AcDbLine
 10
639.0722388282739
 20
489.760294207137
 30
0.0
 11
639.0722388282739
 21
359.760294207137
 31
0.0
  0
LINE
  5
2E4
330
6F
100
AcDbEntity
  8
B-0
  6
Continuous
 62
     4
100
AcDbLine
 10
1534.072238828274
 20
489.760294207137
 30
0.0
 11
1534.072238828274
 21
359.760294207137
 31
0.0
  0
TEXT
  5
2E5
330
6F
100
AcDbEntity
  8
B-0
 62
     4
100
AcDbText
 10
1055.795
 20
360.38
 30
0.0
 40
36.288
  1
895
100
AcDbText
  0
LINE
  5
2E6
330
6F
100
AcDbEntity
  8
B-0
  6
Continuous
 62
     4
100
AcDbLine
 10
1534.072239014272
 20
359.760294635307
 30
0.0
 11
639.07223901428
 21
359.760294635307
 31
0.0
  0
CIRCLE
  5
2E7
330
6F
100
AcDbEntity
  8
B-0
  6
Continuous
 62
     4
100
AcDbCircle
 10
1534.072239014272
 20
359.760294635307
 30
0.0
 40
0.25
  0
CIRCLE
  5
2E8
330
6F
100
AcDbEntity
  8
B-0
  6
Continuous
 62
     4
100
AcDbCircle
 10
1534.072239014272
 20
359.760294635307
 30
0.0
 40
0.1875
  0
CIRCLE
  5
2E9
330
6F
100
AcDbEntity
  8
B-0
  6
Continuous
 62
     4
100
AcDbCircle
 10
1534.072239014272
 20
359.760294635307
 30
0.0
 40
0.125
  0
CIRCLE
  5
2EA
330
6F
100
AcDbEntity
  8
B-0
  6
Continuous
 62
     4
100
AcDbCircle
 10
1534.072239014272
 20
359.760294635307
 30
0.0
 40
0.0625
  0
CIRCLE
  5
2EB
330
6F
100
AcDbEntity
  8
B-0
  6
Continuous
 62
     4
100
AcDbCircle
 10
639.07223901428
 20
359.760294635307
 30
0.0
 40
0.25
  0
CIRCLE
  5
2EC
330
6F
100
AcDbEntity
  8
B-0
  6
Continuous
 62
     4
100
AcDbCircle
 10
639.07223901428
 20
359.760294635307
 30
0.0
 40
0.1875
  0
CIRCLE
  5
2ED
330
6F
100
AcDbEntity
  8
B-0
  6
Continuous
 62
     4
100
AcDbCircle
 10
639.07223901428
 20
359.760294635307
 30
0.0
 40
0.125
  0
CIRCLE
  5
2EE
330
6F
100
AcDbEntity
  8
B-0
  6
Continuous
 62
     4
100
AcDbCircle
 10
639.07223901428
 20
359.760294635307
 30
0.0
 40
0.0625
  0
LINE
  5
2EF
330
6F
100
AcDbEntity
  8
B-0
  6
Continuous
 62
     4
100
AcDbLine
 10
1530.572238828274
 20
589.760294207137
 30
0.0
 11
1530.572238828274
 21
459.760294207137
 31
0.0
  0
LINE
  5
2F0
330
6F
100
AcDbEntity
  8
B-0
  6
Continuous
 62
     4
100
AcDbLine
 10
1236.572238828274
 20
589.760294207137
 30
0.0
 11
1236.572238828274
 21
459.760294207137
 31
0.0
  0
TEXT
  5
2F1
330
6F
100
AcDbEntity
  8
B-0
 62
     4
100
AcDbText
 10
1352.795
 20
460.3799999999999
 30
0.0
 40
36.288
  1
294
100
AcDbText
  0
LINE
  5
2F2
330
6F
100
AcDbEntity
  8
B-0
  6
Continuous
 62
     4
100
AcDbLine
 10
1236.572239014272
 20
459.7602946353069
 30
0.0
 11
1530.572239014272
 21
459.7602946353069
 31
0.0
  0
CIRCLE
  5
2F3
330
6F
100
AcDbEntity
  8
B-0
  6
Continuous
 62
     4
100
AcDbCircle
 10
1236.572239014272
 20
459.7602946353069
 30
0.0
 40
0.25
  0
CIRCLE
  5
2F4
330
6F
100
AcDbEntity
  8
B-0
  6
Continuous
 62
     4
100
AcDbCircle
 10
1236.572239014272
 20
459.7602946353069
 30
0.0
 40
0.1875
  0
CIRCLE
  5
2F5
330
6F
100
AcDbEntity
  8
B-0
  6
Continuous
 62
     4
100
AcDbCircle
 10
1236.572239014272
 20
459.7602946353069
 30
0.0
 40
0.125
  0
CIRCLE
  5
2F6
330
6F
100
AcDbEntity
  8
B-0
  6
Continuous
 62
     4
100
AcDbCircle
 10
1236.572239014272
 20
459.7602946353069
 30
0.0
 40
0.0625
  0
CIRCLE
  5
2F7
330
6F
100
AcDbEntity
  8
B-0
  6
Continuous
 62
     4
100
AcDbCircle
 10
1530.572239014272
 20
459.7602946353069
 30
0.0
 40
0.25
  0
CIRCLE
  5
2F8
330
6F
100
AcDbEntity
  8
B-0
  6
Continuous
 62
     4
100
AcDbCircle
 10
1530.572239014272
 20
459.7602946353069
 30
0.0
 40
0.1875
  0
CIRCLE
  5
2F9
330
6F
100
AcDbEntity
  8
B-0
  6
Continuous
 62
     4
100
AcDbCircle
 10
1530.572239014272
 20
459.7602946353069
 30
0.0
 40
0.125
  0
CIRCLE
  5
2FA
330
6F
100
AcDbEntity
  8
B-0
  6
Continuous
 62
     4
100
AcDbCircle
 10
1530.572239014272
 20
459.7602946353069
 30
0.0
 40
0.0625
  0
LINE
  5
2FB
330
6F
100
AcDbEntity
  8
B-0
  6
Continuous
 62
     4
100
AcDbLine
 10
1530.572238828274
 20
589.760294207137
 30
0.0
 11
1530.572238828274
 21
459.760294207137
 31
0.0
  0
LINE
  5
2FC
330
6F
100
AcDbEntity
  8
B-0
  6
Continuous
 62
     4
100
AcDbLine
 10
1534.072238828274
 20
589.760294207137
 30
0.0
 11
1534.072238828274
 21
459.760294207137
 31
0.0
  0
LINE
  5
2FD
330
6F
100
AcDbEntity
  8
B-0
  6
Continuous
 62
     4
100
AcDbLine
 10
1520.572238828274
 20
459.760294207137
 30
0.0
 11
1510.572238828274
 21
459.760294207137
 31
0.0
  0
LINE
  5
2FE
330
6F
100
AcDbEntity
  8
B-0
  6
Continuous
 62
     4
100
AcDbLine
 10
1544.072238828274
 20
459.760294207137
 30
0.0
 11
1554.072238828274
 21
459.760294207137
 31
0.0
  0
LINE
  5
2FF
330
6F
100
AcDbEntity
  8
B-0
  6
Continuous
 62
     4
100
AcDbLine
 10
1532.322238828274
 20
459.760294207137
 30
0.0
 11
1505.324494828274
 21
399.760294207137
 31
0.0
  0
LINE
  5
300
330
6F
100
AcDbEntity
  8
B-0
  6
Continuous
 62
     4
100
AcDbLine
 10
1505.324494828274
 20
399.760294207137
 30
0.0
 11
1421.720433828274
 21
399.760294207137
 31
0.0
  0
TEXT
  5
301
330
6F
100
AcDbEntity
  8
B-0
 62
     4
100
AcDbText
 10
1432.745
 20
400.38
 30
0.0
 40
36.288
  1
3.5
100
AcDbText
  0
LINE
  5
302
330
6F
100
AcDbEntity
  8
B-0
  6
Continuous
 62
     4
100
AcDbLine
 10
1530.572238828274
 20
459.760294207137
 30
0.0
 11
1534.072238828274
 21
459.760294207137
 31
0.0
  0
LINE
  5
303
330
6F
100
AcDbEntity
  8
B-0
  6
Continuous
 62
     4
100
AcDbLine
 10
1530.572238828274
 20
459.760294207137
 30
0.0
 11
1534.072238828274
 21
459.760294207137
 31
0.0
  0
CIRCLE
  5
304
330
6F
100
AcDbEntity
  8
B-0
  6
Continuous
 62
     4
100
AcDbCircle
 10
1530.572239014272
 20
459.7602946353069
 30
0.0
 40
0.25
  0
CIRCLE
  5
305
330
6F
100
AcDbEntity
  8
B-0
  6
Continuous
 62
     4
100
AcDbCircle
 10
1530.572239014272
 20
459.7602946353069
 30
0.0
 40
0.1875
  0
CIRCLE
  5
306
330
6F
100
AcDbEntity
  8
B-0
  6
Continuous
 62
     4
100
AcDbCircle
 10
1530.572239014272
 20
459.7602946353069
 30
0.0
 40
0.125
  0
CIRCLE
  5
307
330
6F
100
AcDbEntity
  8
B-0
  6
Continuous
 62
     4
100
AcDbCircle
 10
1530.572239014272
 20
459.7602946353069
 30
0.0
 40
0.0625
  0
ARC
  5
308
330
6F
100
AcDbEntity
  8
B-0
 62
     4
100
AcDbCircle
 10
1530.572239014272
 20
459.7652946353069
 30
0.0
 40
2.5
100
AcDbArc
 50
0.1145914065300158
 51
180.114591405945
  0
LINE
  5
309
330
6F
100
AcDbEntity
  8
B-0
 62
     4
100
AcDbLine
 10
1525.572239014272
 20
459.7602946353069
 30
0.0
 11
1520.572239014272
 21
459.7602946353069
 31
0.0
  0
CIRCLE
  5
30A
330
6F
100
AcDbEntity
  8
B-0
  6
Continuous
 62
     4
100
AcDbCircle
 10
1534.072239014272
 20
459.7602946353069
 30
0.0
 40
0.25
  0
CIRCLE
  5
30B
330
6F
100
AcDbEntity
  8
B-0
  6
Continuous
 62
     4
100
AcDbCircle
 10
1534.072239014272
 20
459.7602946353069
 30
0.0
 40
0.1875
  0
CIRCLE
  5
30C
330
6F
100
AcDbEntity
  8
B-0
  6
Continuous
 62
     4
100
AcDbCircle
 10
1534.072239014272
 20
459.7602946353069
 30
0.0
 40
0.125
  0
CIRCLE
  5
30D
330
6F
100
AcDbEntity
  8
B-0
  6
Continuous
 62
     4
100
AcDbCircle
 10
1534.072239014272
 20
459.7602946353069
 30
0.0
 40
0.0625
  0
ARC
  5
30E
330
6F
100
AcDbEntity
  8
B-0
 62
     4
100
AcDbCircle
 10
1534.072239014272
 20
459.7552946353069
 30
0.0
 40
2.5
100
AcDbArc
 50
180.1145914065301
 51
0.1145914059449637
  0
LINE
  5
30F
330
6F
100
AcDbEntity
  8
B-0
 62
     4
100
AcDbLine
 10
1539.072239014272
 20
459.7602946353579
 30
0.0
 11
1544.072239014272
 21
459.760294635409
 31
0.0
  0
LINE
  5
310
330
6F
100
AcDbEntity
  8
B-0
  6
Continuous
 62
     4
100
AcDbLine
 10
1236.572238828274
 20
589.760294207137
 30
0.0
 11
1236.572238828274
 21
459.760294207137
 31
0.0
  0
LINE
  5
311
330
6F
100
AcDbEntity
  8
B-0
  6
Continuous
 62
     4
100
AcDbLine
 10
1235.572238828274
 20
589.760294207137
 30
0.0
 11
1235.572238828274
 21
459.760294207137
 31
0.0
  0
TEXT
  5
312
330
6F
100
AcDbEntity
  8
B-0
 62
     4
100
AcDbText
 10
1262.653
 20
392.88
 30
0.0
 40
36.288
  1
1
100
AcDbText
  0
LINE
  5
313
330
6F
100
AcDbEntity
  8
B-0
  6
Continuous
 62
     4
100
AcDbLine
 10
1235.572239014272
 20
459.7602946353069
 30
0.0
 11
1236.572239014272
 21
459.7602946353069
 31
0.0
  0
CIRCLE
  5
314
330
6F
100
AcDbEntity
  8
B-0
  6
Continuous
 62
     4
100
AcDbCircle
 10
1235.572239014272
 20
459.7602946353069
 30
0.0
 40
0.25
  0
CIRCLE
  5
315
330
6F
100
AcDbEntity
  8
B-0
  6
Continuous
 62
     4
100
AcDbCircle
 10
1235.572239014272
 20
459.7602946353069
 30
0.0
 40
0.1875
  0
CIRCLE
  5
316
330
6F
100
AcDbEntity
  8
B-0
  6
Continuous
 62
     4
100
AcDbCircle
 10
1235.572239014272
 20
459.7602946353069
 30
0.0
 40
0.125
  0
CIRCLE
  5
317
330
6F
100
AcDbEntity
  8
B-0
  6
Continuous
 62
     4
100
AcDbCircle
 10
1235.572239014272
 20
459.7602946353069
 30
0.0
 40
0.0625
  0
CIRCLE
  5
318
330
6F
100
AcDbEntity
  8
B-0
  6
Continuous
 62
     4
100
AcDbCircle
 10
1236.572239014272
 20
459.7602946353069
 30
0.0
 40
0.25
  0
CIRCLE
  5
319
330
6F
100
AcDbEntity
  8
B-0
  6
Continuous
 62
     4
100
AcDbCircle
 10
1236.572239014272
 20
459.7602946353069
 30
0.0
 40
0.1875
  0
CIRCLE
  5
31A
330
6F
100
AcDbEntity
  8
B-0
  6
Continuous
 62
     4
100
AcDbCircle
 10
1236.572239014272
 20
459.7602946353069
 30
0.0
 40
0.125
  0
CIRCLE
  5
31B
330
6F
100
AcDbEntity
  8
B-0
  6
Continuous
 62
     4
100
AcDbCircle
 10
1236.572239014272
 20
459.7602946353069
 30
0.0
 40
0.0625
  0
LINE
  5
31C
330
6F
100
AcDbEntity
  8
B-0
  6
Continuous
 62
     4
100
AcDbLine
 10
1235.572238828274
 20
589.760294207137
 30
0.0
 11
1235.572238828274
 21
459.760294207137
 31
0.0
  0
LINE
  5
31D
330
6F
100
AcDbEntity
  8
B-0
  6
Continuous
 62
     4
100
AcDbLine
 10
941.5722388282739
 20
589.760294207137
 30
0.0
 11
941.5722388282739
 21
459.760294207137
 31
0.0
  0
TEXT
  5
31E
330
6F
100
AcDbEntity
  8
B-0
 62
     4
100
AcDbText
 10
1057.795
 20
460.3799999999999
 30
0.0
 40
36.288
  1
294
100
AcDbText
  0
LINE
  5
31F
330
6F
100
AcDbEntity
  8
B-0
  6
Continuous
 62
     4
100
AcDbLine
 10
941.572239014272
 20
459.7602946353069
 30
0.0
 11
1235.572239014272
 21
459.7602946353069
 31
0.0
  0
CIRCLE
  5
320
330
6F
100
AcDbEntity
  8
B-0
  6
Continuous
 62
     4
100
AcDbCircle
 10
941.572239014272
 20
459.7602946353069
 30
0.0
 40
0.25
  0
CIRCLE
  5
321
330
6F
100
AcDbEntity
  8
B-0
  6
Continuous
 62
     4
100
AcDbCircle
 10
941.572239014272
 20
459.7602946353069
 30
0.0
 40
0.1875
  0
CIRCLE
  5
322
330
6F
100
AcDbEntity
  8
B-0
  6
Continuous
 62
     4
100
AcDbCircle
 10
941.572239014272
 20
459.7602946353069
 30
0.0
 40
0.125
  0
CIRCLE
  5
323
330
6F
100
AcDbEntity
  8
B-0
  6
Continuous
 62
     4
100
AcDbCircle
 10
941.572239014272
 20
459.7602946353069
 30
0.0
 40
0.0625
  0
CIRCLE
  5
324
330
6F
100
AcDbEntity
  8
B-0
  6
Continuous
 62
     4
100
AcDbCircle
 10
1235.572239014272
 20
459.7602946353069
 30
0.0
 40
0.25
  0
CIRCLE
  5
325
330
6F
100
AcDbEntity
  8
B-0
  6
Continuous
 62
     4
100
AcDbCircle
 10
1235.572239014272
 20
459.7602946353069
 30
0.0
 40
0.1875
  0
CIRCLE
  5
326
330
6F
100
AcDbEntity
  8
B-0
  6
Continuous
 62
     4
100
AcDbCircle
 10
1235.572239014272
 20
459.7602946353069
 30
0.0
 40
0.125
  0
CIRCLE
  5
327
330
6F
100
AcDbEntity
  8
B-0
  6
Continuous
 62
     4
100
AcDbCircle
 10
1235.572239014272
 20
459.7602946353069
 30
0.0
 40
0.0625
  0
LINE
  5
328
330
6F
100
AcDbEntity
  8
B-0
  6
Continuous
 62
     4
100
AcDbLine
 10
941.5722388282739
 20
589.760294207137
 30
0.0
 11
941.5722388282739
 21
459.760294207137
 31
0.0
  0
LINE
  5
329
330
6F
100
AcDbEntity
  8
B-0
  6
Continuous
 62
     4
100
AcDbLine
 10
936.5722388282739
 20
589.760294207137
 30
0.0
 11
936.5722388282739
 21
459.760294207137
 31
0.0
  0
TEXT
  5
32A
330
6F
100
AcDbEntity
  8
B-0
 62
     4
100
AcDbText
 10
970.006
 20
392.88
 30
0.0
 40
36.288
  1
5
100
AcDbText
  0
LINE
  5
32B
330
6F
100
AcDbEntity
  8
B-0
  6
Continuous
 62
     4
100
AcDbLine
 10
936.5722390142719
 20
459.7602946353069
 30
0.0
 11
941.572239014272
 21
459.7602946353069
 31
0.0
  0
CIRCLE
  5
32C
330
6F
100
AcDbEntity
  8
B-0
  6
Continuous
 62
     4
100
AcDbCircle
 10
936.5722390142719
 20
459.7602946353069
 30
0.0
 40
0.25
  0
CIRCLE
  5
32D
330
6F
100
AcDbEntity
  8
B-0
  6
Continuous
 62
     4
100
AcDbCircle
 10
936.5722390142719
 20
459.7602946353069
 30
0.0
 40
0.1875
  0
CIRCLE
  5
32E
330
6F
100
AcDbEntity
  8
B-0
  6
Continuous
 62
     4
100
AcDbCircle
 10
936.5722390142719
 20
459.7602946353069
 30
0.0
 40
0.125
  0
CIRCLE
  5
32F
330
6F
100
AcDbEntity
  8
B-0
  6
Continuous
 62
     4
100
AcDbCircle
 10
936.5722390142719
 20
459.7602946353069
 30
0.0
 40
0.0625
  0
CIRCLE
  5
330
330
6F
100
AcDbEntity
  8
B-0
  6
Continuous
 62
     4
100
AcDbCircle
 10
941.572239014272
 20
459.7602946353069
 30
0.0
 40
0.25
  0
CIRCLE
  5
331
330
6F
100
AcDbEntity
  8
B-0
  6
Continuous
 62
     4
100
AcDbCircle
 10
941.572239014272
 20
459.7602946353069
 30
0.0
 40
0.1875
  0
CIRCLE
  5
332
330
6F
100
AcDbEntity
  8
B-0
  6
Continuous
 62
     4
100
AcDbCircle
 10
941.572239014272
 20
459.7602946353069
 30
0.0
 40
0.125
  0
CIRCLE
  5
333
330
6F
100
AcDbEntity
  8
B-0
  6
Continuous
 62
     4
100
AcDbCircle
 10
941.572239014272
 20
459.7602946353069
 30
0.0
 40
0.0625
  0
LINE
  5
334
330
6F
100
AcDbEntity
  8
B-0
  6
Continuous
 62
     4
100
AcDbLine
 10
936.5722388282739
 20
589.760294207137
 30
0.0
 11
936.5722388282739
 21
459.760294207137
 31
0.0
  0
LINE
  5
335
330
6F
100
AcDbEntity
  8
B-0
  6
Continuous
 62
     4
100
AcDbLine
 10
642.5722388282739
 20
589.760294207137
 30
0.0
 11
642.5722388282739
 21
459.760294207137
 31
0.0
  0
TEXT
  5
336
330
6F
100
AcDbEntity
  8
B-0
 62
     4
100
AcDbText
 10
758.7949999999999
 20
460.3799999999999
 30
0.0
 40
36.288
  1
294
100
AcDbText
  0
LINE
  5
337
330
6F
100
AcDbEntity
  8
B-0
  6
Continuous
 62
     4
100
AcDbLine
 10
642.5722390142759
 20
459.7602946353069
 30
0.0
 11
936.5722390142719
 21
459.7602946353069
 31
0.0
  0
CIRCLE
  5
338
330
6F
100
AcDbEntity
  8
B-0
  6
Continuous
 62
     4
100
AcDbCircle
 10
642.5722390142759
 20
459.7602946353069
 30
0.0
 40
0.25
  0
CIRCLE
  5
339
330
6F
100
AcDbEntity
  8
B-0
  6
Continuous
 62
     4
100
AcDbCircle
 10
642.5722390142759
 20
459.7602946353069
 30
0.0
 40
0.1875
  0
CIRCLE
  5
33A
330
6F
100
AcDbEntity
  8
B-0
  6
Continuous
 62
     4
100
AcDbCircle
 10
642.5722390142759
 20
459.7602946353069
 30
0.0
 40
0.125
  0
CIRCLE
  5
33B
330
6F
100
AcDbEntity
  8
B-0
  6
Continuous
 62
     4
100
AcDbCircle
 10
642.5722390142759
 20
459.7602946353069
 30
0.0
 40
0.0625
  0
CIRCLE
  5
33C
330
6F
100
AcDbEntity
  8
B-0
  6
Continuous
 62
     4
100
AcDbCircle
 10
936.5722390142719
 20
459.7602946353069
 30
0.0
 40
0.25
  0
CIRCLE
  5
33D
330
6F
100
AcDbEntity
  8
B-0
  6
Continuous
 62
     4
100
AcDbCircle
 10
936.5722390142719
 20
459.7602946353069
 30
0.0
 40
0.1875
  0
CIRCLE
  5
33E
330
6F
100
AcDbEntity
  8
B-0
  6
Continuous
 62
     4
100
AcDbCircle
 10
936.5722390142719
 20
459.7602946353069
 30
0.0
 40
0.125
  0
CIRCLE
  5
33F
330
6F
100
AcDbEntity
  8
B-0
  6
Continuous
 62
     4
100
AcDbCircle
 10
936.5722390142719
 20
459.7602946353069
 30
0.0
 40
0.0625
  0
LINE
  5
340
330
6F
100
AcDbEntity
  8
1-0
  6
Continuous
 62
     4
100
AcDbLine
 10
1099.072238828274
 20
1067.760294207137
 30
0.0
 11
1059.002796828274
 21
1067.760294207137
 31
0.0
  0
LINE
  5
341
330
6F
100
AcDbEntity
  8
1-0
  6
Continuous
 62
     4
100
AcDbLine
 10
1215.572238828274
 20
699.7602942071369
 30
0.0
 11
1059.002796828274
 21
699.7602942071369
 31
0.0
  0
TEXT
  5
342
330
6F
100
AcDbEntity
  8
1-0
 62
     4
100
AcDbText
 10
1058.383
 20
850.1599999999999
 30
0.0
 40
36.288
  1
368
 50
90.0
100
AcDbText
  0
LINE
  5
343
330
6F
100
AcDbEntity
  8
1-0
  6
Continuous
 62
     4
100
AcDbLine
 10
1059.002797195893
 20
699.760294635307
 30
0.0
 11
1059.002797195893
 21
1067.760294635307
 31
0.0
  0
CIRCLE
  5
344
330
6F
100
AcDbEntity
  8
1-0
  6
Continuous
 62
     4
100
AcDbCircle
 10
1059.002797195893
 20
699.760294635307
 30
0.0
 40
0.25
  0
CIRCLE
  5
345
330
6F
100
AcDbEntity
  8
1-0
  6
Continuous
 62
     4
100
AcDbCircle
 10
1059.002797195893
 20
699.760294635307
 30
0.0
 40
0.1875
  0
CIRCLE
  5
346
330
6F
100
AcDbEntity
  8
1-0
  6
Continuous
 62
     4
100
AcDbCircle
 10
1059.002797195893
 20
699.760294635307
 30
0.0
 40
0.125
  0
CIRCLE
  5
347
330
6F
100
AcDbEntity
  8
1-0
  6
Continuous
 62
     4
100
AcDbCircle
 10
1059.002797195893
 20
699.760294635307
 30
0.0
 40
0.0625
  0
CIRCLE
  5
348
330
6F
100
AcDbEntity
  8
1-0
  6
Continuous
 62
     4
100
AcDbCircle
 10
1059.002797195893
 20
1067.760294635307
 30
0.0
 40
0.25
  0
CIRCLE
  5
349
330
6F
100
AcDbEntity
  8
1-0
  6
Continuous
 62
     4
100
AcDbCircle
 10
1059.002797195893
 20
1067.760294635307
 30
0.0
 40
0.1875
  0
CIRCLE
  5
34A
330
6F
100
AcDbEntity
  8
1-0
  6
Continuous
 62
     4
100
AcDbCircle
 10
1059.002797195893
 20
1067.760294635307
 30
0.0
 40
0.125
  0
CIRCLE
  5
34B
330
6F
100
AcDbEntity
  8
1-0
  6
Continuous
 62
     4
100
AcDbCircle
 10
1059.002797195893
 20
1067.760294635307
 30
0.0
 40
0.0625
  0
LINE
  5
34C
330
6F
100
AcDbEntity
  8
4-0
  6
DASHED2
 62
     7
100
AcDbLine
 10
972.572238778887
 20
834.7602949150701
 30
0.0
 11
1216.572238778887
 21
834.7602949150701
 31
0.0
  0
LINE
  5
34D
330
6F
100
AcDbEntity
  8
4-0
  6
DASHED2
 62
     7
100
AcDbLine
 10
964.572238778887
 20
842.7602949150701
 30
0.0
 11
964.572238778887
 21
1064.76029491507
 31
0.0
  0
LINE
  5
34E
330
6F
100
AcDbEntity
  8
4-0
  6
DASHED2
 62
     7
100
AcDbLine
 10
1224.572238778887
 20
1064.76029491507
 30
0.0
 11
1224.572238778887
 21
842.7602949150701
 31
0.0
  0
ARC
  5
34F
330
6F
100
AcDbEntity
  8
4-0
  6
DOT
 62
     7
100
AcDbCircle
 10
972.572238778887
 20
842.7602949150701
 30
0.0
 40
8.0
100
AcDbArc
 50
180.0
 51
270.0
  0
ARC
  5
350
330
6F
100
AcDbEntity
  8
4-0
  6
DOT
 62
     7
100
AcDbCircle
 10
1216.572238778887
 20
842.7602949150701
 30
0.0
 40
8.0
100
AcDbArc
 50
270.0
 51
0.0
  0
ARC
  5
351
330
6F
100
AcDbEntity
  8
4-0
  6
DASHED2
 62
     7
100
AcDbCircle
 10
1223.572238778887
 20
1063.76029491507
 30
0.0
 40
1.0
100
AcDbArc
 50
0.0
 51
90.0
  0
ARC
  5
352
330
6F
100
AcDbEntity
  8
4-0
  6
DASHED2
 62
     7
100
AcDbCircle
 10
965.572238778887
 20
1063.76029491507
 30
0.0
 40
1.0
100
AcDbArc
 50
90.0
 51
180.0
  0
ARC
  5
353
330
6F
100
AcDbEntity
  8
4-0
  6
DASHED2
 62
     7
100
AcDbCircle
 10
1219.572238778887
 20
869.76029491507
 30
0.0
 40
7.0
100
AcDbArc
 50
90.0
 51
270.0
  0
LINE
  5
354
330
6F
100
AcDbEntity
  8
4-0
  6
DASHED2
 62
     7
100
AcDbLine
 10
1219.572238778887
 20
876.7602949150701
 30
0.0
 11
1224.572238778887
 21
876.7602949150701
 31
0.0
  0
LINE
  5
355
330
6F
100
AcDbEntity
  8
4-0
  6
DASHED2
 62
     7
100
AcDbLine
 10
1219.572238778887
 20
862.76029491507
 30
0.0
 11
1224.572238778887
 21
862.76029491507
 31
0.0
  0
CIRCLE
  5
356
330
6F
100
AcDbEntity
  8
4-0
  6
DASHED2
 62
     7
100
AcDbCircle
 10
1219.572238778887
 20
869.76029491507
 30
0.0
 40
2.0
  0
ARC
  5
357
330
6F
100
AcDbEntity
  8
4-0
  6
DASHED2
 62
     7
100
AcDbCircle
 10
1219.572238778887
 20
1029.76029491507
 30
0.0
 40
7.0
100
AcDbArc
 50
90.0
 51
270.0
  0
LINE
  5
358
330
6F
100
AcDbEntity
  8
4-0
  6
DASHED2
 62
     7
100
AcDbLine
 10
1219.572238778887
 20
1036.76029491507
 30
0.0
 11
1224.572238778887
 21
1036.76029491507
 31
0.0
  0
LINE
  5
359
330
6F
100
AcDbEntity
  8
4-0
  6
DASHED2
 62
     7
100
AcDbLine
 10
1219.572238778887
 20
1022.76029491507
 30
0.0
 11
1224.572238778887
 21
1022.76029491507
 31
0.0
  0
CIRCLE
  5
35A
330
6F
100
AcDbEntity
  8
4-0
  6
DASHED2
 62
     7
100
AcDbCircle
 10
1219.572238778887
 20
1029.76029491507
 30
0.0
 40
2.0
  0
ARC
  5
35B
330
6F
100
AcDbEntity
  8
4-0
  6
DASHED2
 62
     7
100
AcDbCircle
 10
969.5722387788871
 20
869.76029491507
 30
0.0
 40
7.0
100
AcDbArc
 50
270.0
 51
90.0
  0
LINE
  5
35C
330
6F
100
AcDbEntity
  8
4-0
  6
DASHED2
 62
     7
100
AcDbLine
 10
969.5722387788871
 20
876.7602949150701
 30
0.0
 11
964.572238778887
 21
876.7602949150701
 31
0.0
  0
CIRCLE
  5
35D
330
6F
100
AcDbEntity
  8
4-0
  6
DASHED2
 62
     7
100
AcDbCircle
 10
969.5722387788871
 20
869.76029491507
 30
0.0
 40
2.0
  0
ARC
  5
35E
330
6F
100
AcDbEntity
  8
4-0
  6
DASHED2
 62
     7
100
AcDbCircle
 10
969.5722387788871
 20
1029.76029491507
 30
0.0
 40
7.0
100
AcDbArc
 50
270.0
 51
90.0
  0
LINE
  5
35F
330
6F
100
AcDbEntity
  8
4-0
  6
DASHED2
 62
     7
100
AcDbLine
 10
969.5722387788871
 20
1036.76029491507
 30
0.0
 11
964.572238778887
 21
1036.76029491507
 31
0.0
  0
LINE
  5
360
330
6F
100
AcDbEntity
  8
4-0
  6
DASHED2
 62
     7
100
AcDbLine
 10
969.5722387788871
 20
1022.76029491507
 30
0.0
 11
964.572238778887
 21
1022.76029491507
 31
0.0
  0
CIRCLE
  5
361
330
6F
100
AcDbEntity
  8
4-0
  6
DASHED2
 62
     7
100
AcDbCircle
 10
969.5722387788871
 20
1029.76029491507
 30
0.0
 40
2.0
  0
LINE
  5
362
330
6F
100
AcDbEntity
  8
4-0
  6
DASHED2
 62
     7
100
AcDbLine
 10
967.5722387788869
 20
1067.76029491507
 30
0.0
 11
1221.572238778887
 21
1067.76029491507
 31
0.0
  0
ARC
  5
363
330
6F
100
AcDbEntity
  8
4-0
  6
DASHED2
 62
     7
100
AcDbCircle
 10
967.5722387788869
 20
1064.76029491507
 30
0.0
 40
3.0
100
AcDbArc
 50
90.0
 51
180.0
  0
ARC
  5
364
330
6F
100
AcDbEntity
  8
4-0
  6
DASHED2
 62
     7
100
AcDbCircle
 10
1221.572238778887
 20
1064.76029491507
 30
0.0
 40
3.0
100
AcDbArc
 50
0.0
 51
90.0
  0
LINE
  5
365
330
6F
100
AcDbEntity
  8
C-0
  6
CENTER
 62
     6
100
AcDbLine
 10
1232.677923778887
 20
2325.01388391507
 30
0.0
 11
1416.572238778887
 21
2325.01388391507
 31
0.0
  0
LINE
  5
366
330
6F
100
AcDbEntity
  8
C-0
  6
CENTER
 62
     6
100
AcDbLine
 10
1336.572238778887
 20
2245.01388391507
 30
0.0
 11
1336.572238778887
 21
2588.328507915071
 31
0.0
  0
LINE
  5
367
330
6F
100
AcDbEntity
  8
2-0
  6
DASHED2
 62
     7
100
AcDbLine
 10
2904.704829778887
 20
609.37781891507
 30
0.0
 11
2889.704829778887
 21
609.37781891507
 31
0.0
  0
LINE
  5
368
330
6F
100
AcDbEntity
  8
2-0
  6
Continuous
 62
     7
100
AcDbLine
 10
2904.704829778887
 20
609.37781891507
 30
0.0
 11
2504.704829778887
 21
609.76029491507
 31
0.0
  0
LINE
  5
369
330
6F
100
AcDbEntity
  8
B-0
  6
Continuous
 62
     4
100
AcDbLine
 10
2444.704829828274
 20
1496.022786207137
 30
0.0
 11
2444.704829828274
 21
1626.022786207137
 31
0.0
  0
LINE
  5
36A
330
6F
100
AcDbEntity
  8
B-0
  6
Continuous
 62
     4
100
AcDbLine
 10
2904.704829828274
 20
1496.022786207137
 30
0.0
 11
2904.704829828274
 21
1626.022786207137
 31
0.0
  0
TEXT
  5
36B
330
6F
100
AcDbEntity
  8
B-0
 62
     4
100
AcDbText
 10
2643.927
 20
1626.643
 30
0.0
 40
36.288
  1
460
100
AcDbText
  0
LINE
  5
36C
330
6F
100
AcDbEntity
  8
B-0
  6
Continuous
 62
     4
100
AcDbLine
 10
2904.704829834601
 20
1626.022786532174
 30
0.0
 11
2444.704829834594
 21
1626.022786532174
 31
0.0
  0
CIRCLE
  5
36D
330
6F
100
AcDbEntity
  8
B-0
  6
Continuous
 62
     4
100
AcDbCircle
 10
2904.704829834601
 20
1626.022786532174
 30
0.0
 40
0.25
  0
CIRCLE
  5
36E
330
6F
100
AcDbEntity
  8
B-0
  6
Continuous
 62
     4
100
AcDbCircle
 10
2904.704829834601
 20
1626.022786532174
 30
0.0
 40
0.1875
  0
CIRCLE
  5
36F
330
6F
100
AcDbEntity
  8
B-0
  6
Continuous
 62
     4
100
AcDbCircle
 10
2904.704829834601
 20
1626.022786532174
 30
0.0
 40
0.125
  0
CIRCLE
  5
370
330
6F
100
AcDbEntity
  8
B-0
  6
Continuous
 62
     4
100
AcDbCircle
 10
2904.704829834601
 20
1626.022786532174
 30
0.0
 40
0.0625
  0
CIRCLE
  5
371
330
6F
100
AcDbEntity
  8
B-0
  6
Continuous
 62
     4
100
AcDbCircle
 10
2444.704829834594
 20
1626.022786532174
 30
0.0
 40
0.25
  0
CIRCLE
  5
372
330
6F
100
AcDbEntity
  8
B-0
  6
Continuous
 62
     4
100
AcDbCircle
 10
2444.704829834594
 20
1626.022786532174
 30
0.0
 40
0.1875
  0
CIRCLE
  5
373
330
6F
100
AcDbEntity
  8
B-0
  6
Continuous
 62
     4
100
AcDbCircle
 10
2444.704829834594
 20
1626.022786532174
 30
0.0
 40
0.125
  0
CIRCLE
  5
374
330
6F
100
AcDbEntity
  8
B-0
  6
Continuous
 62
     4
100
AcDbCircle
 10
2444.704829834594
 20
1626.022786532174
 30
0.0
 40
0.0625
  0
LINE
  5
375
330
6F
100
AcDbEntity
  8
2-0
  6
DASHED2
 62
     7
100
AcDbLine
 10
2889.704829778887
 20
714.7602949150701
 30
0.0
 11
2473.704829778887
 21
714.7602949150701
 31
0.0
  0
LINE
  5
376
330
6F
100
AcDbEntity
  8
B-0
  6
Continuous
 62
     4
100
AcDbLine
 10
2504.704829828274
 20
589.760294207137
 30
0.0
 11
2504.704829828274
 21
459.760294207137
 31
0.0
  0
LINE
  5
377
330
6F
100
AcDbEntity
  8
B-0
  6
Continuous
 62
     4
100
AcDbLine
 10
2904.704829828274
 20
589.760294207137
 30
0.0
 11
2904.704829828274
 21
459.760294207137
 31
0.0
  0
TEXT
  5
378
330
6F
100
AcDbEntity
  8
B-0
 62
     4
100
AcDbText
 10
2673.927
 20
460.3799999999999
 30
0.0
 40
36.288
  1
400
100
AcDbText
  0
LINE
  5
379
330
6F
100
AcDbEntity
  8
B-0
  6
Continuous
 62
     4
100
AcDbLine
 10
2904.704829834601
 20
459.760294635309
 30
0.0
 11
2504.7048298346
 21
459.760294635309
 31
0.0
  0
CIRCLE
  5
37A
330
6F
100
AcDbEntity
  8
B-0
  6
Continuous
 62
     4
100
AcDbCircle
 10
2904.704829834601
 20
459.760294635309
 30
0.0
 40
0.25
  0
CIRCLE
  5
37B
330
6F
100
AcDbEntity
  8
B-0
  6
Continuous
 62
     4
100
AcDbCircle
 10
2904.704829834601
 20
459.760294635309
 30
0.0
 40
0.1875
  0
CIRCLE
  5
37C
330
6F
100
AcDbEntity
  8
B-0
  6
Continuous
 62
     4
100
AcDbCircle
 10
2904.704829834601
 20
459.760294635309
 30
0.0
 40
0.125
  0
CIRCLE
  5
37D
330
6F
100
AcDbEntity
  8
B-0
  6
Continuous
 62
     4
100
AcDbCircle
 10
2904.704829834601
 20
459.760294635309
 30
0.0
 40
0.0625
  0
CIRCLE
  5
37E
330
6F
100
AcDbEntity
  8
B-0
  6
Continuous
 62
     4
100
AcDbCircle
 10
2504.7048298346
 20
459.760294635309
 30
0.0
 40
0.25
  0
CIRCLE
  5
37F
330
6F
100
AcDbEntity
  8
B-0
  6
Continuous
 62
     4
100
AcDbCircle
 10
2504.7048298346
 20
459.760294635309
 30
0.0
 40
0.1875
  0
CIRCLE
  5
380
330
6F
100
AcDbEntity
  8
B-0
  6
Continuous
 62
     4
100
AcDbCircle
 10
2504.7048298346
 20
459.760294635309
 30
0.0
 40
0.125
  0
CIRCLE
  5
381
330
6F
100
AcDbEntity
  8
B-0
  6
Continuous
 62
     4
100
AcDbCircle
 10
2504.7048298346
 20
459.760294635309
 30
0.0
 40
0.0625
  0
LINE
  5
382
330
6F
100
AcDbEntity
  8
B-0
  6
Continuous
 62
     4
100
AcDbLine
 10
2452.704829828274
 20
589.760294207137
 30
0.0
 11
2452.704829828274
 21
359.760294207137
 31
0.0
  0
LINE
  5
383
330
6F
100
AcDbEntity
  8
B-0
  6
Continuous
 62
     4
100
AcDbLine
 10
2904.704829828274
 20
589.760294207137
 30
0.0
 11
2904.704829828274
 21
359.760294207137
 31
0.0
  0
TEXT
  5
384
330
6F
100
AcDbEntity
  8
B-0
 62
     4
100
AcDbText
 10
2647.927000000001
 20
360.38
 30
0.0
 40
36.288
  1
452
100
AcDbText
  0
LINE
  5
385
330
6F
100
AcDbEntity
  8
B-0
  6
Continuous
 62
     4
100
AcDbLine
 10
2904.7048298346
 20
359.760294635309
 30
0.0
 11
2452.704829834603
 21
359.760294635309
 31
0.0
  0
CIRCLE
  5
386
330
6F
100
AcDbEntity
  8
B-0
  6
Continuous
 62
     4
100
AcDbCircle
 10
2904.7048298346
 20
359.760294635309
 30
0.0
 40
0.25
  0
CIRCLE
  5
387
330
6F
100
AcDbEntity
  8
B-0
  6
Continuous
 62
     4
100
AcDbCircle
 10
2904.7048298346
 20
359.760294635309
 30
0.0
 40
0.1875
  0
CIRCLE
  5
388
330
6F
100
AcDbEntity
  8
B-0
  6
Continuous
 62
     4
100
AcDbCircle
 10
2904.7048298346
 20
359.760294635309
 30
0.0
 40
0.125
  0
CIRCLE
  5
389
330
6F
100
AcDbEntity
  8
B-0
  6
Continuous
 62
     4
100
AcDbCircle
 10
2904.7048298346
 20
359.760294635309
 30
0.0
 40
0.0625
  0
CIRCLE
  5
38A
330
6F
100
AcDbEntity
  8
B-0
  6
Continuous
 62
     4
100
AcDbCircle
 10
2452.704829834603
 20
359.760294635309
 30
0.0
 40
0.25
  0
CIRCLE
  5
38B
330
6F
100
AcDbEntity
  8
B-0
  6
Continuous
 62
     4
100
AcDbCircle
 10
2452.704829834603
 20
359.760294635309
 30
0.0
 40
0.1875
  0
CIRCLE
  5
38C
330
6F
100
AcDbEntity
  8
B-0
  6
Continuous
 62
     4
100
AcDbCircle
 10
2452.704829834603
 20
359.760294635309
 30
0.0
 40
0.125
  0
CIRCLE
  5
38D
330
6F
100
AcDbEntity
  8
B-0
  6
Continuous
 62
     4
100
AcDbCircle
 10
2452.704829834603
 20
359.760294635309
 30
0.0
 40
0.0625
  0
LINE
  5
38E
330
6F
100
AcDbEntity
  8
2-0
  6
DASHED2
 62
     7
100
AcDbLine
 10
2889.704829778887
 20
699.76029491507
 30
0.0
 11
2474.704829778887
 21
699.76029491507
 31
0.0
  0
LINE
  5
38F
330
6F
100
AcDbEntity
  8
2-0
  6
Continuous
 62
     7
100
AcDbLine
 10
2879.704829778887
 20
1409.76029491507
 30
0.0
 11
2446.704829778887
 21
1409.76029491507
 31
0.0
  0
LINE
  5
390
330
6F
100
AcDbEntity
  8
2-0
  6
Continuous
 62
     7
100
AcDbLine
 10
2904.704829778887
 20
1384.76029491507
 30
0.0
 11
2446.704829778887
 21
1384.76029491507
 31
0.0
  0
LINE
  5
391
330
6F
100
AcDbEntity
  8
C-0
  6
CENTER
 62
     6
100
AcDbLine
 10
2661.704829778887
 20
1399.76029491507
 30
0.0
 11
2661.704829778887
 21
580.00653591507
 31
0.0
  0
LINE
  5
392
330
6F
100
AcDbEntity
  8
2-0
  6
DASHED2
 62
     7
100
AcDbLine
 10
2889.704829778887
 20
1384.76029491507
 30
0.0
 11
2889.704540778887
 21
609.38952791507
 31
0.0
  0
LINE
  5
393
330
6F
100
AcDbEntity
  8
2-0
  6
Continuous
 62
     7
100
AcDbLine
 10
2904.704829778887
 20
1384.76029491507
 30
0.0
 11
2904.704829778887
 21
609.37781891507
 31
0.0
  0
LINE
  5
394
330
6F
100
AcDbEntity
  8
2-0
  6
Continuous
 62
     7
100
AcDbLine
 10
2929.688711778887
 20
513.2725689150699
 30
0.0
 11
2689.805366778887
 21
699.76029491507
 31
0.0
  0
LINE
  5
395
330
6F
100
AcDbEntity
  8
B-0
  6
Continuous
 62
     4
100
AcDbLine
 10
2661.704829828274
 20
830.3553662071369
 30
0.0
 11
2661.704829828274
 21
815.6871072071369
 31
0.0
  0
LINE
  5
396
330
6F
100
AcDbEntity
  8
B-0
  6
Continuous
 62
     4
100
AcDbLine
 10
2904.704829828274
 20
945.687107207137
 30
0.0
 11
2904.704829828274
 21
815.6871072071369
 31
0.0
  0
TEXT
  5
397
330
6F
100
AcDbEntity
  8
B-0
 62
     4
100
AcDbText
 10
2752.427
 20
816.3070000000001
 30
0.0
 40
36.288
  1
243
100
AcDbText
  0
LINE
  5
398
330
6F
100
AcDbEntity
  8
B-0
  6
Continuous
 62
     4
100
AcDbLine
 10
2904.7048298346
 20
815.6871067317391
 30
0.0
 11
2661.704829834602
 21
815.6871067317391
 31
0.0
  0
CIRCLE
  5
399
330
6F
100
AcDbEntity
  8
B-0
  6
Continuous
 62
     4
100
AcDbCircle
 10
2904.7048298346
 20
815.6871067317391
 30
0.0
 40
0.25
  0
CIRCLE
  5
39A
330
6F
100
AcDbEntity
  8
B-0
  6
Continuous
 62
     4
100
AcDbCircle
 10
2904.7048298346
 20
815.6871067317391
 30
0.0
 40
0.1875
  0
CIRCLE
  5
39B
330
6F
100
AcDbEntity
  8
B-0
  6
Continuous
 62
     4
100
AcDbCircle
 10
2904.7048298346
 20
815.6871067317391
 30
0.0
 40
0.125
  0
CIRCLE
  5
39C
330
6F
100
AcDbEntity
  8
B-0
  6
Continuous
 62
     4
100
AcDbCircle
 10
2904.7048298346
 20
815.6871067317391
 30
0.0
 40
0.0625
  0
CIRCLE
  5
39D
330
6F
100
AcDbEntity
  8
B-0
  6
Continuous
 62
     4
100
AcDbCircle
 10
2661.704829834602
 20
815.6871067317391
 30
0.0
 40
0.25
  0
CIRCLE
  5
39E
330
6F
100
AcDbEntity
  8
B-0
  6
Continuous
 62
     4
100
AcDbCircle
 10
2661.704829834602
 20
815.6871067317391
 30
0.0
 40
0.1875
  0
CIRCLE
  5
39F
330
6F
100
AcDbEntity
  8
B-0
  6
Continuous
 62
     4
100
AcDbCircle
 10
2661.704829834602
 20
815.6871067317391
 30
0.0
 40
0.125
  0
CIRCLE
  5
3A0
330
6F
100
AcDbEntity
  8
B-0
  6
Continuous
 62
     4
100
AcDbCircle
 10
2661.704829834602
 20
815.6871067317391
 30
0.0
 40
0.0625
  0
LINE
  5
3A1
330
6F
100
AcDbEntity
  8
2-0
  6
DASHED2
 62
     7
100
AcDbLine
 10
2730.054829834602
 20
719.432083308786
 30
0.0
 11
2681.954829834602
 21
719.432083308786
 31
0.0
  0
LINE
  5
3A2
330
6F
100
AcDbEntity
  8
2-0
  6
DASHED2
 62
     7
100
AcDbLine
 10
2681.954829834602
 20
719.432083308786
 30
0.0
 11
2681.954829834602
 21
710.538099908461
 31
0.0
  0
LINE
  5
3A3
330
6F
100
AcDbEntity
  8
2-0
  6
DASHED2
 62
     7
100
AcDbLine
 10
2681.954829834602
 20
710.538099908461
 30
0.0
 11
2641.454829834602
 21
710.538099908461
 31
0.0
  0
LINE
  5
3A4
330
6F
100
AcDbEntity
  8
2-0
  6
DASHED2
 62
     7
100
AcDbLine
 10
2641.454829834602
 20
710.538099908461
 30
0.0
 11
2641.454829834602
 21
719.432083308786
 31
0.0
  0
LINE
  5
3A5
330
6F
100
AcDbEntity
  8
2-0
  6
DASHED2
 62
     7
100
AcDbLine
 10
2641.454829834602
 20
719.432083308786
 30
0.0
 11
2593.354829834602
 21
719.432083308786
 31
0.0
  0
LINE
  5
3A6
330
6F
100
AcDbEntity
  8
2-0
  6
DASHED2
 62
     7
100
AcDbLine
 10
2904.704829778887
 20
634.76029491507
 30
0.0
 11
2889.704829778887
 21
634.76029491507
 31
0.0
  0
LINE
  5
3A7
330
6F
100
AcDbEntity
  8
2-0
  6
DASHED2
 62
     7
100
AcDbLine
 10
2904.704829778887
 20
609.37781891507
 30
0.0
 11
2889.704540778887
 21
609.38952791507
 31
0.0
  0
LINE
  5
3A8
330
6F
100
AcDbEntity
  8
2-0
  6
DASHED2
 62
     7
100
AcDbLine
 10
2904.704829778887
 20
609.37781891507
 30
0.0
 11
2889.704829778887
 21
634.76029491507
 31
0.0
  0
LINE
  5
3A9
330
6F
100
AcDbEntity
  8
2-0
  6
Continuous
 62
     7
100
AcDbLine
 10
2689.805366778887
 20
699.76029491507
 30
0.0
 11
2749.938662778887
 21
676.16746691507
 31
0.0
  0
LINE
  5
3AA
330
6F
100
AcDbEntity
  8
2-0
  6
DASHED2
 62
     7
100
AcDbLine
 10
2716.704829778887
 20
714.7602949150701
 30
0.0
 11
2716.704829778887
 21
699.76029491507
 31
0.0
  0
LINE
  5
3AB
330
6F
100
AcDbEntity
  8
2-0
  6
DASHED2
 62
     7
100
AcDbLine
 10
2606.704829778887
 20
714.7602949150701
 30
0.0
 11
2606.704829778887
 21
699.76029491507
 31
0.0
  0
LINE
  5
3AC
330
6F
100
AcDbEntity
  8
2-0
  6
DASHED2
 62
     7
100
AcDbLine
 10
2604.004829778887
 20
1254.76029491507
 30
0.0
 11
2719.404829778887
 21
1254.76029491507
 31
0.0
  0
LINE
  5
3AD
330
6F
100
AcDbEntity
  8
2-0
  6
DASHED2
 62
     7
100
AcDbLine
 10
2904.704829778887
 20
1359.76029491507
 30
0.0
 11
2889.704829778887
 21
1384.76029491507
 31
0.0
  0
LINE
  5
3AE
330
6F
100
AcDbEntity
  8
2-0
  6
DASHED2
 62
     7
100
AcDbLine
 10
2904.704829778887
 20
1359.76029491507
 30
0.0
 11
2889.704829778887
 21
1359.76029491507
 31
0.0
  0
ARC
  5
3AF
330
6F
100
AcDbEntity
  8
2-0
  6
Continuous
 62
     7
100
AcDbCircle
 10
2884.704829778887
 20
1494.76029491507
 30
0.0
 40
5.0
100
AcDbArc
 50
90.0
 51
180.0
  0
LINE
  5
3B0
330
6F
100
AcDbEntity
  8
2-0
  6
Continuous
 62
     7
100
AcDbLine
 10
2879.704829778887
 20
1494.76029491507
 30
0.0
 11
2879.704829778887
 21
1409.76029491507
 31
0.0
  0
LINE
  5
3B1
330
6F
100
AcDbEntity
  8
2-0
  6
Continuous
 62
     7
100
AcDbLine
 10
2904.704829778887
 20
1499.76029491507
 30
0.0
 11
2904.704829778887
 21
1384.76029491507
 31
0.0
  0
LINE
  5
3B2
330
6F
100
AcDbEntity
  8
2-0
  6
Continuous
 62
     7
100
AcDbLine
 10
2904.704829778887
 20
1499.76029491507
 30
0.0
 11
2884.704829778887
 21
1499.76029491507
 31
0.0
  0
LINE
  5
3B3
330
6F
100
AcDbEntity
  8
2-0
  6
Continuous
 62
     7
100
AcDbLine
 10
2503.704829778887
 20
699.76029491507
 30
0.0
 11
2473.704829778887
 21
699.76029491507
 31
0.0
  0
LINE
  5
3B4
330
6F
100
AcDbEntity
  8
2-0
  6
Continuous
 62
     7
100
AcDbLine
 10
2513.704829778887
 20
699.76029491507
 30
0.0
 11
2513.704829778887
 21
609.76029491507
 31
0.0
  0
LINE
  5
3B5
330
6F
100
AcDbEntity
  8
2-0
  6
Continuous
 62
     7
100
AcDbLine
 10
2504.704829778887
 20
699.76029491507
 30
0.0
 11
2504.704829778887
 21
609.76029491507
 31
0.0
  0
LINE
  5
3B6
330
6F
100
AcDbEntity
  8
2-0
  6
Continuous
 62
     7
100
AcDbLine
 10
2468.304829778887
 20
699.76029491507
 30
0.0
 11
2452.704829778887
 21
699.76029491507
 31
0.0
  0
LINE
  5
3B7
330
6F
100
AcDbEntity
  8
2-0
  6
DASHED2
 62
     7
100
AcDbLine
 10
2483.704829778887
 20
1384.76029491507
 30
0.0
 11
2483.704829778887
 21
1224.76029491507
 31
0.0
  0
ARC
  5
3B8
330
6F
100
AcDbEntity
  8
2-0
  6
Continuous
 62
     7
100
AcDbCircle
 10
2446.704829778887
 20
1386.76029491507
 30
0.0
 40
2.0
100
AcDbArc
 50
180.0
 51
270.0
  0
ARC
  5
3B9
330
6F
100
AcDbEntity
  8
2-0
  6
Continuous
 62
     7
100
AcDbCircle
 10
2446.704829778887
 20
1407.760294915069
 30
0.0
 40
2.0
100
AcDbArc
 50
90.0
 51
180.0
  0
LINE
  5
3BA
330
6F
100
AcDbEntity
  8
2-0
  6
Continuous
 62
     7
100
AcDbLine
 10
2466.704829778887
 20
1384.76029491507
 30
0.0
 11
2451.704829778887
 21
1384.76029491507
 31
0.0
  0
LINE
  5
3BB
330
6F
100
AcDbEntity
  8
2-0
  6
Continuous
 62
     7
100
AcDbLine
 10
2444.704829778887
 20
1407.760294915069
 30
0.0
 11
2444.704829778887
 21
1386.76029491507
 31
0.0
  0
LINE
  5
3BC
330
6F
100
AcDbEntity
  8
2-0
  6
DASHED2
 62
     7
100
AcDbLine
 10
2846.704829834602
 20
1409.760294635309
 30
0.0
 11
2846.704829834602
 21
1283.760294635309
 31
0.0
  0
ARC
  5
3BD
330
6F
100
AcDbEntity
  8
2-0
  6
DASHED2
 62
     7
100
AcDbCircle
 10
2826.704829778887
 20
1283.76029491507
 30
0.0
 40
20.0
100
AcDbArc
 50
270.0
 51
359.9999999997079
  0
LINE
  5
3BE
330
6F
100
AcDbEntity
  8
2-0
  6
DASHED2
 62
     7
100
AcDbLine
 10
2826.704829834602
 20
1263.760294635309
 30
0.0
 11
2719.704829834602
 21
1261.833885872163
 31
0.0
  0
LINE
  5
3BF
330
6F
100
AcDbEntity
  8
2-0
  6
DASHED2
 62
     7
100
AcDbLine
 10
2719.704829834602
 20
1261.833885872163
 30
0.0
 11
2719.704829834602
 21
1254.760294635309
 31
0.0
  0
LINE
  5
3C0
330
6F
100
AcDbEntity
  8
2-0
  6
DASHED2
 62
     7
100
AcDbLine
 10
2719.704829834602
 20
1254.760294635309
 30
0.0
 11
2603.704829834602
 21
1254.760294635309
 31
0.0
  0
LINE
  5
3C1
330
6F
100
AcDbEntity
  8
2-0
  6
DASHED2
 62
     7
100
AcDbLine
 10
2603.704829834602
 20
1254.760294635309
 30
0.0
 11
2603.704829834602
 21
1261.814862022247
 31
0.0
  0
LINE
  5
3C2
330
6F
100
AcDbEntity
  8
2-0
  6
DASHED2
 62
     7
100
AcDbLine
 10
2603.704829834602
 20
1261.814862022247
 30
0.0
 11
2506.704829834602
 21
1263.760294635309
 31
0.0
  0
ARC
  5
3C3
330
6F
100
AcDbEntity
  8
2-0
  6
DASHED2
 62
     7
100
AcDbCircle
 10
2506.704829778887
 20
1283.76029491507
 30
0.0
 40
20.0
100
AcDbArc
 50
180.000000000292
 51
270.0
  0
LINE
  5
3C4
330
6F
100
AcDbEntity
  8
2-0
  6
DASHED2
 62
     7
100
AcDbLine
 10
2486.704829834602
 20
1283.760294635309
 30
0.0
 11
2486.704829834602
 21
1409.760294635309
 31
0.0
  0
LINE
  5
3C5
330
6F
100
AcDbEntity
  8
2-0
  6
DASHED2
 62
     7
100
AcDbLine
 10
2646.704829778887
 20
1073.83388591507
 30
0.0
 11
2646.704829778887
 21
609.83388591507
 31
0.0
  0
LINE
  5
3C6
330
6F
100
AcDbEntity
  8
2-0
  6
DASHED2
 62
     7
100
AcDbLine
 10
2676.704829778887
 20
1073.83388591507
 30
0.0
 11
2676.704829778887
 21
609.83388591507
 31
0.0
  0
LINE
  5
3C7
330
6F
100
AcDbEntity
  8
2-0
  6
DASHED2
 62
     7
100
AcDbLine
 10
2571.704829778887
 20
1256.83388591507
 30
0.0
 11
2751.704829778887
 21
1256.83388591507
 31
0.0
  0
LINE
  5
3C8
330
6F
100
AcDbEntity
  8
2-0
  6
DASHED2
 62
     7
100
AcDbLine
 10
2749.457173778887
 20
1242.83388591507
 30
0.0
 11
2739.704829778887
 21
1242.83388591507
 31
0.0
  0
LINE
  5
3C9
330
6F
100
AcDbEntity
  8
2-0
  6
DASHED2
 62
     7
100
AcDbLine
 10
2749.457173778887
 20
1256.83388591507
 30
0.0
 11
2749.457173778887
 21
1242.83388591507
 31
0.0
  0
LINE
  5
3CA
330
6F
100
AcDbEntity
  8
2-0
  6
DASHED2
 62
     7
100
AcDbLine
 10
2751.704829778887
 20
1261.83388591507
 30
0.0
 11
2751.704829778887
 21
1256.83388591507
 31
0.0
  0
LINE
  5
3CB
330
6F
100
AcDbEntity
  8
2-0
  6
DASHED2
 62
     7
100
AcDbLine
 10
2598.278486534828
 20
1167.833886276022
 30
0.0
 11
2598.278486534828
 21
1114.733886276023
 31
0.0
  0
ARC
  5
3CC
330
6F
100
AcDbEntity
  8
2-0
  6
DASHED2
 62
     7
100
AcDbCircle
 10
2608.278486778887
 20
1114.73388591507
 30
0.0
 40
10.0
100
AcDbArc
 50
180.000000000292
 51
270.0
  0
LINE
  5
3CD
330
6F
100
AcDbEntity
  8
2-0
  6
DASHED2
 62
     7
100
AcDbLine
 10
2608.278486534828
 20
1104.733886276023
 30
0.0
 11
2715.131173134376
 21
1104.733886276023
 31
0.0
  0
ARC
  5
3CE
330
6F
100
AcDbEntity
  8
2-0
  6
DASHED2
 62
     7
100
AcDbCircle
 10
2715.131172778888
 20
1114.73388591507
 30
0.0
 40
10.0
100
AcDbArc
 50
270.0
 51
359.999999999708
  0
LINE
  5
3CF
330
6F
100
AcDbEntity
  8
2-0
  6
DASHED2
 62
     7
100
AcDbLine
 10
2725.131173134376
 20
1114.733886276023
 30
0.0
 11
2725.131173134376
 21
1167.833886276022
 31
0.0
  0
LINE
  5
3D0
330
6F
100
AcDbEntity
  8
2-0
  6
DASHED2
 62
     7
100
AcDbLine
 10
2691.7048298346
 20
1104.733886276023
 30
0.0
 11
2691.704829834602
 21
1073.833885872163
 31
0.0
  0
LINE
  5
3D1
330
6F
100
AcDbEntity
  8
2-0
  6
DASHED2
 62
     7
100
AcDbLine
 10
2691.704829834602
 20
1073.833885872163
 30
0.0
 11
2631.7048298346
 21
1073.833885872163
 31
0.0
  0
LINE
  5
3D2
330
6F
100
AcDbEntity
  8
2-0
  6
DASHED2
 62
     7
100
AcDbLine
 10
2631.7048298346
 20
1073.833885872163
 30
0.0
 11
2631.7048298346
 21
1104.733886276023
 31
0.0
  0
LINE
  5
3D3
330
6F
100
AcDbEntity
  8
2-0
  6
DASHED2
 62
     7
100
AcDbLine
 10
2739.704829778887
 20
1239.63236191507
 30
0.0
 11
2730.616030778887
 21
1234.63236191507
 31
0.0
  0
LINE
  5
3D4
330
6F
100
AcDbEntity
  8
2-0
  6
DASHED2
 62
     7
100
AcDbLine
 10
2592.793628778887
 20
1234.63236191507
 30
0.0
 11
2592.793628778887
 21
1170.04865191507
 31
0.0
  0
LINE
  5
3D5
330
6F
100
AcDbEntity
  8
2-0
  6
DASHED2
 62
     7
100
AcDbLine
 10
2730.616030778887
 20
1234.63236191507
 30
0.0
 11
2730.616030778887
 21
1170.04865191507
 31
0.0
  0
LINE
  5
3D6
330
6F
100
AcDbEntity
  8
2-0
  6
DASHED2
 62
     7
100
AcDbLine
 10
2592.79362869137
 20
1167.833886276022
 30
0.0
 11
2730.616030977832
 21
1167.833886276022
 31
0.0
  0
LINE
  5
3D7
330
6F
100
AcDbEntity
  8
2-0
  6
DASHED2
 62
     7
100
AcDbLine
 10
2592.793628778887
 20
1234.63236191507
 30
0.0
 11
2730.616030778887
 21
1234.63236191507
 31
0.0
  0
LINE
  5
3D8
330
6F
100
AcDbEntity
  8
2-0
  6
DASHED2
 62
     7
100
AcDbLine
 10
2739.704829778887
 20
1256.83388591507
 30
0.0
 11
2739.704829778887
 21
1239.63236191507
 31
0.0
  0
LINE
  5
3D9
330
6F
100
AcDbEntity
  8
2-0
  6
DASHED2
 62
     7
100
AcDbLine
 10
2583.704829778887
 20
1239.63236191507
 30
0.0
 11
2739.704829778887
 21
1239.63236191507
 31
0.0
  0
LINE
  5
3DA
330
6F
100
AcDbEntity
  8
2-0
  6
DASHED2
 62
     7
100
AcDbLine
 10
2583.704829778887
 20
1239.63236191507
 30
0.0
 11
2592.793628778887
 21
1234.63236191507
 31
0.0
  0
LINE
  5
3DB
330
6F
100
AcDbEntity
  8
2-0
  6
DASHED2
 62
     7
100
AcDbLine
 10
2573.952486778887
 20
1242.83388591507
 30
0.0
 11
2583.704829778887
 21
1242.83388591507
 31
0.0
  0
LINE
  5
3DC
330
6F
100
AcDbEntity
  8
2-0
  6
DASHED2
 62
     7
100
AcDbLine
 10
2583.704829778887
 20
1256.83388591507
 30
0.0
 11
2583.704829778887
 21
1239.63236191507
 31
0.0
  0
LINE
  5
3DD
330
6F
100
AcDbEntity
  8
2-0
  6
DASHED2
 62
     7
100
AcDbLine
 10
2571.704829778887
 20
1261.83388591507
 30
0.0
 11
2571.704829778887
 21
1256.83388591507
 31
0.0
  0
LINE
  5
3DE
330
6F
100
AcDbEntity
  8
2-0
  6
DASHED2
 62
     7
100
AcDbLine
 10
2573.952486778887
 20
1256.83388591507
 30
0.0
 11
2573.952486778887
 21
1242.83388591507
 31
0.0
  0
LINE
  5
3DF
330
6F
100
AcDbEntity
  8
2-0
  6
Continuous
 62
     7
100
AcDbLine
 10
2473.704829778887
 20
1384.76029491507
 30
0.0
 11
2473.704829778887
 21
699.76029491507
 31
0.0
  0
LINE
  5
3E0
330
6F
100
AcDbEntity
  8
2-0
  6
DASHED2
 62
     7
100
AcDbLine
 10
2483.704829778887
 20
1224.76029491507
 30
0.0
 11
2473.704829778887
 21
1224.76029491507
 31
0.0
  0
LINE
  5
3E1
330
6F
100
AcDbEntity
  8
2-0
  6
Continuous
 62
     7
100
AcDbLine
 10
2452.704829778887
 20
699.76029491507
 30
0.0
 11
2452.704829778887
 21
1351.76029491507
 31
0.0
  0
LINE
  5
3E2
330
6F
100
AcDbEntity
  8
2-0
  6
Continuous
 62
     7
100
AcDbLine
 10
2452.704829778887
 20
1321.97539191507
 30
0.0
 11
2452.704829778887
 21
1331.97539191507
 31
0.0
  0
LINE
  5
3E3
330
6F
100
AcDbEntity
  8
2-0
  6
Continuous
 62
     7
100
AcDbLine
 10
2452.704829778887
 20
1351.76029491507
 30
0.0
 11
2467.704829778887
 21
1351.76029491507
 31
0.0
  0
LINE
  5
3E4
330
6F
100
AcDbEntity
  8
2-0
  6
Continuous
 62
     7
100
AcDbLine
 10
2468.304829778887
 20
1351.76029491507
 30
0.0
 11
2452.704829778887
 21
1351.76029491507
 31
0.0
  0
LINE
  5
3E5
330
6F
100
AcDbEntity
  8
1-0
  6
Continuous
 62
     7
100
AcDbLine
 10
2468.304829778887
 20
1351.76029491507
 30
0.0
 11
2468.304829778887
 21
1336.76029491507
 31
0.0
  0
LINE
  5
3E6
330
6F
100
AcDbEntity
  8
1-0
  6
Continuous
 62
     7
100
AcDbLine
 10
2452.704829778887
 20
1351.76029491507
 30
0.0
 11
2452.704829778887
 21
1345.56029491507
 31
0.0
  0
LINE
  5
3E7
330
6F
100
AcDbEntity
  8
1-0
  6
Continuous
 62
     7
100
AcDbLine
 10
2468.304829778887
 20
1351.76029491507
 30
0.0
 11
2468.304829778887
 21
699.76029491507
 31
0.0
  0
LINE
  5
3E8
330
6F
100
AcDbEntity
  8
1-0
  6
Continuous
 62
     7
100
AcDbLine
 10
2603.704829778887
 20
1261.76029491507
 30
0.0
 11
2719.704829778887
 21
1261.83388591507
 31
0.0
  0
LINE
  5
3E9
330
6F
100
AcDbEntity
  8
B-0
  6
Continuous
 62
     4
100
AcDbLine
 10
2683.204829828274
 20
1409.760294207137
 30
0.0
 11
2719.704829828274
 21
1409.760294207137
 31
0.0
  0
LINE
  5
3EA
330
6F
100
AcDbEntity
  8
B-0
  6
Continuous
 62
     4
100
AcDbLine
 10
2681.704829828274
 20
1261.797090207137
 30
0.0
 11
2719.704829828274
 21
1261.797090207137
 31
0.0
  0
TEXT
  5
3EB
330
6F
100
AcDbEntity
  8
B-0
 62
     4
100
AcDbText
 10
2719.085
 20
1302.179
 30
0.0
 40
36.288
  1
148
 50
90.0
100
AcDbText
  0
LINE
  5
3EC
330
6F
100
AcDbEntity
  8
B-0
  6
Continuous
 62
     4
100
AcDbLine
 10
2719.704829834602
 20
1261.797090253736
 30
0.0
 11
2719.704829834602
 21
1409.760294635309
 31
0.0
  0
CIRCLE
  5
3ED
330
6F
100
AcDbEntity
  8
B-0
  6
Continuous
 62
     4
100
AcDbCircle
 10
2719.704829834602
 20
1261.797090253736
 30
0.0
 40
0.25
  0
CIRCLE
  5
3EE
330
6F
100
AcDbEntity
  8
B-0
  6
Continuous
 62
     4
100
AcDbCircle
 10
2719.704829834602
 20
1261.797090253736
 30
0.0
 40
0.1875
  0
CIRCLE
  5
3EF
330
6F
100
AcDbEntity
  8
B-0
  6
Continuous
 62
     4
100
AcDbCircle
 10
2719.704829834602
 20
1261.797090253736
 30
0.0
 40
0.125
  0
CIRCLE
  5
3F0
330
6F
100
AcDbEntity
  8
B-0
  6
Continuous
 62
     4
100
AcDbCircle
 10
2719.704829834602
 20
1261.797090253736
 30
0.0
 40
0.0625
  0
CIRCLE
  5
3F1
330
6F
100
AcDbEntity
  8
B-0
  6
Continuous
 62
     4
100
AcDbCircle
 10
2719.704829834602
 20
1409.760294635309
 30
0.0
 40
0.25
  0
CIRCLE
  5
3F2
330
6F
100
AcDbEntity
  8
B-0
  6
Continuous
 62
     4
100
AcDbCircle
 10
2719.704829834602
 20
1409.760294635309
 30
0.0
 40
0.1875
  0
CIRCLE
  5
3F3
330
6F
100
AcDbEntity
  8
B-0
  6
Continuous
 62
     4
100
AcDbCircle
 10
2719.704829834602
 20
1409.760294635309
 30
0.0
 40
0.125
  0
CIRCLE
  5
3F4
330
6F
100
AcDbEntity
  8
B-0
  6
Continuous
 62
     4
100
AcDbCircle
 10
2719.704829834602
 20
1409.760294635309
 30
0.0
 40
0.0625
  0
LINE
  5
3F5
330
6F
100
AcDbEntity
  8
2-0
  6
DASHED2
 62
     7
100
AcDbLine
 10
2506.500361778887
 20
1064.76029491507
 30
0.0
 11
2470.304829778887
 21
1064.76029491507
 31
0.0
  0
ARC
  5
3F6
330
6F
100
AcDbEntity
  8
2-0
  6
DASHED2
 62
     7
100
AcDbCircle
 10
2506.500361778887
 20
1063.76029491507
 30
0.0
 40
1.0
100
AcDbArc
 50
0.0
 51
90.0
  0
LINE
  5
3F7
330
6F
100
AcDbEntity
  8
2-0
  6
DASHED2
 62
     7
100
AcDbLine
 10
2507.500361778887
 20
1045.76029491507
 30
0.0
 11
2507.500361778887
 21
1063.76029491507
 31
0.0
  0
LINE
  5
3F8
330
6F
100
AcDbEntity
  8
2-0
  6
DASHED2
 62
     7
100
AcDbLine
 10
2507.444268778887
 20
1044.76029491507
 30
0.0
 11
2507.500361778887
 21
1044.76029491507
 31
0.0
  0
LINE
  5
3F9
330
6F
100
AcDbEntity
  8
2-0
  6
DASHED2
 62
     7
100
AcDbLine
 10
2507.444268778887
 20
1045.43008291507
 30
0.0
 11
2507.444268778887
 21
842.7602949150701
 31
0.0
  0
LINE
  5
3FA
330
6F
100
AcDbEntity
  8
2-0
  6
DASHED2
 62
     7
100
AcDbLine
 10
2499.500361778887
 20
834.7602949150701
 30
0.0
 11
2468.304829778887
 21
834.7602949150701
 31
0.0
  0
ARC
  5
3FB
330
6F
100
AcDbEntity
  8
2-0
  6
DASHED2
 62
     7
100
AcDbCircle
 10
2499.500361778887
 20
842.7602949150701
 30
0.0
 40
8.0
100
AcDbArc
 50
270.0
 51
308.682
  0
ARC
  5
3FC
330
6F
100
AcDbEntity
  8
2-0
  6
DASHED2
 62
     7
100
AcDbCircle
 10
2499.444268778887
 20
842.7602949150701
 30
0.0
 40
8.0
100
AcDbArc
 50
309.199
 51
0.0
  0
LINE
  5
3FD
330
6F
100
AcDbEntity
  8
2-0
  6
DASHED2
 62
     7
100
AcDbLine
 10
2489.557569778887
 20
1038.76029491507
 30
0.0
 11
2468.304829778887
 21
1038.76029491507
 31
0.0
  0
LINE
  5
3FE
330
6F
100
AcDbEntity
  8
2-0
  6
DASHED2
 62
     7
100
AcDbLine
 10
2489.557569778887
 20
1020.76029491507
 30
0.0
 11
2468.304829778887
 21
1020.76029491507
 31
0.0
  0
LINE
  5
3FF
330
6F
100
AcDbEntity
  8
2-0
  6
DASHED2
 62
     7
100
AcDbLine
 10
2489.557569778887
 20
878.76029491507
 30
0.0
 11
2468.304829778887
 21
878.76029491507
 31
0.0
  0
LINE
  5
400
330
6F
100
AcDbEntity
  8
2-0
  6
DASHED2
 62
     7
100
AcDbLine
 10
2489.557569778887
 20
860.7602949150701
 30
0.0
 11
2468.304829778887
 21
860.7602949150701
 31
0.0
  0
LINE
  5
401
330
6F
100
AcDbEntity
  8
C-0
  6
CENTER
 62
     6
100
AcDbLine
 10
1336.572238778887
 20
609.76029491507
 30
0.0
 11
1336.572238778887
 21
1308.05238291507
 31
0.0
  0
TEXT
  5
402
330
6F
100
AcDbEntity
  8
1-1
 62
     2
100
AcDbText
 10
2768.08
 20
465.3299999999999
 30
0.0
 40
25.92
  1
※
100
AcDbText
  0
TEXT
  5
403
330
6F
100
AcDbEntity
  8
1-1
 62
     2
100
AcDbText
 10
3067.973
 20
398.964
 30
0.0
 40
25.92
  1
※巾木奥行(D)(M)(AはD406
100
AcDbText
  0
LINE
  5
404
330
6F
100
AcDbEntity
  8
3-0
  6
Continuous
 62
     7
100
AcDbLine
 10
2453.574829778887
 20
1379.76029491507
 30
0.0
 11
2467.704829778887
 21
1379.76029491507
 31
0.0
  0
LINE
  5
405
330
6F
100
AcDbEntity
  8
3-0
  6
Continuous
 62
     7
100
AcDbLine
 10
2469.455543778887
 20
1379.76029491507
 30
0.0
 11
2452.528472778887
 21
1379.76029491507
 31
0.0
  0
LINE
  5
406
330
6F
100
AcDbEntity
  8
3-0
  6
Continuous
 62
     7
100
AcDbLine
 10
2462.854555778887
 20
1377.76029491507
 30
0.0
 11
2456.234053778887
 21
1377.76029491507
 31
0.0
  0
LINE
  5
407
330
6F
100
AcDbEntity
  8
3-0
  6
Continuous
 62
     7
100
AcDbLine
 10
2469.421938778888
 20
1334.16029491507
 30
0.0
 11
2468.304829778887
 21
1334.16029491507
 31
0.0
  0
LINE
  5
408
330
6F
100
AcDbEntity
  8
3-0
  6
Continuous
 62
     7
100
AcDbLine
 10
2470.304829778887
 20
1378.95556091507
 30
0.0
 11
2470.304829778887
 21
1334.93462791507
 31
0.0
  0
LINE
  5
409
330
6F
100
AcDbEntity
  8
3-0
  6
Continuous
 62
     7
100
AcDbLine
 10
2468.304829778887
 20
1351.76029491507
 30
0.0
 11
2468.304829778887
 21
1334.16029491507
 31
0.0
  0
ARC
  5
40A
330
6F
100
AcDbEntity
  8
3-0
  6
Continuous
 62
     7
100
AcDbCircle
 10
2469.403947778887
 20
1335.07130791507
 30
0.0
 40
0.9111909999999999
100
AcDbArc
 50
271.131
 51
351.373
  0
ARC
  5
40B
330
6F
100
AcDbEntity
  8
3-0
  6
Continuous
 62
     7
100
AcDbCircle
 10
2469.423816778887
 20
1378.87629191507
 30
0.0
 40
0.884572
100
AcDbArc
 50
5.141
 51
92.055
  0
LINE
  5
40C
330
6F
100
AcDbEntity
  8
3-0
  6
Continuous
 62
     7
100
AcDbLine
 10
2452.328833778887
 20
1379.57997191507
 30
0.0
 11
2451.569301778887
 21
1373.27862191507
 31
0.0
  0
LINE
  5
40D
330
6F
100
AcDbEntity
  8
3-0
  6
Continuous
 62
     7
100
AcDbLine
 10
2455.730388778887
 20
1377.40072791507
 30
0.0
 11
2455.200748778887
 21
1373.10911491507
 31
0.0
  0
ARC
  5
40E
330
6F
100
AcDbEntity
  8
3-0
  6
Continuous
 62
     7
100
AcDbCircle
 10
2454.506019778887
 20
1373.19485391507
 30
0.0
 40
0.7
100
AcDbArc
 50
270.0
 51
352.965
  0
ARC
  5
40F
330
6F
100
AcDbEntity
  8
3-0
  6
Continuous
 62
     7
100
AcDbCircle
 10
2456.244044778888
 20
1377.21375991507
 30
0.0
 40
0.546626
100
AcDbArc
 50
91.04699999999999
 51
159.999
  0
ARC
  5
410
330
6F
100
AcDbEntity
  8
3-0
  6
Continuous
 62
     7
100
AcDbCircle
 10
2462.161537778887
 20
1372.37153091507
 30
0.0
 40
5.433143
100
AcDbArc
 50
4.102999999999999
 51
82.672
  0
LINE
  5
411
330
6F
100
AcDbEntity
  8
3-0
  6
Continuous
 62
     7
100
AcDbLine
 10
2467.580754778888
 20
1372.76029491507
 30
0.0
 11
2467.582407778887
 21
1358.44078591507
 31
0.0
  0
ARC
  5
412
330
6F
100
AcDbEntity
  8
3-0
  6
Continuous
 62
     7
100
AcDbCircle
 10
2452.589272778887
 20
1379.49230891507
 30
0.0
 40
0.274796
100
AcDbArc
 50
102.783
 51
161.397
  0
LINE
  5
413
330
6F
100
AcDbEntity
  8
3-0
  6
Continuous
 62
     7
100
AcDbLine
 10
2454.506019778887
 20
1372.49485391507
 30
0.0
 11
2452.264270778887
 21
1372.49485391507
 31
0.0
  0
ARC
  5
414
330
6F
100
AcDbEntity
  8
3-0
  6
Continuous
 62
     7
100
AcDbCircle
 10
2452.264270778887
 20
1373.19485391507
 30
0.0
 40
0.7
100
AcDbArc
 50
173.127
 51
270.0
  0
ARC
  5
415
330
6F
100
AcDbEntity
  8
3-0
  6
Continuous
 62
     7
100
AcDbCircle
 10
2461.921606778887
 20
1359.07885691507
 30
0.0
 40
5.7
100
AcDbArc
 50
283.824
 51
353.569
  0
ARC
  5
416
330
6F
100
AcDbEntity
  8
3-0
  6
Continuous
 62
     7
100
AcDbCircle
 10
2463.288149778887
 20
1351.54751791507
 30
0.0
 40
1.999706999999999
100
AcDbArc
 50
90.15399999999999
 51
173.892
  0
LINE
  5
417
330
6F
100
AcDbEntity
  8
2-0
  6
Continuous
 62
     7
100
AcDbLine
 10
2468.304829778887
 20
1351.76029491507
 30
0.0
 11
2452.704829778887
 21
1351.76029491507
 31
0.0
  0
ENDSEC
  0
SECTION
  2
OBJECTS
  0
DICTIONARY
  5
C
330
0
100
AcDbDictionary
281
     1
  3
ACAD_CIP_PREVIOUS_PRODUCT_INFO
350
419
  3
ACAD_COLOR
350
62
  3
ACAD_DETAILVIEWSTYLE
350
69
  3
ACAD_GROUP
350
D
  3
ACAD_LAYOUT
350
61
  3
ACAD_MATERIAL
350
10
  3
ACAD_MLEADERSTYLE
350
65
  3
ACAD_MLINESTYLE
350
5E
  3
ACAD_PLOTSETTINGS
350
60
  3
ACAD_PLOTSTYLENAME
350
E
  3
ACAD_SCALELIST
350
42
  3
ACAD_SECTIONVIEWSTYLE
350
67
  3
ACAD_TABLESTYLE
350
63
  3
ACAD_VISUALSTYLE
350
29
  3
ACDB_RECOMPOSE_DATA
350
43F
  3
AcDbVariableDictionary
350
432
  3
DWGPROPS
350
440
  0
DICTIONARY
  5
41A
330
54
100
AcDbDictionary
280
     1
281
     1
  3
ADSK_XREC_LAYER_RECONCILED
360
41B
  0
DICTIONARY
  5
41C
330
7F
100
AcDbDictionary
280
     1
281
     1
  3
ADSK_XREC_LAYER_RECONCILED
360
41D
  0
DICTIONARY
  5
41E
330
80
100
AcDbDictionary
280
     1
281
     1
  3
ADSK_XREC_LAYER_RECONCILED
360
41F
  0
DICTIONARY
  5
420
330
81
100
AcDbDictionary
280
     1
281
     1
  3
ADSK_XREC_LAYER_RECONCILED
360
421
  0
DICTIONARY
  5
422
330
82
100
AcDbDictionary
280
     1
281
     1
  3
ADSK_XREC_LAYER_RECONCILED
360
423
  0
DICTIONARY
  5
424
330
83
100
AcDbDictionary
280
     1
281
     1
  3
ADSK_XREC_LAYER_RECONCILED
360
425
  0
DICTIONARY
  5
426
330
84
100
AcDbDictionary
280
     1
281
     1
  3
ADSK_XREC_LAYER_RECONCILED
360
427
  0
DICTIONARY
  5
428
330
85
100
AcDbDictionary
280
     1
281
     1
  3
ADSK_XREC_LAYER_RECONCILED
360
429
  0
DICTIONARY
  5
42A
330
86
100
AcDbDictionary
280
     1
281
     1
  3
ADSK_XREC_LAYER_RECONCILED
360
42B
  0
DICTIONARY
  5
42C
330
87
100
AcDbDictionary
280
     1
281
     1
  3
ADSK_XREC_LAYER_RECONCILED
360
42D
  0
DICTIONARY
  5
42E
330
88
100
AcDbDictionary
280
     1
281
     1
  3
ADSK_XREC_LAYER_RECONCILED
360
42F
  0
DICTIONARY
  5
430
330
8E
100
AcDbDictionary
280
     1
281
     1
  3
ADSK_XREC_LAYER_RECONCILED
360
431
  0
XRECORD
  5
419
102
{ACAD_REACTORS
330
C
102
}
330
C
100
AcDbXrecord
280
     1
300
ACDLT
300
2020
300

  0
DICTIONARY
  5
62
102
{ACAD_REACTORS
330
C
102
}
330
C
100
AcDbDictionary
281
     1
  0
DICTIONARY
  5
69
102
{ACAD_REACTORS
330
C
102
}
330
C
100
AcDbDictionary
281
     1
  3
Imperial24
350
6A
  0
DICTIONARY
  5
D
102
{ACAD_REACTORS
330
C
102
}
330
C
100
AcDbDictionary
281
     1
  0
DICTIONARY
  5
61
102
{ACAD_REACTORS
330
C
102
}
330
C
100
AcDbDictionary
281
     1
  3
Model
350
72
  3
レイアウト1
350
6E
  0
DICTIONARY
  5
10
102
{ACAD_REACTORS
330
C
102
}
330
C
100
AcDbDictionary
281
     1
  3
ByBlock
350
19
  3
ByLayer
350
11
  3
Global
350
21
  0
DICTIONARY
  5
65
102
{ACAD_REACTORS
330
C
102
}
330
C
100
AcDbDictionary
281
     1
  3
Standard
350
66
  0
DICTIONARY
  5
5E
102
{ACAD_REACTORS
330
C
102
}
330
C
100
AcDbDictionary
281
     1
  3
Standard
350
5F
  0
DICTIONARY
  5
60
102
{ACAD_REACTORS
330
C
102
}
330
C
100
AcDbDictionary
281
     1
  0
ACDBDICTIONARYWDFLT
  5
E
102
{ACAD_REACTORS
330
C
102
}
330
C
100
AcDbDictionary
281
     1
  3
Normal
350
F
100
AcDbDictionaryWithDefault
340
F
  0
DICTIONARY
  5
42
102
{ACAD_REACTORS
330
C
102
}
330
C
100
AcDbDictionary
281
     1
  3
A0
350
43
  3
A1
350
44
  3
A2
350
45
  3
A3
350
46
  3
A4
350
47
  3
A5
350
48
  3
A6
350
49
  3
A7
350
4A
  3
A8
350
4B
  3
A9
350
4C
  3
B0
350
4D
  3
B1
350
4E
  3
B2
350
4F
  3
B3
350
50
  3
B4
350
51
  3
B5
350
52
  3
B6
350
53
  0
DICTIONARY
  5
67
102
{ACAD_REACTORS
330
C
102
}
330
C
100
AcDbDictionary
281
     1
  3
Imperial24
350
68
  0
DICTIONARY
  5
63
102
{ACAD_REACTORS
330
C
102
}
330
C
100
AcDbDictionary
281
     1
  3
Standard
350
64
  0
DICTIONARY
  5
29
102
{ACAD_REACTORS
330
C
102
}
330
C
100
AcDbDictionary
281
     1
  3
2dWireframe
350
2F
  3
Basic
350
2E
  3
Brighten
350
35
  3
ColorChange
350
39
  3
Conceptual
350
32
  3
Dim
350
34
  3
EdgeColorOff
350
41
  3
Facepattern
350
38
  3
Flat
350
2A
  3
FlatWithEdges
350
2B
  3
Gouraud
350
2C
  3
GouraudWithEdges
350
2D
  3
Hidden
350
31
  3
JitterOff
350
3F
  3
Linepattern
350
37
  3
OverhangOff
350
40
  3
Realistic
350
33
  3
Shaded
350
3E
  3
Shaded with edges
350
3D
  3
Shades of Gray
350
3A
  3
Sketchy
350
3B
  3
Thicken
350
36
  3
Wireframe
350
30
  3
X-Ray
350
3C
  0
XRECORD
  5
43F
102
{ACAD_REACTORS
330
C
102
}
330
C
100
AcDbXrecord
280
     1
 90
        1
330
64
  0
DICTIONARY
  5
432
102
{ACAD_REACTORS
330
C
102
}
330
C
100
AcDbDictionary
281
     1
  3
CANNOSCALE
350
437
  3
CMLEADERSTYLE
350
434
  3
CTABLESTYLE
350
433
  3
CVIEWDETAILSTYLE
350
435
  3
CVIEWSECTIONSTYLE
350
436
  3
DIMASSOC
350
43A
  3
INDEXCTL
350
439
  3
SORTENTS
350
438
  3
XCLIPFRAME
350
43B
  0
XRECORD
  5
440
102
{ACAD_REACTORS
330
C
102
}
330
C
100
AcDbXrecord
280
     1
  1
DWGPROPS COOKIE
  2

  3

  4

  6

  7

  8
suzuki
  9

300
=
301
=
302
=
303
=
304
=
305
=
306
=
307
=
308
=
309
=
 40
0.0003587962962963
 41
2459647.759930556
 42
2459647.760289352
  1

 90
        0
  0
XRECORD
  5
41B
102
{ACAD_REACTORS
330
41A
102
}
330
41A
100
AcDbXrecord
280
     1
290
     1
  0
XRECORD
  5
41D
102
{ACAD_REACTORS
330
41C
102
}
330
41C
100
AcDbXrecord
280
     1
290
     1
  0
XRECORD
  5
41F
102
{ACAD_REACTORS
330
41E
102
}
330
41E
100
AcDbXrecord
280
     1
290
     1
  0
XRECORD
  5
421
102
{ACAD_REACTORS
330
420
102
}
330
420
100
AcDbXrecord
280
     1
290
     1
  0
XRECORD
  5
423
102
{ACAD_REACTORS
330
422
102
}
330
422
100
AcDbXrecord
280
     1
290
     1
  0
XRECORD
  5
425
102
{ACAD_REACTORS
330
424
102
}
330
424
100
AcDbXrecord
280
     1
290
     1
  0
XRECORD
  5
427
102
{ACAD_REACTORS
330
426
102
}
330
426
100
AcDbXrecord
280
     1
290
     1
  0
XRECORD
  5
429
102
{ACAD_REACTORS
330
428
102
}
330
428
100
AcDbXrecord
280
     1
290
     1
  0
XRECORD
  5
42B
102
{ACAD_REACTORS
330
42A
102
}
330
42A
100
AcDbXrecord
280
     1
290
     1
  0
XRECORD
  5
42D
102
{ACAD_REACTORS
330
42C
102
}
330
42C
100
AcDbXrecord
280
     1
290
     1
  0
XRECORD
  5
42F
102
{ACAD_REACTORS
330
42E
102
}
330
42E
100
AcDbXrecord
280
     1
290
     1
  0
XRECORD
  5
431
102
{ACAD_REACTORS
330
430
102
}
330
430
100
AcDbXrecord
280
     1
290
     1
  0
ACDBDETAILVIEWSTYLE
  5
6A
102
{ACAD_XDICTIONARY
360
478
102
}
102
{ACAD_REACTORS
330
69
102
}
330
69
100
AcDbModelDocViewStyle
 70
     0
  3
Imperial24
290
     0
100
AcDbDetailViewStyle
 70
     0
 71
     0
 90
        3
 71
     1
340
55
 40
0.24
340
0
 40
0.24
300

 40
0.36
280
     3
 71
     2
340
5C
 90
       25
 71
     3
340
55
 40
0.24
 90
        1
 40
0.75
 90
        1
300
%<\AcVar ViewType \f "%tc1">% %<\AcVar ViewDetailId>%\PSCALE %<\AcVar ViewScale \f "%sn">%
 71
     4
340
5C
 90
       25
340
5C
 90
       25
280
     0
  0
LAYOUT
  5
72
102
{ACAD_XDICTIONARY
360
47C
102
}
102
{ACAD_REACTORS
330
61
102
}
330
61
100
AcDbPlotSettings
  1

  2
DocuCentre-V 4070
  4

  6

 40
0.0
 41
0.0
 42
0.0
 43
0.0
 44
0.0
 45
0.0
 46
0.0
 47
0.0
 48
0.0
 49
0.0
140
0.0
141
0.0
142
1.0
143
1.0
 70
  1712
 72
     0
 73
     0
 74
     0
  7

 75
     0
147
1.0
148
0.0
149
0.0
100
AcDbLayout
  1
Model
 70
     1
 71
     0
 10
0.0
 20
0.0
 11
12.0
 21
9.0
 12
0.0
 22
0.0
 32
0.0
 14
0.0
 24
0.0
 34
0.0
 15
0.0
 25
0.0
 35
0.0
146
0.0
 13
0.0
 23
0.0
 33
0.0
 16
1.0
 26
0.0
 36
0.0
 17
0.0
 27
1.0
 37
0.0
 76
     0
330
6F
331
8D
  0
LAYOUT
  5
6E
102
{ACAD_XDICTIONARY
360
47A
102
}
102
{ACAD_REACTORS
330
61
102
}
330
61
100
AcDbPlotSettings
  1

  2
DocuCentre-V 4070
  4

  6

 40
0.0
 41
0.0
 42
0.0
 43
0.0
 44
0.0
 45
0.0
 46
0.0
 47
0.0
 48
0.0
 49
0.0
140
0.0
141
0.0
142
1.0
143
1.0
 70
   688
 72
     0
 73
     0
 74
     5
  7

 75
    16
147
1.0
148
0.0
149
0.0
100
AcDbLayout
  1
レイアウト1
 70
     1
 71
     1
 10
0.0
 20
0.0
 11
12.0
 21
9.0
 12
0.0
 22
0.0
 32
0.0
 14
1.000000000000000E+20
 24
1.000000000000000E+20
 34
1.000000000000000E+20
 15
-1.000000000000000E+20
 25
-1.000000000000000E+20
 35
-1.000000000000000E+20
146
0.0
 13
0.0
 23
0.0
 33
0.0
 16
1.0
 26
0.0
 36
0.0
 17
0.0
 27
1.0
 37
0.0
 76
     0
330
6B
  0
MATERIAL
  5
19
102
{ACAD_XDICTIONARY
360
1A
102
}
102
{ACAD_REACTORS
330
10
102
}
330
10
100
AcDbMaterial
  1
ByBlock
 72
     0
 43
0.0208333333333333
 43
0.0
 43
0.0
 43
0.0
 43
0.0
 43
0.0208333333333333
 43
0.0
 43
0.0
 43
0.0
 43
0.0
 43
1.0
 43
0.0
 43
0.0
 43
0.0
 43
0.0
 43
1.0
 77
     0
 47
0.0208333333333333
 47
0.0
 47
0.0
 47
0.0
 47
0.0
 47
0.0208333333333333
 47
0.0
 47
0.0
 47
0.0
 47
0.0
 47
1.0
 47
0.0
 47
0.0
 47
0.0
 47
0.0
 47
1.0
171
     0
 49
0.0208333333333333
 49
0.0
 49
0.0
 49
0.0
 49
0.0
 49
0.0208333333333333
 49
0.0
 49
0.0
 49
0.0
 49
0.0
 49
1.0
 49
0.0
 49
0.0
 49
0.0
 49
0.0
 49
1.0
175
     0
142
0.0208333333333333
142
0.0
142
0.0
142
0.0
142
0.0
142
0.0208333333333333
142
0.0
142
0.0
142
0.0
142
0.0
142
1.0
142
0.0
142
0.0
142
0.0
142
0.0
142
1.0
179
     0
144
0.0208333333333333
144
0.0
144
0.0
144
0.0
144
0.0
144
0.0208333333333333
144
0.0
144
0.0
144
0.0
144
0.0
144
1.0
144
0.0
144
0.0
144
0.0
144
0.0
144
1.0
147
0.0208333333333333
147
0.0
147
0.0
147
0.0
147
0.0
147
0.0208333333333333
147
0.0
147
0.0
147
0.0
147
0.0
147
1.0
147
0.0
147
0.0
147
0.0
147
0.0
147
1.0
  0
MATERIAL
  5
11
102
{ACAD_XDICTIONARY
360
12
102
}
102
{ACAD_REACTORS
330
10
102
}
330
10
100
AcDbMaterial
  1
ByLayer
 72
     0
 43
0.0208333333333333
 43
0.0
 43
0.0
 43
0.0
 43
0.0
 43
0.0208333333333333
 43
0.0
 43
0.0
 43
0.0
 43
0.0
 43
1.0
 43
0.0
 43
0.0
 43
0.0
 43
0.0
 43
1.0
 77
     0
 47
0.0208333333333333
 47
0.0
 47
0.0
 47
0.0
 47
0.0
 47
0.0208333333333333
 47
0.0
 47
0.0
 47
0.0
 47
0.0
 47
1.0
 47
0.0
 47
0.0
 47
0.0
 47
0.0
 47
1.0
171
     0
 49
0.0208333333333333
 49
0.0
 49
0.0
 49
0.0
 49
0.0
 49
0.0208333333333333
 49
0.0
 49
0.0
 49
0.0
 49
0.0
 49
1.0
 49
0.0
 49
0.0
 49
0.0
 49
0.0
 49
1.0
175
     0
142
0.0208333333333333
142
0.0
142
0.0
142
0.0
142
0.0
142
0.0208333333333333
142
0.0
142
0.0
142
0.0
142
0.0
142
1.0
142
0.0
142
0.0
142
0.0
142
0.0
142
1.0
179
     0
144
0.0208333333333333
144
0.0
144
0.0
144
0.0
144
0.0
144
0.0208333333333333
144
0.0
144
0.0
144
0.0
144
0.0
144
1.0
144
0.0
144
0.0
144
0.0
144
0.0
144
1.0
147
0.0208333333333333
147
0.0
147
0.0
147
0.0
147
0.0
147
0.0208333333333333
147
0.0
147
0.0
147
0.0
147
0.0
147
1.0
147
0.0
147
0.0
147
0.0
147
0.0
147
1.0
  0
MATERIAL
  5
21
102
{ACAD_XDICTIONARY
360
22
102
}
102
{ACAD_REACTORS
330
10
102
}
330
10
100
AcDbMaterial
  1
Global
 72
     0
 43
0.0208333333333333
 43
0.0
 43
0.0
 43
0.0
 43
0.0
 43
0.0208333333333333
 43
0.0
 43
0.0
 43
0.0
 43
0.0
 43
1.0
 43
0.0
 43
0.0
 43
0.0
 43
0.0
 43
1.0
 77
     0
 47
0.0208333333333333
 47
0.0
 47
0.0
 47
0.0
 47
0.0
 47
0.0208333333333333
 47
0.0
 47
0.0
 47
0.0
 47
0.0
 47
1.0
 47
0.0
 47
0.0
 47
0.0
 47
0.0
 47
1.0
171
     0
 49
0.0208333333333333
 49
0.0
 49
0.0
 49
0.0
 49
0.0
 49
0.0208333333333333
 49
0.0
 49
0.0
 49
0.0
 49
0.0
 49
1.0
 49
0.0
 49
0.0
 49
0.0
 49
0.0
 49
1.0
175
     0
142
0.0208333333333333
142
0.0
142
0.0
142
0.0
142
0.0
142
0.0208333333333333
142
0.0
142
0.0
142
0.0
142
0.0
142
1.0
142
0.0
142
0.0
142
0.0
142
0.0
142
1.0
179
     0
144
0.0208333333333333
144
0.0
144
0.0
144
0.0
144
0.0
144
0.0208333333333333
144
0.0
144
0.0
144
0.0
144
0.0
144
1.0
144
0.0
144
0.0
144
0.0
144
0.0
144
1.0
147
0.0208333333333333
147
0.0
147
0.0
147
0.0
147
0.0
147
0.0208333333333333
147
0.0
147
0.0
147
0.0
147
0.0
147
1.0
147
0.0
147
0.0
147
0.0
147
0.0
147
1.0
  0
MLEADERSTYLE
  5
66
102
{ACAD_REACTORS
330
65
102
}
330
65
100
AcDbMLeaderStyle
170
     2
171
     1
172
     0
 90
        2
 40
0.0
 41
0.0
173
     1
 91
-1056964608
340
5A
 92
       -2
290
     1
 42
0.09
291
     1
 43
0.36
  3
Standard
 44
0.18
300

342
55
174
     1
178
     6
175
     1
176
     0
 93
-1056964608
 45
0.18
292
     0
297
     0
 46
0.18
 94
-1056964608
 47
1.0
 49
1.0
140
1.0
293
     1
141
0.0
294
     1
177
     0
142
1.0
295
     0
296
     0
143
0.125
1001
ACAD_MLEADERVER
1070
     2
  0
MLINESTYLE
  5
5F
102
{ACAD_REACTORS
330
5E
102
}
330
5E
100
AcDbMlineStyle
  2
STANDARD
 70
     0
  3

 62
   256
 51
90.0
 52
90.0
 71
     2
 49
0.5
 62
   256
  6
BYLAYER
 49
-0.5
 62
   256
  6
BYLAYER
  0
ACDBPLACEHOLDER
  5
F
102
{ACAD_REACTORS
330
E
102
}
330
E
  0
SCALE
  5
43
102
{ACAD_REACTORS
330
42
102
}
330
42
100
AcDbScale
 70
     0
300
1:1
140
1.0
141
1.0
290
     1
  0
SCALE
  5
44
102
{ACAD_REACTORS
330
42
102
}
330
42
100
AcDbScale
 70
     0
300
1/128" = 1'-0"
140
0.0078125
141
12.0
290
     0
  0
SCALE
  5
45
102
{ACAD_REACTORS
330
42
102
}
330
42
100
AcDbScale
 70
     0
300
1/64" = 1'-0"
140
0.015625
141
12.0
290
     0
  0
SCALE
  5
46
102
{ACAD_REACTORS
330
42
102
}
330
42
100
AcDbScale
 70
     0
300
1/32" = 1'-0"
140
0.03125
141
12.0
290
     0
  0
SCALE
  5
47
102
{ACAD_REACTORS
330
42
102
}
330
42
100
AcDbScale
 70
     0
300
1/16" = 1'-0"
140
0.0625
141
12.0
290
     0
  0
SCALE
  5
48
102
{ACAD_REACTORS
330
42
102
}
330
42
100
AcDbScale
 70
     0
300
3/32" = 1'-0"
140
0.09375
141
12.0
290
     0
  0
SCALE
  5
49
102
{ACAD_REACTORS
330
42
102
}
330
42
100
AcDbScale
 70
     0
300
1/8" = 1'-0"
140
0.125
141
12.0
290
     0
  0
SCALE
  5
4A
102
{ACAD_REACTORS
330
42
102
}
330
42
100
AcDbScale
 70
     0
300
3/16" = 1'-0"
140
0.1875
141
12.0
290
     0
  0
SCALE
  5
4B
102
{ACAD_REACTORS
330
42
102
}
330
42
100
AcDbScale
 70
     0
300
1/4" = 1'-0"
140
0.25
141
12.0
290
     0
  0
SCALE
  5
4C
102
{ACAD_REACTORS
330
42
102
}
330
42
100
AcDbScale
 70
     0
300
3/8" = 1'-0"
140
0.375
141
12.0
290
     0
  0
SCALE
  5
4D
102
{ACAD_REACTORS
330
42
102
}
330
42
100
AcDbScale
 70
     0
300
1/2" = 1'-0"
140
0.5
141
12.0
290
     0
  0
SCALE
  5
4E
102
{ACAD_REACTORS
330
42
102
}
330
42
100
AcDbScale
 70
     0
300
3/4" = 1'-0"
140
0.75
141
12.0
290
     0
  0
SCALE
  5
4F
102
{ACAD_REACTORS
330
42
102
}
330
42
100
AcDbScale
 70
     0
300
1" = 1'-0"
140
1.0
141
12.0
290
     0
  0
SCALE
  5
50
102
{ACAD_REACTORS
330
42
102
}
330
42
100
AcDbScale
 70
     0
300
1-1/2" = 1'-0"
140
1.5
141
12.0
290
     0
  0
SCALE
  5
51
102
{ACAD_REACTORS
330
42
102
}
330
42
100
AcDbScale
 70
     0
300
3" = 1'-0"
140
3.0
141
12.0
290
     0
  0
SCALE
  5
52
102
{ACAD_REACTORS
330
42
102
}
330
42
100
AcDbScale
 70
     0
300
6" = 1'-0"
140
6.0
141
12.0
290
     0
  0
SCALE
  5
53
102
{ACAD_REACTORS
330
42
102
}
330
42
100
AcDbScale
 70
     0
300
1'-0" = 1'-0"
140
12.0
141
12.0
290
     0
  0
ACDBSECTIONVIEWSTYLE
  5
68
102
{ACAD_XDICTIONARY
360
476
102
}
102
{ACAD_REACTORS
330
67
102
}
330
67
100
AcDbModelDocViewStyle
 70
     0
  3
Imperial24
290
     0
100
AcDbSectionViewStyle
 70
     0
 71
     0
 90
       78
 71
     1
340
55
 40
0.24
340
0
340
0
 40
0.24
300
I, O, Q, S, X, Z
 40
0.48
 90
        3
 40
0.18
 90
        1
 71
     2
340
5C
 90
       25
340
5C
 90
       50
 40
0.24
 40
0.0
 40
0.24
 71
     3
340
55
 40
0.24
 90
        1
 40
0.75
 90
        1
300
%<\AcVar ViewType \f "%tc1">% %<\AcVar ViewSectionStartId>%-%<\AcVar ViewSectionEndId>%\PSCALE %<\AcVar ViewScale \f "%sn">%
 71
     4
300
ANSI31
 40
1.0
 90
        0
290
     0
290
     0
 90
        6
 40
0.0
 40
1.570796326794896
 40
0.2617993877991494
 40
1.308996938995747
 40
-0.2617993877991494
 40
1.832595714594046
  0
TABLESTYLE
  5
64
102
{ACAD_XDICTIONARY
360
43D
102
}
102
{ACAD_REACTORS
330
63
102
}
330
63
100
AcDbTableStyle
  3
Standard
 70
     0
 71
     0
 40
0.06
 41
0.06
280
     0
281
     0
  7
STANDARD
140
0.18
170
     2
 62
     0
 63
     7
283
     0
274
    -2
284
     1
 64
     0
275
    -2
285
     1
 65
     0
276
    -2
286
     1
 66
     0
277
    -2
287
     1
 67
     0
278
    -2
288
     1
 68
     0
279
    -2
289
     1
 69
     0
  7
STANDARD
140
0.25
170
     5
 62
     0
 63
     7
283
     0
274
    -2
284
     1
 64
     0
275
    -2
285
     1
 65
     0
276
    -2
286
     1
 66
     0
277
    -2
287
     1
 67
     0
278
    -2
288
     1
 68
     0
279
    -2
289
     1
 69
     0
  7
STANDARD
140
0.18
170
     5
 62
     0
 63
     7
283
     0
274
    -2
284
     1
 64
     0
275
    -2
285
     1
 65
     0
276
    -2
286
     1
 66
     0
277
    -2
287
     1
 67
     0
278
    -2
288
     1
 68
     0
279
    -2
289
     1
 69
     0
  0
VISUALSTYLE
  5
2F
102
{ACAD_XDICTIONARY
360
44E
102
}
102
{ACAD_REACTORS
330
29
102
}
330
29
100
AcDbVisualStyle
  2
2dWireframe
 70
     4
 71
     0
 72
     2
 73
     0
 90
        0
 40
-0.6
 41
-30.0
 62
     5
 63
     7
 74
     1
 91
        4
 64
     7
 65
   257
 75
     1
175
     1
 42
1.0
 92
        0
 66
   257
 43
1.0
 76
     1
 77
     6
 78
     2
 67
     7
 79
     5
170
     0
171
     0
290
     0
174
     0
 93
        1
 44
0.0
173
     0
291
     0
 45
0.0
1001
ACAD
1000
AcDbSavedByObjectVersion
1070
     0
  0
VISUALSTYLE
  5
2E
102
{ACAD_XDICTIONARY
360
44C
102
}
102
{ACAD_REACTORS
330
29
102
}
330
29
100
AcDbVisualStyle
  2
Basic
 70
     7
 71
     1
 72
     0
 73
     1
 90
        0
 40
-0.6
 41
-30.0
 62
     5
 63
     7
 74
     0
 91
        4
 64
     7
 65
   257
 75
     1
175
     1
 42
1.0
 92
        8
 66
     7
 43
1.0
 76
     1
 77
     6
 78
     2
 67
     7
 79
     5
170
     0
171
     0
290
     0
174
     0
 93
        1
 44
0.0
173
     0
291
     1
 45
0.0
1001
ACAD
1000
AcDbSavedByObjectVersion
1070
     0
  0
VISUALSTYLE
  5
35
102
{ACAD_XDICTIONARY
360
45A
102
}
102
{ACAD_REACTORS
330
29
102
}
330
29
100
AcDbVisualStyle
  2
Brighten
 70
    12
 71
     2
 72
     2
 73
     0
 90
        0
 40
-0.6
 41
-30.0
 62
     5
 63
     7
 74
     1
 91
        4
 64
     7
 65
   257
 75
     1
175
     1
 42
1.0
 92
        8
 66
     7
 43
1.0
 76
     1
 77
     6
 78
     2
 67
     7
 79
     5
170
     0
171
     0
290
     0
174
     0
 93
        1
 44
50.0
173
     0
291
     1
 45
0.0
1001
ACAD
1000
AcDbSavedByObjectVersion
1070
     0
  0
VISUALSTYLE
  5
39
102
{ACAD_XDICTIONARY
360
462
102
}
102
{ACAD_REACTORS
330
29
102
}
330
29
100
AcDbVisualStyle
  2
ColorChange
 70
    16
 71
     2
 72
     2
 73
     3
 90
        0
 40
-0.6
 41
-30.0
 62
     5
 63
     8
 74
     1
 91
        4
 64
     7
 65
   257
 75
     1
175
     1
 42
1.0
 92
        8
 66
     8
 43
1.0
 76
     1
 77
     6
 78
     2
 67
     7
 79
     5
170
     0
171
     0
290
     0
174
     0
 93
        1
 44
0.0
173
     0
291
     1
 45
0.0
1001
ACAD
1000
AcDbSavedByObjectVersion
1070
     0
  0
VISUALSTYLE
  5
32
102
{ACAD_XDICTIONARY
360
454
102
}
102
{ACAD_REACTORS
330
29
102
}
330
29
100
AcDbVisualStyle
  2
Conceptual
 70
     9
 71
     3
 72
     2
 73
     0
 90
        0
 40
-0.6
 41
-30.0
 62
     5
 63
     7
 74
     2
 91
        2
 64
     7
 65
   257
 75
     1
175
     1
 42
179.0
 92
        8
 66
     7
 43
1.0
 76
     1
 77
     6
 78
     2
 67
     7
 79
     3
170
     0
171
     0
290
     0
174
     0
 93
        1
 44
0.0
173
     0
291
     0
 45
0.0
1001
ACAD
1000
AcDbSavedByObjectVersion
1070
     0
  0
VISUALSTYLE
  5
34
102
{ACAD_XDICTIONARY
360
458
102
}
102
{ACAD_REACTORS
330
29
102
}
330
29
100
AcDbVisualStyle
  2
Dim
 70
    11
 71
     2
 72
     2
 73
     0
 90
        0
 40
-0.6
 41
-30.0
 62
     5
 63
     7
 74
     1
 91
        4
 64
     7
 65
   257
 75
     1
175
     1
 42
1.0
 92
        8
 66
     7
 43
1.0
 76
     1
 77
     6
 78
     2
 67
     7
 79
     5
170
     0
171
     0
290
     0
174
     0
 93
        1
 44
-50.0
173
     0
291
     1
 45
0.0
1001
ACAD
1000
AcDbSavedByObjectVersion
1070
     0
  0
VISUALSTYLE
  5
41
102
{ACAD_XDICTIONARY
360
472
102
}
102
{ACAD_REACTORS
330
29
102
}
330
29
100
AcDbVisualStyle
  2
EdgeColorOff
 70
    22
 71
     2
 72
     2
 73
     0
 90
        0
 40
-0.6
 41
-30.0
 62
     5
 63
     7
 74
     1
 91
        4
 64
     7
 65
   257
 75
     1
175
     1
 42
1.0
 92
        8
 66
     7
 43
1.0
 76
     1
 77
     6
 78
     2
 67
     7
 79
     5
170
     0
171
     0
290
     0
174
     0
 93
        1
 44
0.0
173
     0
291
     1
 45
0.0
1001
ACAD
1000
AcDbSavedByObjectVersion
1070
     0
  0
VISUALSTYLE
  5
38
102
{ACAD_XDICTIONARY
360
460
102
}
102
{ACAD_REACTORS
330
29
102
}
330
29
100
AcDbVisualStyle
  2
Facepattern
 70
    15
 71
     2
 72
     2
 73
     0
 90
        0
 40
-0.6
 41
-30.0
 62
     5
 63
     7
 74
     1
 91
        4
 64
     7
 65
   257
 75
     1
175
     1
 42
1.0
 92
        8
 66
     7
 43
1.0
 76
     1
 77
     6
 78
     2
 67
     7
 79
     5
170
     0
171
     0
290
     0
174
     0
 93
        1
 44
0.0
173
     0
291
     1
 45
0.0
1001
ACAD
1000
AcDbSavedByObjectVersion
1070
     0
  0
VISUALSTYLE
  5
2A
102
{ACAD_XDICTIONARY
360
444
102
}
102
{ACAD_REACTORS
330
29
102
}
330
29
100
AcDbVisualStyle
  2
Flat
 70
     0
 71
     2
 72
     1
 73
     1
 90
        2
 40
-0.6
 41
30.0
 62
     5
 63
     7
 74
     0
 91
        0
 64
     7
 65
   257
 75
     1
175
     1
 42
1.0
 92
        8
 66
     7
 43
1.0
 76
     1
 77
     6
 78
     2
 67
     7
 79
     5
170
     0
171
     0
290
     0
174
     0
 93
       13
 44
0.0
173
     0
291
     1
 45
0.0
1001
ACAD
1000
AcDbSavedByObjectVersion
1070
     0
  0
VISUALSTYLE
  5
2B
102
{ACAD_XDICTIONARY
360
446
102
}
102
{ACAD_REACTORS
330
29
102
}
330
29
100
AcDbVisualStyle
  2
FlatWithEdges
 70
     1
 71
     2
 72
     1
 73
     1
 90
        2
 40
-0.6
 41
30.0
 62
     5
 63
     7
 74
     1
 91
        0
 64
     7
 65
   257
 75
     1
175
     1
 42
1.0
 92
        0
 66
   257
 43
1.0
 76
     1
 77
     6
 78
     2
 67
     7
 79
     5
170
     0
171
     0
290
     0
174
     0
 93
       13
 44
0.0
173
     0
291
     1
 45
0.0
1001
ACAD
1000
AcDbSavedByObjectVersion
1070
     0
  0
VISUALSTYLE
  5
2C
102
{ACAD_XDICTIONARY
360
448
102
}
102
{ACAD_REACTORS
330
29
102
}
330
29
100
AcDbVisualStyle
  2
Gouraud
 70
     2
 71
     2
 72
     2
 73
     1
 90
        2
 40
-0.6
 41
30.0
 62
     5
 63
     7
 74
     0
 91
        0
 64
     7
 65
   257
 75
     1
175
     1
 42
1.0
 92
        0
 66
     7
 43
1.0
 76
     1
 77
     6
 78
     2
 67
     7
 79
     5
170
     0
171
     0
290
     0
174
     0
 93
       13
 44
0.0
173
     0
291
     1
 45
0.0
1001
ACAD
1000
AcDbSavedByObjectVersion
1070
     0
  0
VISUALSTYLE
  5
2D
102
{ACAD_XDICTIONARY
360
44A
102
}
102
{ACAD_REACTORS
330
29
102
}
330
29
100
AcDbVisualStyle
  2
GouraudWithEdges
 70
     3
 71
     2
 72
     2
 73
     1
 90
        2
 40
-0.6
 41
30.0
 62
     5
 63
     7
 74
     1
 91
        0
 64
     7
 65
   257
 75
     1
175
     1
 42
1.0
 92
        0
 66
   257
 43
1.0
 76
     1
 77
     6
 78
     2
 67
     7
 79
     5
170
     0
171
     0
290
     0
174
     0
 93
       13
 44
0.0
173
     0
291
     1
 45
0.0
1001
ACAD
1000
AcDbSavedByObjectVersion
1070
     0
  0
VISUALSTYLE
  5
31
102
{ACAD_XDICTIONARY
360
452
102
}
102
{ACAD_REACTORS
330
29
102
}
330
29
100
AcDbVisualStyle
  2
Hidden
 70
     6
 71
     1
 72
     2
 73
     2
 90
        0
 40
-0.6
 41
-30.0
 62
     5
 63
     7
 74
     2
 91
        2
 64
     7
 65
   257
 75
     2
175
     1
 42
40.0
 92
        0
 66
   257
 43
1.0
 76
     1
 77
     6
 78
     2
 67
     7
 79
     3
170
     0
171
     0
290
     0
174
     0
 93
        1
 44
0.0
173
     0
291
     0
 45
0.0
1001
ACAD
1000
AcDbSavedByObjectVersion
1070
     0
  0
VISUALSTYLE
  5
3F
102
{ACAD_XDICTIONARY
360
46E
102
}
102
{ACAD_REACTORS
330
29
102
}
330
29
100
AcDbVisualStyle
  2
JitterOff
 70
    20
 71
     2
 72
     2
 73
     0
 90
        0
 40
-0.6
 41
-30.0
 62
     5
 63
     7
 74
     1
 91
        4
 64
     7
 65
   257
 75
     1
175
     1
 42
1.0
 92
       10
 66
     7
 43
1.0
 76
     1
 77
     6
 78
     2
 67
     7
 79
     5
170
     0
171
     0
290
     0
174
     0
 93
        1
 44
0.0
173
     0
291
     1
 45
0.0
1001
ACAD
1000
AcDbSavedByObjectVersion
1070
     0
  0
VISUALSTYLE
  5
37
102
{ACAD_XDICTIONARY
360
45E
102
}
102
{ACAD_REACTORS
330
29
102
}
330
29
100
AcDbVisualStyle
  2
Linepattern
 70
    14
 71
     2
 72
     2
 73
     0
 90
        0
 40
-0.6
 41
-30.0
 62
     5
 63
     7
 74
     1
 91
        4
 64
     7
 65
   257
 75
     7
175
     7
 42
1.0
 92
        8
 66
     7
 43
1.0
 76
     1
 77
     6
 78
     2
 67
     7
 79
     5
170
     0
171
     0
290
     0
174
     0
 93
        1
 44
0.0
173
     0
291
     1
 45
0.0
1001
ACAD
1000
AcDbSavedByObjectVersion
1070
     0
  0
VISUALSTYLE
  5
40
102
{ACAD_XDICTIONARY
360
470
102
}
102
{ACAD_REACTORS
330
29
102
}
330
29
100
AcDbVisualStyle
  2
OverhangOff
 70
    21
 71
     2
 72
     2
 73
     0
 90
        0
 40
-0.6
 41
-30.0
 62
     5
 63
     7
 74
     1
 91
        4
 64
     7
 65
   257
 75
     1
175
     1
 42
1.0
 92
        9
 66
     7
 43
1.0
 76
     1
 77
     6
 78
     2
 67
     7
 79
     5
170
     0
171
     0
290
     0
174
     0
 93
        1
 44
0.0
173
     0
291
     1
 45
0.0
1001
ACAD
1000
AcDbSavedByObjectVersion
1070
     0
  0
VISUALSTYLE
  5
33
102
{ACAD_XDICTIONARY
360
456
102
}
102
{ACAD_REACTORS
330
29
102
}
330
29
100
AcDbVisualStyle
  2
Realistic
 70
     8
 71
     2
 72
     3
 73
     0
 90
        2
 40
-0.6
 41
30.0
 62
     5
 63
     7
 74
     0
 91
        0
 64
     7
 65
   257
 75
     1
175
     1
 42
1.0
 92
        8
 66
   257
 43
1.0
 76
     1
 77
     6
 78
     2
 67
     7
 79
     3
170
     0
171
     0
290
     0
174
     0
 93
       13
 44
0.0
173
     0
291
     0
 45
0.0
1001
ACAD
1000
AcDbSavedByObjectVersion
1070
     0
  0
VISUALSTYLE
  5
3E
102
{ACAD_XDICTIONARY
360
46C
102
}
102
{ACAD_REACTORS
330
29
102
}
330
29
100
AcDbVisualStyle
  2
Shaded
 70
    27
 71
     2
 72
     2
 73
     1
 90
        2
 40
-0.6
 41
30.0
 62
     5
 63
     7
 74
     0
 91
        4
 64
     7
 65
   257
 75
     1
175
     1
 42
1.0
 92
        8
 66
   257
 43
1.0
 76
     1
 77
     6
 78
     2
 67
     8
 79
     3
170
     0
171
     0
290
     0
174
     0
 93
        5
 44
0.0
173
     0
291
     0
 45
0.0
1001
ACAD
1000
AcDbSavedByObjectVersion
1070
     0
  0
VISUALSTYLE
  5
3D
102
{ACAD_XDICTIONARY
360
46A
102
}
102
{ACAD_REACTORS
330
29
102
}
330
29
100
AcDbVisualStyle
  2
Shaded with edges
 70
    26
 71
     2
 72
     2
 73
     1
 90
        2
 40
-0.6
 41
30.0
 62
     5
 63
     7
 74
     1
 91
        2
 64
     7
 65
   257
 75
     2
175
     1
 42
1.0
 92
        8
 66
   257
 43
1.0
 76
     1
 77
     6
 78
     2
 67
     7
 79
     3
170
     0
171
     0
290
     0
174
     0
 93
        5
 44
0.0
173
     0
291
     0
 45
0.0
1001
ACAD
1000
AcDbSavedByObjectVersion
1070
     0
  0
VISUALSTYLE
  5
3A
102
{ACAD_XDICTIONARY
360
464
102
}
102
{ACAD_REACTORS
330
29
102
}
330
29
100
AcDbVisualStyle
  2
Shades of Gray
 70
    23
 71
     2
 72
     2
 73
     3
 90
        0
 40
-0.6
 41
-30.0
 62
     5
 63
     7
 74
     2
 91
        2
 64
     7
 65
     7
 75
     1
175
     1
 42
40.0
 92
        8
 66
     7
 43
1.0
 76
     1
 77
     6
 78
     2
 67
     7
 79
     3
170
     0
171
     0
290
     0
174
     0
 93
        1
 44
0.0
173
     0
291
     0
 45
0.0
1001
ACAD
1000
AcDbSavedByObjectVersion
1070
     0
  0
VISUALSTYLE
  5
3B
102
{ACAD_XDICTIONARY
360
466
102
}
102
{ACAD_REACTORS
330
29
102
}
330
29
100
AcDbVisualStyle
  2
Sketchy
 70
    24
 71
     1
 72
     2
 73
     2
 90
        0
 40
-0.6
 41
-30.0
 62
     5
 63
     7
 74
     2
 91
        2
 64
     7
 65
     7
 75
     1
175
     1
 42
40.0
 92
       11
 66
     7
 43
1.0
 76
     1
 77
     6
 78
     2
 67
     7
 79
     6
170
     0
171
     0
290
     0
174
     0
 93
        1
 44
0.0
173
     0
291
     0
 45
0.0
1001
ACAD
1000
AcDbSavedByObjectVersion
1070
     0
  0
VISUALSTYLE
  5
36
102
{ACAD_XDICTIONARY
360
45C
102
}
102
{ACAD_REACTORS
330
29
102
}
330
29
100
AcDbVisualStyle
  2
Thicken
 70
    13
 71
     2
 72
     2
 73
     0
 90
        0
 40
-0.6
 41
-30.0
 62
     5
 63
     7
 74
     1
 91
        4
 64
     7
 65
   257
 75
     1
175
     1
 42
1.0
 92
       12
 66
     7
 43
1.0
 76
     1
 77
     6
 78
     2
 67
     7
 79
     5
170
     0
171
     0
290
     0
174
     0
 93
        1
 44
0.0
173
     0
291
     1
 45
0.0
1001
ACAD
1000
AcDbSavedByObjectVersion
1070
     0
  0
VISUALSTYLE
  5
30
102
{ACAD_XDICTIONARY
360
450
102
}
102
{ACAD_REACTORS
330
29
102
}
330
29
100
AcDbVisualStyle
  2
Wireframe
 70
     5
 71
     0
 72
     2
 73
     0
 90
        0
 40
-0.6
 41
-30.0
 62
     5
 63
     7
 74
     1
 91
        4
 64
     7
 65
   257
 75
     1
175
     1
 42
1.0
 92
        0
 66
   257
 43
1.0
 76
     1
 77
     6
 78
     2
 67
     7
 79
     3
170
     0
171
     0
290
     0
174
     0
 93
        1
 44
0.0
173
     0
291
     0
 45
0.0
1001
ACAD
1000
AcDbSavedByObjectVersion
1070
     0
  0
VISUALSTYLE
  5
3C
102
{ACAD_XDICTIONARY
360
468
102
}
102
{ACAD_REACTORS
330
29
102
}
330
29
100
AcDbVisualStyle
  2
X-Ray
 70
    25
 71
     2
 72
     2
 73
     1
 90
        1
 40
0.5
 41
-30.0
 62
     5
 63
     7
 74
     1
 91
        0
 64
     7
 65
   257
 75
     1
175
     1
 42
1.0
 92
        8
 66
     7
 43
1.0
 76
     1
 77
     6
 78
     2
 67
     7
 79
     3
170
     0
171
     0
290
     0
174
     0
 93
       13
 44
0.0
173
     0
291
     0
 45
0.0
1001
ACAD
1000
AcDbSavedByObjectVersion
1070
     0
  0
DICTIONARYVAR
  5
437
102
{ACAD_REACTORS
330
432
102
}
330
432
100
DictionaryVariables
280
     0
  1
1:1
  0
DICTIONARYVAR
  5
434
102
{ACAD_REACTORS
330
432
102
}
330
432
100
DictionaryVariables
280
     0
  1
STANDARD
  0
DICTIONARYVAR
  5
433
102
{ACAD_REACTORS
330
432
102
}
330
432
100
DictionaryVariables
280
     0
  1
STANDARD
  0
DICTIONARYVAR
  5
435
102
{ACAD_REACTORS
330
432
102
}
330
432
100
DictionaryVariables
280
     0
  1
Imperial24
  0
DICTIONARYVAR
  5
436
102
{ACAD_REACTORS
330
432
102
}
330
432
100
DictionaryVariables
280
     0
  1
Imperial24
  0
DICTIONARYVAR
  5
43A
102
{ACAD_REACTORS
330
432
102
}
330
432
100
DictionaryVariables
280
     0
  1
1
  0
DICTIONARYVAR
  5
439
102
{ACAD_REACTORS
330
432
102
}
330
432
100
DictionaryVariables
280
     0
  1
0
  0
DICTIONARYVAR
  5
438
102
{ACAD_REACTORS
330
432
102
}
330
432
100
DictionaryVariables
280
     0
  1
127
  0
DICTIONARYVAR
  5
43B
102
{ACAD_REACTORS
330
432
102
}
330
432
100
DictionaryVariables
280
     0
  1
2
  0
DICTIONARY
  5
478
330
6A
100
AcDbDictionary
280
     1
281
     1
  3
ACAD_XREC_ROUNDTRIP
360
479
  0
DICTIONARY
  5
47C
330
72
100
AcDbDictionary
280
     1
281
     1
  3
ACAD_XREC_ROUNDTRIP
360
47D
  0
DICTIONARY
  5
47A
330
6E
100
AcDbDictionary
280
     1
281
     1
  3
ACAD_XREC_ROUNDTRIP
360
47B
  0
DICTIONARY
  5
1A
330
19
100
AcDbDictionary
280
     1
281
     1
  3
ACAD_XREC_ROUNDTRIP
360
442
  3
BUMPTILE
360
1C
  3
DIFFUSETILE
360
1B
  3
OPACITYTILE
360
1F
  3
REFLECTIONTILE
360
1E
  3
REFRACTIONTILE
360
20
  3
SPECULARTILE
360
1D
  0
DICTIONARY
  5
12
330
11
100
AcDbDictionary
280
     1
281
     1
  3
ACAD_XREC_ROUNDTRIP
360
441
  3
BUMPTILE
360
14
  3
DIFFUSETILE
360
13
  3
OPACITYTILE
360
17
  3
REFLECTIONTILE
360
16
  3
REFRACTIONTILE
360
18
  3
SPECULARTILE
360
15
  0
DICTIONARY
  5
22
330
21
100
AcDbDictionary
280
     1
281
     1
  3
ACAD_XREC_ROUNDTRIP
360
443
  3
BUMPTILE
360
24
  3
DIFFUSETILE
360
23
  3
OPACITYTILE
360
27
  3
REFLECTIONTILE
360
26
  3
REFRACTIONTILE
360
28
  3
SPECULARTILE
360
25
  0
DICTIONARY
  5
476
330
68
100
AcDbDictionary
280
     1
281
     1
  3
ACAD_XREC_ROUNDTRIP
360
477
  0
DICTIONARY
  5
43D
330
64
100
AcDbDictionary
280
     1
281
     1
  3
ACAD_ROUNDTRIP_2008_TABLESTYLE_CELLSTYLEMAP
360
43E
  3
ACAD_XREC_ROUNDTRIP
360
474
  0
DICTIONARY
  5
44E
330
2F
100
AcDbDictionary
280
     1
281
     1
  3
ACAD_XREC_ROUNDTRIP
360
44F
  0
DICTIONARY
  5
44C
330
2E
100
AcDbDictionary
280
     1
281
     1
  3
ACAD_XREC_ROUNDTRIP
360
44D
  0
DICTIONARY
  5
45A
330
35
100
AcDbDictionary
280
     1
281
     1
  3
ACAD_XREC_ROUNDTRIP
360
45B
  0
DICTIONARY
  5
462
330
39
100
AcDbDictionary
280
     1
281
     1
  3
ACAD_XREC_ROUNDTRIP
360
463
  0
DICTIONARY
  5
454
330
32
100
AcDbDictionary
280
     1
281
     1
  3
ACAD_XREC_ROUNDTRIP
360
455
  0
DICTIONARY
  5
458
330
34
100
AcDbDictionary
280
     1
281
     1
  3
ACAD_XREC_ROUNDTRIP
360
459
  0
DICTIONARY
  5
472
330
41
100
AcDbDictionary
280
     1
281
     1
  3
ACAD_XREC_ROUNDTRIP
360
473
  0
DICTIONARY
  5
460
330
38
100
AcDbDictionary
280
     1
281
     1
  3
ACAD_XREC_ROUNDTRIP
360
461
  0
DICTIONARY
  5
444
330
2A
100
AcDbDictionary
280
     1
281
     1
  3
ACAD_XREC_ROUNDTRIP
360
445
  0
DICTIONARY
  5
446
330
2B
100
AcDbDictionary
280
     1
281
     1
  3
ACAD_XREC_ROUNDTRIP
360
447
  0
DICTIONARY
  5
448
330
2C
100
AcDbDictionary
280
     1
281
     1
  3
ACAD_XREC_ROUNDTRIP
360
449
  0
DICTIONARY
  5
44A
330
2D
100
AcDbDictionary
280
     1
281
     1
  3
ACAD_XREC_ROUNDTRIP
360
44B
  0
DICTIONARY
  5
452
330
31
100
AcDbDictionary
280
     1
281
     1
  3
ACAD_XREC_ROUNDTRIP
360
453
  0
DICTIONARY
  5
46E
330
3F
100
AcDbDictionary
280
     1
281
     1
  3
ACAD_XREC_ROUNDTRIP
360
46F
  0
DICTIONARY
  5
45E
330
37
100
AcDbDictionary
280
     1
281
     1
  3
ACAD_XREC_ROUNDTRIP
360
45F
  0
DICTIONARY
  5
470
330
40
100
AcDbDictionary
280
     1
281
     1
  3
ACAD_XREC_ROUNDTRIP
360
471
  0
DICTIONARY
  5
456
330
33
100
AcDbDictionary
280
     1
281
     1
  3
ACAD_XREC_ROUNDTRIP
360
457
  0
DICTIONARY
  5
46C
330
3E
100
AcDbDictionary
280
     1
281
     1
  3
ACAD_XREC_ROUNDTRIP
360
46D
  0
DICTIONARY
  5
46A
330
3D
100
AcDbDictionary
280
     1
281
     1
  3
ACAD_XREC_ROUNDTRIP
360
46B
  0
DICTIONARY
  5
464
330
3A
100
AcDbDictionary
280
     1
281
     1
  3
ACAD_XREC_ROUNDTRIP
360
465
  0
DICTIONARY
  5
466
330
3B
100
AcDbDictionary
280
     1
281
     1
  3
ACAD_XREC_ROUNDTRIP
360
467
  0
DICTIONARY
  5
45C
330
36
100
AcDbDictionary
280
     1
281
     1
  3
ACAD_XREC_ROUNDTRIP
360
45D
  0
DICTIONARY
  5
450
330
30
100
AcDbDictionary
280
     1
281
     1
  3
ACAD_XREC_ROUNDTRIP
360
451
  0
DICTIONARY
  5
468
330
3C
100
AcDbDictionary
280
     1
281
     1
  3
ACAD_XREC_ROUNDTRIP
360
469
  0
XRECORD
  5
479
102
{ACAD_REACTORS
330
478
102
}
330
478
100
AcDbXrecord
280
     1
102
DISPLAYNAME
  1
Imperial24
102
FLAGS
 90
        0
  0
XRECORD
  5
47D
102
{ACAD_REACTORS
330
47C
102
}
330
47C
100
AcDbXrecord
280
     1
102
SHADEPLOT
 70
     0
102
SHADEPLOTRESLEVEL
 70
     2
102
SHADEPLOTCUSTOMDPI
 70
   300
  0
XRECORD
  5
47B
102
{ACAD_REACTORS
330
47A
102
}
330
47A
100
AcDbXrecord
280
     1
102
SHADEPLOT
 70
     0
102
SHADEPLOTRESLEVEL
 70
     2
102
SHADEPLOTCUSTOMDPI
 70
   300
  0
XRECORD
  5
442
102
{ACAD_REACTORS
330
1A
102
}
330
1A
100
AcDbXrecord
280
     1
102
MATERIAL
148
0.0
149
0.0
149
0.0
 93
        0
 94
      127
282
     0
 72
     0
 77
     0
171
     0
175
     0
179
     0
273
     0
  0
XRECORD
  5
1C
102
{ACAD_REACTORS
330
1A
102
}
330
1A
100
AcDbXrecord
280
     1
270
     1
271
     1
  0
XRECORD
  5
1B
102
{ACAD_REACTORS
330
1A
102
}
330
1A
100
AcDbXrecord
280
     1
270
     1
271
     1
  0
XRECORD
  5
1F
102
{ACAD_REACTORS
330
1A
102
}
330
1A
100
AcDbXrecord
280
     1
270
     1
271
     1
  0
XRECORD
  5
1E
102
{ACAD_REACTORS
330
1A
102
}
330
1A
100
AcDbXrecord
280
     1
270
     1
271
     1
  0
XRECORD
  5
20
102
{ACAD_REACTORS
330
1A
102
}
330
1A
100
AcDbXrecord
280
     1
270
     1
271
     1
  0
XRECORD
  5
1D
102
{ACAD_REACTORS
330
1A
102
}
330
1A
100
AcDbXrecord
280
     1
270
     1
271
     1
  0
XRECORD
  5
441
102
{ACAD_REACTORS
330
12
102
}
330
12
100
AcDbXrecord
280
     1
102
MATERIAL
148
0.0
149
0.0
149
0.0
 93
        0
 94
      127
282
     0
 72
     0
 77
     0
171
     0
175
     0
179
     0
273
     0
  0
XRECORD
  5
14
102
{ACAD_REACTORS
330
12
102
}
330
12
100
AcDbXrecord
280
     1
270
     1
271
     1
  0
XRECORD
  5
13
102
{ACAD_REACTORS
330
12
102
}
330
12
100
AcDbXrecord
280
     1
270
     1
271
     1
  0
XRECORD
  5
17
102
{ACAD_REACTORS
330
12
102
}
330
12
100
AcDbXrecord
280
     1
270
     1
271
     1
  0
XRECORD
  5
16
102
{ACAD_REACTORS
330
12
102
}
330
12
100
AcDbXrecord
280
     1
270
     1
271
     1
  0
XRECORD
  5
18
102
{ACAD_REACTORS
330
12
102
}
330
12
100
AcDbXrecord
280
     1
270
     1
271
     1
  0
XRECORD
  5
15
102
{ACAD_REACTORS
330
12
102
}
330
12
100
AcDbXrecord
280
     1
270
     1
271
     1
  0
XRECORD
  5
443
102
{ACAD_REACTORS
330
22
102
}
330
22
100
AcDbXrecord
280
     1
102
MATERIAL
148
0.0
149
0.0
149
0.0
 93
        0
 94
      127
282
     0
 72
     0
 77
     0
171
     0
175
     0
179
     0
273
     0
  0
XRECORD
  5
24
102
{ACAD_REACTORS
330
22
102
}
330
22
100
AcDbXrecord
280
     1
270
     1
271
     1
  0
XRECORD
  5
23
102
{ACAD_REACTORS
330
22
102
}
330
22
100
AcDbXrecord
280
     1
270
     1
271
     1
  0
XRECORD
  5
27
102
{ACAD_REACTORS
330
22
102
}
330
22
100
AcDbXrecord
280
     1
270
     1
271
     1
  0
XRECORD
  5
26
102
{ACAD_REACTORS
330
22
102
}
330
22
100
AcDbXrecord
280
     1
270
     1
271
     1
  0
XRECORD
  5
28
102
{ACAD_REACTORS
330
22
102
}
330
22
100
AcDbXrecord
280
     1
270
     1
271
     1
  0
XRECORD
  5
25
102
{ACAD_REACTORS
330
22
102
}
330
22
100
AcDbXrecord
280
     1
270
     1
271
     1
  0
XRECORD
  5
477
102
{ACAD_REACTORS
330
476
102
}
330
476
100
AcDbXrecord
280
     1
102
DISPLAYNAME
  1
Imperial24
102
FLAGS
 90
        0
  0
CELLSTYLEMAP
  5
43E
102
{ACAD_REACTORS
330
43D
102
}
330
43D
100
AcDbCellStyleMap
 90
        3
300
CELLSTYLE
  1
TABLEFORMAT_BEGIN
 90
        5
170
     1
 91
        0
 92
    32768
 62
   257
 93
        1
300
CONTENTFORMAT
  1
CONTENTFORMAT_BEGIN
 90
        0
 91
        0
 92
      512
 93
        0
300

 40
0.0
140
1.0
 94
        5
 62
     0
340
55
144
0.25
309
CONTENTFORMAT_END
171
     0
 94
        0
309
TABLEFORMAT_END
  1
CELLSTYLE_BEGIN
 90
        1
 91
        1
300
_TITLE
309
CELLSTYLE_END
300
CELLSTYLE
  1
TABLEFORMAT_BEGIN
 90
        5
170
     1
 91
        0
 92
        0
 62
   257
 93
        1
300
CONTENTFORMAT
  1
CONTENTFORMAT_BEGIN
 90
        0
 91
        0
 92
      512
 93
        0
300

 40
0.0
140
1.0
 94
        5
 62
     0
340
55
144
0.18
309
CONTENTFORMAT_END
171
     0
 94
        0
309
TABLEFORMAT_END
  1
CELLSTYLE_BEGIN
 90
        2
 91
        1
300
_HEADER
309
CELLSTYLE_END
300
CELLSTYLE
  1
TABLEFORMAT_BEGIN
 90
        5
170
     1
 91
        0
 92
        0
 62
   257
 93
        1
300
CONTENTFORMAT
  1
CONTENTFORMAT_BEGIN
 90
        0
 91
        0
 92
      512
 93
        0
300

 40
0.0
140
1.0
 94
        2
 62
     0
340
55
144
0.18
309
CONTENTFORMAT_END
171
     0
 94
        0
309
TABLEFORMAT_END
  1
CELLSTYLE_BEGIN
 90
        3
 91
        2
300
_DATA
309
CELLSTYLE_END
  0
XRECORD
  5
474
102
{ACAD_REACTORS
330
43D
102
}
330
43D
100
AcDbXrecord
280
     1
102
ACAD_ROUNDTRIP_PRE2007_TABLESTYLE
 90
      512
 91
        0
  1

 92
      512
 93
        0
  2

 94
      512
 95
        0
  3

  0
XRECORD
  5
44F
102
{ACAD_REACTORS
330
44E
102
}
330
44E
100
AcDbXrecord
280
     1
102
RTVSPost2010Prop28
280
     1
102
RTVSPost2010PropOp28
 70
     1
102
RTVSPost2010Prop29
280
     1
102
RTVSPost2010PropOp29
 70
     1
102
RTVSPost2010Prop30
280
     0
102
RTVSPost2010PropOp30
 70
     1
102
RTVSPost2010Prop31
280
     0
102
RTVSPost2010PropOp31
 70
     1
102
RTVSPost2010Prop32
280
     0
102
RTVSPost2010PropOp32
 70
     1
102
RTVSPost2010Prop33
280
     0
102
RTVSPost2010PropOp33
 70
     1
102
RTVSPost2010Prop34
280
     0
102
RTVSPost2010PropOp34
 70
     1
102
RTVSPost2010Prop35
280
     0
102
RTVSPost2010PropOp35
 70
     1
102
RTVSPost2010Prop36
280
     0
102
RTVSPost2010PropOp36
 70
     1
102
RTVSPost2010Prop37
 90
       50
102
RTVSPost2010PropOp37
 70
     1
102
RTVSPost2010Prop38
140
0.0
102
RTVSPost2010PropOp38
 70
     1
102
RTVSPost2010Prop39
140
1.0
102
RTVSPost2010PropOp39
 70
     1
102
RTVSPost2010Prop40
 90
        0
102
RTVSPost2010PropOp40
 70
     1
102
RTVSPost2010Prop41ColorIndex
 90
       18
102
RTVSPost2010Prop41ColorRGB
 90
        0
102
RTVSPost2010PropOp41
 70
     1
102
RTVSPost2010Prop42
 90
       50
102
RTVSPost2010PropOp42
 70
     1
102
RTVSPost2010Prop43
 90
        3
102
RTVSPost2010PropOp43
 70
     1
102
RTVSPost2010Prop44ColorIndex
 90
        5
102
RTVSPost2010Prop44ColorRGB
 90
      255
102
RTVSPost2010PropOp44
 70
     1
102
RTVSPost2010Prop45
280
     0
102
RTVSPost2010PropOp45
 70
     1
102
RTVSPost2010Prop46
 90
       50
102
RTVSPost2010PropOp46
 70
     1
102
RTVSPost2010Prop47
 90
       50
102
RTVSPost2010PropOp47
 70
     1
102
RTVSPost2010Prop48
 90
       50
102
RTVSPost2010PropOp48
 70
     1
102
RTVSPost2010Prop49
280
     0
102
RTVSPost2010PropOp49
 70
     1
102
RTVSPost2010Prop50
 90
       50
102
RTVSPost2010PropOp50
 70
     1
102
RTVSPost2010Prop51ColorIndex
 90
      256
102
RTVSPost2010Prop51ColorRGB
 90
-16777216
102
RTVSPost2010PropOp51
 70
     0
102
RTVSPost2010Prop52
140
1.0
102
RTVSPost2010PropOp52
 70
     0
102
RTVSPost2010Prop53
 90
        2
102
RTVSPost2010PropOp53
 70
     1
102
RTVSPost2010Prop54
  1
strokes_ogs.tif
102
RTVSPost2010PropOp54
 70
     1
102
RTVSPost2010Prop55
280
     0
102
RTVSPost2010PropOp55
 70
     1
102
RTVSPost2010Prop56
140
1.0
102
RTVSPost2010PropOp56
 70
     1
102
RTVSPost2010Prop57
140
1.0
102
RTVSPost2010PropOp57
 70
     1
102
RTVSPropertyOp0
 70
     1
102
RTVSPropertyOp1
 70
     1
102
RTVSPropertyOp2
 70
     1
102
RTVSPropertyOp3
 70
     1
102
RTVSPropertyOp4
 70
     1
102
RTVSPropertyOp5
 70
     1
102
RTVSPropertyOp6
 70
     1
102
RTVSPropertyOp7
 70
     1
102
RTVSPropertyOp8
 70
     1
102
RTVSPropertyOp9
 70
     1
102
RTVSPropertyOp10
 70
     1
102
RTVSPropertyOp11
 70
     1
102
RTVSPropertyOp12
 70
     1
102
RTVSPropertyOp13
 70
     1
102
RTVSPropertyOp14
 70
     1
102
RTVSPropertyOp15
 70
     1
102
RTVSPropertyOp16
 70
     1
102
RTVSPropertyOp17
 70
     1
102
RTVSPropertyOp18
 70
     1
102
RTVSPropertyOp19
 70
     1
102
RTVSPropertyOp20
 70
     1
102
RTVSPropertyOp21
 70
     1
102
RTVSPropertyOp22
 70
     1
102
RTVSPropertyOp23
 70
     1
102
RTVSPropertyOp24
 70
     1
102
RTVSPropertyOp25
 70
     1
102
RTVSPropertyOp26
 70
     1
102
RTVSPropertyOp27
 70
     1
102
RTVSPropertyOp28
 70
     1
102
RTVSPropertyOp29
 70
     1
102
RTVSPropertyOp30
 70
     1
102
RTVSPropertyOp31
 70
     1
102
RTVSPropertyOp32
 70
     1
102
RTVSPropertyOp33
 70
     1
102
RTVSPropertyOp34
 70
     1
102
RTVSPropertyOp35
 70
     1
102
RTVSPropertyOp36
 70
     1
102
RTVSPropertyOp37
 70
     1
102
RTVSPropertyOp38
 70
     1
102
RTVSPropertyOp39
 70
     1
102
RTVSPropertyOp40
 70
     1
102
RTVSPropertyOp41
 70
     1
102
RTVSPropertyOp42
 70
     1
102
RTVSPropertyOp43
 70
     1
102
RTVSPropertyOp44
 70
     1
102
RTVSPropertyOp45
 70
     1
102
RTVSPropertyOp46
 70
     1
102
RTVSPropertyOp47
 70
     1
102
RTVSPropertyOp48
 70
     1
102
RTVSPropertyOp49
 70
     1
102
RTVSPropertyOp50
 70
     1
102
RTVSPropertyOp51
 70
     0
102
RTVSPropertyOp52
 70
     0
102
RTVSPropertyOp53
 70
     1
102
RTVSPropertyOp54
 70
     1
102
RTVSPropertyOp55
 70
     1
102
RTVSPropertyOp56
 70
     1
102
RTVSPropertyOp57
 70
     1
102
RTVSPropertyOp58
 70
     1
102
RTVSPropertyOp59
 70
     1
102
RTVSPropertyOp60
 70
     1
102
RTVSPropertyOp61
 70
     1
102
RTVSPropertyOp62
 70
     1
  0
XRECORD
  5
44D
102
{ACAD_REACTORS
330
44C
102
}
330
44C
100
AcDbXrecord
280
     1
102
RTVSPost2010Prop28
280
     0
102
RTVSPost2010PropOp28
 70
     1
102
RTVSPost2010Prop29
280
     1
102
RTVSPost2010PropOp29
 70
     1
102
RTVSPost2010Prop30
280
     1
102
RTVSPost2010PropOp30
 70
     1
102
RTVSPost2010Prop31
280
     0
102
RTVSPost2010PropOp31
 70
     1
102
RTVSPost2010Prop32
280
     0
102
RTVSPost2010PropOp32
 70
     1
102
RTVSPost2010Prop33
280
     0
102
RTVSPost2010PropOp33
 70
     1
102
RTVSPost2010Prop34
280
     0
102
RTVSPost2010PropOp34
 70
     1
102
RTVSPost2010Prop35
280
     0
102
RTVSPost2010PropOp35
 70
     1
102
RTVSPost2010Prop36
280
     0
102
RTVSPost2010PropOp36
 70
     1
102
RTVSPost2010Prop37
 90
       50
102
RTVSPost2010PropOp37
 70
     1
102
RTVSPost2010Prop38
140
0.0
102
RTVSPost2010PropOp38
 70
     1
102
RTVSPost2010Prop39
140
1.0
102
RTVSPost2010PropOp39
 70
     1
102
RTVSPost2010Prop40
 90
        0
102
RTVSPost2010PropOp40
 70
     1
102
RTVSPost2010Prop41ColorIndex
 90
       18
102
RTVSPost2010Prop41ColorRGB
 90
        0
102
RTVSPost2010PropOp41
 70
     1
102
RTVSPost2010Prop42
 90
       50
102
RTVSPost2010PropOp42
 70
     1
102
RTVSPost2010Prop43
 90
        3
102
RTVSPost2010PropOp43
 70
     1
102
RTVSPost2010Prop44ColorIndex
 90
        5
102
RTVSPost2010Prop44ColorRGB
 90
      255
102
RTVSPost2010PropOp44
 70
     1
102
RTVSPost2010Prop45
280
     0
102
RTVSPost2010PropOp45
 70
     1
102
RTVSPost2010Prop46
 90
       50
102
RTVSPost2010PropOp46
 70
     1
102
RTVSPost2010Prop47
 90
       50
102
RTVSPost2010PropOp47
 70
     1
102
RTVSPost2010Prop48
 90
       50
102
RTVSPost2010PropOp48
 70
     1
102
RTVSPost2010Prop49
280
     0
102
RTVSPost2010PropOp49
 70
     1
102
RTVSPost2010Prop50
 90
       50
102
RTVSPost2010PropOp50
 70
     1
102
RTVSPost2010Prop51ColorIndex
 90
      256
102
RTVSPost2010Prop51ColorRGB
 90
-16777216
102
RTVSPost2010PropOp51
 70
     0
102
RTVSPost2010Prop52
140
1.0
102
RTVSPost2010PropOp52
 70
     0
102
RTVSPost2010Prop53
 90
        2
102
RTVSPost2010PropOp53
 70
     1
102
RTVSPost2010Prop54
  1
strokes_ogs.tif
102
RTVSPost2010PropOp54
 70
     1
102
RTVSPost2010Prop55
280
     0
102
RTVSPost2010PropOp55
 70
     1
102
RTVSPost2010Prop56
140
1.0
102
RTVSPost2010PropOp56
 70
     1
102
RTVSPost2010Prop57
140
1.0
102
RTVSPost2010PropOp57
 70
     1
102
RTVSPropertyOp0
 70
     1
102
RTVSPropertyOp1
 70
     1
102
RTVSPropertyOp2
 70
     1
102
RTVSPropertyOp3
 70
     1
102
RTVSPropertyOp4
 70
     1
102
RTVSPropertyOp5
 70
     1
102
RTVSPropertyOp6
 70
     1
102
RTVSPropertyOp7
 70
     1
102
RTVSPropertyOp8
 70
     1
102
RTVSPropertyOp9
 70
     1
102
RTVSPropertyOp10
 70
     1
102
RTVSPropertyOp11
 70
     1
102
RTVSPropertyOp12
 70
     1
102
RTVSPropertyOp13
 70
     1
102
RTVSPropertyOp14
 70
     1
102
RTVSPropertyOp15
 70
     1
102
RTVSPropertyOp16
 70
     1
102
RTVSPropertyOp17
 70
     1
102
RTVSPropertyOp18
 70
     1
102
RTVSPropertyOp19
 70
     1
102
RTVSPropertyOp20
 70
     1
102
RTVSPropertyOp21
 70
     1
102
RTVSPropertyOp22
 70
     1
102
RTVSPropertyOp23
 70
     1
102
RTVSPropertyOp24
 70
     1
102
RTVSPropertyOp25
 70
     1
102
RTVSPropertyOp26
 70
     1
102
RTVSPropertyOp27
 70
     1
102
RTVSPropertyOp28
 70
     1
102
RTVSPropertyOp29
 70
     1
102
RTVSPropertyOp30
 70
     1
102
RTVSPropertyOp31
 70
     1
102
RTVSPropertyOp32
 70
     1
102
RTVSPropertyOp33
 70
     1
102
RTVSPropertyOp34
 70
     1
102
RTVSPropertyOp35
 70
     1
102
RTVSPropertyOp36
 70
     1
102
RTVSPropertyOp37
 70
     1
102
RTVSPropertyOp38
 70
     1
102
RTVSPropertyOp39
 70
     1
102
RTVSPropertyOp40
 70
     1
102
RTVSPropertyOp41
 70
     1
102
RTVSPropertyOp42
 70
     1
102
RTVSPropertyOp43
 70
     1
102
RTVSPropertyOp44
 70
     1
102
RTVSPropertyOp45
 70
     1
102
RTVSPropertyOp46
 70
     1
102
RTVSPropertyOp47
 70
     1
102
RTVSPropertyOp48
 70
     1
102
RTVSPropertyOp49
 70
     1
102
RTVSPropertyOp50
 70
     1
102
RTVSPropertyOp51
 70
     0
102
RTVSPropertyOp52
 70
     0
102
RTVSPropertyOp53
 70
     1
102
RTVSPropertyOp54
 70
     1
102
RTVSPropertyOp55
 70
     1
102
RTVSPropertyOp56
 70
     1
102
RTVSPropertyOp57
 70
     1
102
RTVSPropertyOp58
 70
     1
102
RTVSPropertyOp59
 70
     1
102
RTVSPropertyOp60
 70
     1
102
RTVSPropertyOp61
 70
     1
102
RTVSPropertyOp62
 70
     1
  0
XRECORD
  5
45B
102
{ACAD_REACTORS
330
45A
102
}
330
45A
100
AcDbXrecord
280
     1
102
RTVSPost2010Prop28
280
     0
102
RTVSPost2010PropOp28
 70
     1
102
RTVSPost2010Prop29
280
     1
102
RTVSPost2010PropOp29
 70
     1
102
RTVSPost2010Prop30
280
     1
102
RTVSPost2010PropOp30
 70
     1
102
RTVSPost2010Prop31
280
     0
102
RTVSPost2010PropOp31
 70
     1
102
RTVSPost2010Prop32
280
     0
102
RTVSPost2010PropOp32
 70
     1
102
RTVSPost2010Prop33
280
     0
102
RTVSPost2010PropOp33
 70
     1
102
RTVSPost2010Prop34
280
     0
102
RTVSPost2010PropOp34
 70
     1
102
RTVSPost2010Prop35
280
     0
102
RTVSPost2010PropOp35
 70
     1
102
RTVSPost2010Prop36
280
     0
102
RTVSPost2010PropOp36
 70
     1
102
RTVSPost2010Prop37
 90
       50
102
RTVSPost2010PropOp37
 70
     1
102
RTVSPost2010Prop38
140
0.0
102
RTVSPost2010PropOp38
 70
     1
102
RTVSPost2010Prop39
140
1.0
102
RTVSPost2010PropOp39
 70
     1
102
RTVSPost2010Prop40
 90
        0
102
RTVSPost2010PropOp40
 70
     1
102
RTVSPost2010Prop41ColorIndex
 90
       18
102
RTVSPost2010Prop41ColorRGB
 90
        0
102
RTVSPost2010PropOp41
 70
     1
102
RTVSPost2010Prop42
 90
       50
102
RTVSPost2010PropOp42
 70
     1
102
RTVSPost2010Prop43
 90
        3
102
RTVSPost2010PropOp43
 70
     1
102
RTVSPost2010Prop44ColorIndex
 90
        5
102
RTVSPost2010Prop44ColorRGB
 90
      255
102
RTVSPost2010PropOp44
 70
     1
102
RTVSPost2010Prop45
280
     0
102
RTVSPost2010PropOp45
 70
     1
102
RTVSPost2010Prop46
 90
       50
102
RTVSPost2010PropOp46
 70
     1
102
RTVSPost2010Prop47
 90
       50
102
RTVSPost2010PropOp47
 70
     1
102
RTVSPost2010Prop48
 90
       50
102
RTVSPost2010PropOp48
 70
     1
102
RTVSPost2010Prop49
280
     0
102
RTVSPost2010PropOp49
 70
     1
102
RTVSPost2010Prop50
 90
       50
102
RTVSPost2010PropOp50
 70
     1
102
RTVSPost2010Prop51ColorIndex
 90
      256
102
RTVSPost2010Prop51ColorRGB
 90
-16777216
102
RTVSPost2010PropOp51
 70
     0
102
RTVSPost2010Prop52
140
1.0
102
RTVSPost2010PropOp52
 70
     0
102
RTVSPost2010Prop53
 90
        2
102
RTVSPost2010PropOp53
 70
     1
102
RTVSPost2010Prop54
  1
strokes_ogs.tif
102
RTVSPost2010PropOp54
 70
     1
102
RTVSPost2010Prop55
280
     0
102
RTVSPost2010PropOp55
 70
     1
102
RTVSPost2010Prop56
140
1.0
102
RTVSPost2010PropOp56
 70
     1
102
RTVSPost2010Prop57
140
1.0
102
RTVSPost2010PropOp57
 70
     1
102
RTVSPropertyOp0
 70
     1
102
RTVSPropertyOp1
 70
     1
102
RTVSPropertyOp2
 70
     1
102
RTVSPropertyOp3
 70
     1
102
RTVSPropertyOp4
 70
     1
102
RTVSPropertyOp5
 70
     1
102
RTVSPropertyOp6
 70
     1
102
RTVSPropertyOp7
 70
     1
102
RTVSPropertyOp8
 70
     1
102
RTVSPropertyOp9
 70
     1
102
RTVSPropertyOp10
 70
     1
102
RTVSPropertyOp11
 70
     1
102
RTVSPropertyOp12
 70
     1
102
RTVSPropertyOp13
 70
     1
102
RTVSPropertyOp14
 70
     1
102
RTVSPropertyOp15
 70
     1
102
RTVSPropertyOp16
 70
     1
102
RTVSPropertyOp17
 70
     1
102
RTVSPropertyOp18
 70
     1
102
RTVSPropertyOp19
 70
     1
102
RTVSPropertyOp20
 70
     1
102
RTVSPropertyOp21
 70
     1
102
RTVSPropertyOp22
 70
     1
102
RTVSPropertyOp23
 70
     1
102
RTVSPropertyOp24
 70
     1
102
RTVSPropertyOp25
 70
     1
102
RTVSPropertyOp26
 70
     1
102
RTVSPropertyOp27
 70
     1
102
RTVSPropertyOp28
 70
     1
102
RTVSPropertyOp29
 70
     1
102
RTVSPropertyOp30
 70
     1
102
RTVSPropertyOp31
 70
     1
102
RTVSPropertyOp32
 70
     1
102
RTVSPropertyOp33
 70
     1
102
RTVSPropertyOp34
 70
     1
102
RTVSPropertyOp35
 70
     1
102
RTVSPropertyOp36
 70
     1
102
RTVSPropertyOp37
 70
     1
102
RTVSPropertyOp38
 70
     1
102
RTVSPropertyOp39
 70
     1
102
RTVSPropertyOp40
 70
     1
102
RTVSPropertyOp41
 70
     1
102
RTVSPropertyOp42
 70
     1
102
RTVSPropertyOp43
 70
     1
102
RTVSPropertyOp44
 70
     1
102
RTVSPropertyOp45
 70
     1
102
RTVSPropertyOp46
 70
     1
102
RTVSPropertyOp47
 70
     1
102
RTVSPropertyOp48
 70
     1
102
RTVSPropertyOp49
 70
     1
102
RTVSPropertyOp50
 70
     1
102
RTVSPropertyOp51
 70
     0
102
RTVSPropertyOp52
 70
     0
102
RTVSPropertyOp53
 70
     1
102
RTVSPropertyOp54
 70
     1
102
RTVSPropertyOp55
 70
     1
102
RTVSPropertyOp56
 70
     1
102
RTVSPropertyOp57
 70
     1
102
RTVSPropertyOp58
 70
     1
102
RTVSPropertyOp59
 70
     1
102
RTVSPropertyOp60
 70
     1
102
RTVSPropertyOp61
 70
     1
102
RTVSPropertyOp62
 70
     1
  0
XRECORD
  5
463
102
{ACAD_REACTORS
330
462
102
}
330
462
100
AcDbXrecord
280
     1
102
RTVSPost2010Prop28
280
     0
102
RTVSPost2010PropOp28
 70
     1
102
RTVSPost2010Prop29
280
     1
102
RTVSPost2010PropOp29
 70
     1
102
RTVSPost2010Prop30
280
     1
102
RTVSPost2010PropOp30
 70
     1
102
RTVSPost2010Prop31
280
     0
102
RTVSPost2010PropOp31
 70
     1
102
RTVSPost2010Prop32
280
     0
102
RTVSPost2010PropOp32
 70
     1
102
RTVSPost2010Prop33
280
     0
102
RTVSPost2010PropOp33
 70
     1
102
RTVSPost2010Prop34
280
     0
102
RTVSPost2010PropOp34
 70
     1
102
RTVSPost2010Prop35
280
     0
102
RTVSPost2010PropOp35
 70
     1
102
RTVSPost2010Prop36
280
     0
102
RTVSPost2010PropOp36
 70
     1
102
RTVSPost2010Prop37
 90
       50
102
RTVSPost2010PropOp37
 70
     1
102
RTVSPost2010Prop38
140
0.0
102
RTVSPost2010PropOp38
 70
     1
102
RTVSPost2010Prop39
140
1.0
102
RTVSPost2010PropOp39
 70
     1
102
RTVSPost2010Prop40
 90
        0
102
RTVSPost2010PropOp40
 70
     1
102
RTVSPost2010Prop41ColorIndex
 90
       18
102
RTVSPost2010Prop41ColorRGB
 90
        0
102
RTVSPost2010PropOp41
 70
     1
102
RTVSPost2010Prop42
 90
       50
102
RTVSPost2010PropOp42
 70
     1
102
RTVSPost2010Prop43
 90
        3
102
RTVSPost2010PropOp43
 70
     1
102
RTVSPost2010Prop44ColorIndex
 90
        5
102
RTVSPost2010Prop44ColorRGB
 90
      255
102
RTVSPost2010PropOp44
 70
     1
102
RTVSPost2010Prop45
280
     0
102
RTVSPost2010PropOp45
 70
     1
102
RTVSPost2010Prop46
 90
       50
102
RTVSPost2010PropOp46
 70
     1
102
RTVSPost2010Prop47
 90
       50
102
RTVSPost2010PropOp47
 70
     1
102
RTVSPost2010Prop48
 90
       50
102
RTVSPost2010PropOp48
 70
     1
102
RTVSPost2010Prop49
280
     0
102
RTVSPost2010PropOp49
 70
     1
102
RTVSPost2010Prop50
 90
       50
102
RTVSPost2010PropOp50
 70
     1
102
RTVSPost2010Prop51ColorIndex
 90
      256
102
RTVSPost2010Prop51ColorRGB
 90
-16777216
102
RTVSPost2010PropOp51
 70
     0
102
RTVSPost2010Prop52
140
1.0
102
RTVSPost2010PropOp52
 70
     0
102
RTVSPost2010Prop53
 90
        2
102
RTVSPost2010PropOp53
 70
     1
102
RTVSPost2010Prop54
  1
strokes_ogs.tif
102
RTVSPost2010PropOp54
 70
     1
102
RTVSPost2010Prop55
280
     0
102
RTVSPost2010PropOp55
 70
     1
102
RTVSPost2010Prop56
140
1.0
102
RTVSPost2010PropOp56
 70
     1
102
RTVSPost2010Prop57
140
1.0
102
RTVSPost2010PropOp57
 70
     1
102
RTVSPropertyOp0
 70
     1
102
RTVSPropertyOp1
 70
     1
102
RTVSPropertyOp2
 70
     1
102
RTVSPropertyOp3
 70
     1
102
RTVSPropertyOp4
 70
     1
102
RTVSPropertyOp5
 70
     1
102
RTVSPropertyOp6
 70
     1
102
RTVSPropertyOp7
 70
     1
102
RTVSPropertyOp8
 70
     1
102
RTVSPropertyOp9
 70
     1
102
RTVSPropertyOp10
 70
     1
102
RTVSPropertyOp11
 70
     1
102
RTVSPropertyOp12
 70
     1
102
RTVSPropertyOp13
 70
     1
102
RTVSPropertyOp14
 70
     1
102
RTVSPropertyOp15
 70
     1
102
RTVSPropertyOp16
 70
     1
102
RTVSPropertyOp17
 70
     1
102
RTVSPropertyOp18
 70
     1
102
RTVSPropertyOp19
 70
     1
102
RTVSPropertyOp20
 70
     1
102
RTVSPropertyOp21
 70
     1
102
RTVSPropertyOp22
 70
     1
102
RTVSPropertyOp23
 70
     1
102
RTVSPropertyOp24
 70
     1
102
RTVSPropertyOp25
 70
     1
102
RTVSPropertyOp26
 70
     1
102
RTVSPropertyOp27
 70
     1
102
RTVSPropertyOp28
 70
     1
102
RTVSPropertyOp29
 70
     1
102
RTVSPropertyOp30
 70
     1
102
RTVSPropertyOp31
 70
     1
102
RTVSPropertyOp32
 70
     1
102
RTVSPropertyOp33
 70
     1
102
RTVSPropertyOp34
 70
     1
102
RTVSPropertyOp35
 70
     1
102
RTVSPropertyOp36
 70
     1
102
RTVSPropertyOp37
 70
     1
102
RTVSPropertyOp38
 70
     1
102
RTVSPropertyOp39
 70
     1
102
RTVSPropertyOp40
 70
     1
102
RTVSPropertyOp41
 70
     1
102
RTVSPropertyOp42
 70
     1
102
RTVSPropertyOp43
 70
     1
102
RTVSPropertyOp44
 70
     1
102
RTVSPropertyOp45
 70
     1
102
RTVSPropertyOp46
 70
     1
102
RTVSPropertyOp47
 70
     1
102
RTVSPropertyOp48
 70
     1
102
RTVSPropertyOp49
 70
     1
102
RTVSPropertyOp50
 70
     1
102
RTVSPropertyOp51
 70
     0
102
RTVSPropertyOp52
 70
     0
102
RTVSPropertyOp53
 70
     1
102
RTVSPropertyOp54
 70
     1
102
RTVSPropertyOp55
 70
     1
102
RTVSPropertyOp56
 70
     1
102
RTVSPropertyOp57
 70
     1
102
RTVSPropertyOp58
 70
     1
102
RTVSPropertyOp59
 70
     1
102
RTVSPropertyOp60
 70
     1
102
RTVSPropertyOp61
 70
     1
102
RTVSPropertyOp62
 70
     1
  0
XRECORD
  5
455
102
{ACAD_REACTORS
330
454
102
}
330
454
100
AcDbXrecord
280
     1
102
RTVSPost2010Prop28
280
     0
102
RTVSPost2010PropOp28
 70
     1
102
RTVSPost2010Prop29
280
     1
102
RTVSPost2010PropOp29
 70
     1
102
RTVSPost2010Prop30
280
     1
102
RTVSPost2010PropOp30
 70
     1
102
RTVSPost2010Prop31
280
     0
102
RTVSPost2010PropOp31
 70
     1
102
RTVSPost2010Prop32
280
     0
102
RTVSPost2010PropOp32
 70
     1
102
RTVSPost2010Prop33
280
     0
102
RTVSPost2010PropOp33
 70
     1
102
RTVSPost2010Prop34
280
     0
102
RTVSPost2010PropOp34
 70
     1
102
RTVSPost2010Prop35
280
     0
102
RTVSPost2010PropOp35
 70
     1
102
RTVSPost2010Prop36
280
     0
102
RTVSPost2010PropOp36
 70
     1
102
RTVSPost2010Prop37
 90
       50
102
RTVSPost2010PropOp37
 70
     1
102
RTVSPost2010Prop38
140
0.0
102
RTVSPost2010PropOp38
 70
     1
102
RTVSPost2010Prop39
140
1.0
102
RTVSPost2010PropOp39
 70
     1
102
RTVSPost2010Prop40
 90
        0
102
RTVSPost2010PropOp40
 70
     1
102
RTVSPost2010Prop41ColorIndex
 90
       18
102
RTVSPost2010Prop41ColorRGB
 90
        0
102
RTVSPost2010PropOp41
 70
     1
102
RTVSPost2010Prop42
 90
       50
102
RTVSPost2010PropOp42
 70
     1
102
RTVSPost2010Prop43
 90
        3
102
RTVSPost2010PropOp43
 70
     1
102
RTVSPost2010Prop44ColorIndex
 90
        5
102
RTVSPost2010Prop44ColorRGB
 90
      255
102
RTVSPost2010PropOp44
 70
     1
102
RTVSPost2010Prop45
280
     0
102
RTVSPost2010PropOp45
 70
     1
102
RTVSPost2010Prop46
 90
       50
102
RTVSPost2010PropOp46
 70
     1
102
RTVSPost2010Prop47
 90
       50
102
RTVSPost2010PropOp47
 70
     1
102
RTVSPost2010Prop48
 90
       50
102
RTVSPost2010PropOp48
 70
     1
102
RTVSPost2010Prop49
280
     0
102
RTVSPost2010PropOp49
 70
     1
102
RTVSPost2010Prop50
 90
       50
102
RTVSPost2010PropOp50
 70
     1
102
RTVSPost2010Prop51ColorIndex
 90
      256
102
RTVSPost2010Prop51ColorRGB
 90
-16777216
102
RTVSPost2010PropOp51
 70
     0
102
RTVSPost2010Prop52
140
1.0
102
RTVSPost2010PropOp52
 70
     0
102
RTVSPost2010Prop53
 90
        2
102
RTVSPost2010PropOp53
 70
     1
102
RTVSPost2010Prop54
  1
strokes_ogs.tif
102
RTVSPost2010PropOp54
 70
     1
102
RTVSPost2010Prop55
280
     0
102
RTVSPost2010PropOp55
 70
     1
102
RTVSPost2010Prop56
140
1.0
102
RTVSPost2010PropOp56
 70
     1
102
RTVSPost2010Prop57
140
1.0
102
RTVSPost2010PropOp57
 70
     1
102
RTVSPropertyOp0
 70
     1
102
RTVSPropertyOp1
 70
     1
102
RTVSPropertyOp2
 70
     1
102
RTVSPropertyOp3
 70
     1
102
RTVSPropertyOp4
 70
     1
102
RTVSPropertyOp5
 70
     1
102
RTVSPropertyOp6
 70
     1
102
RTVSPropertyOp7
 70
     1
102
RTVSPropertyOp8
 70
     1
102
RTVSPropertyOp9
 70
     1
102
RTVSPropertyOp10
 70
     1
102
RTVSPropertyOp11
 70
     1
102
RTVSPropertyOp12
 70
     1
102
RTVSPropertyOp13
 70
     1
102
RTVSPropertyOp14
 70
     1
102
RTVSPropertyOp15
 70
     1
102
RTVSPropertyOp16
 70
     1
102
RTVSPropertyOp17
 70
     1
102
RTVSPropertyOp18
 70
     1
102
RTVSPropertyOp19
 70
     1
102
RTVSPropertyOp20
 70
     1
102
RTVSPropertyOp21
 70
     1
102
RTVSPropertyOp22
 70
     1
102
RTVSPropertyOp23
 70
     1
102
RTVSPropertyOp24
 70
     1
102
RTVSPropertyOp25
 70
     1
102
RTVSPropertyOp26
 70
     1
102
RTVSPropertyOp27
 70
     1
102
RTVSPropertyOp28
 70
     1
102
RTVSPropertyOp29
 70
     1
102
RTVSPropertyOp30
 70
     1
102
RTVSPropertyOp31
 70
     1
102
RTVSPropertyOp32
 70
     1
102
RTVSPropertyOp33
 70
     1
102
RTVSPropertyOp34
 70
     1
102
RTVSPropertyOp35
 70
     1
102
RTVSPropertyOp36
 70
     1
102
RTVSPropertyOp37
 70
     1
102
RTVSPropertyOp38
 70
     1
102
RTVSPropertyOp39
 70
     1
102
RTVSPropertyOp40
 70
     1
102
RTVSPropertyOp41
 70
     1
102
RTVSPropertyOp42
 70
     1
102
RTVSPropertyOp43
 70
     1
102
RTVSPropertyOp44
 70
     1
102
RTVSPropertyOp45
 70
     1
102
RTVSPropertyOp46
 70
     1
102
RTVSPropertyOp47
 70
     1
102
RTVSPropertyOp48
 70
     1
102
RTVSPropertyOp49
 70
     1
102
RTVSPropertyOp50
 70
     1
102
RTVSPropertyOp51
 70
     0
102
RTVSPropertyOp52
 70
     0
102
RTVSPropertyOp53
 70
     1
102
RTVSPropertyOp54
 70
     1
102
RTVSPropertyOp55
 70
     1
102
RTVSPropertyOp56
 70
     1
102
RTVSPropertyOp57
 70
     1
102
RTVSPropertyOp58
 70
     1
102
RTVSPropertyOp59
 70
     1
102
RTVSPropertyOp60
 70
     1
102
RTVSPropertyOp61
 70
     1
102
RTVSPropertyOp62
 70
     1
  0
XRECORD
  5
459
102
{ACAD_REACTORS
330
458
102
}
330
458
100
AcDbXrecord
280
     1
102
RTVSPost2010Prop28
280
     0
102
RTVSPost2010PropOp28
 70
     1
102
RTVSPost2010Prop29
280
     1
102
RTVSPost2010PropOp29
 70
     1
102
RTVSPost2010Prop30
280
     1
102
RTVSPost2010PropOp30
 70
     1
102
RTVSPost2010Prop31
280
     0
102
RTVSPost2010PropOp31
 70
     1
102
RTVSPost2010Prop32
280
     0
102
RTVSPost2010PropOp32
 70
     1
102
RTVSPost2010Prop33
280
     0
102
RTVSPost2010PropOp33
 70
     1
102
RTVSPost2010Prop34
280
     0
102
RTVSPost2010PropOp34
 70
     1
102
RTVSPost2010Prop35
280
     0
102
RTVSPost2010PropOp35
 70
     1
102
RTVSPost2010Prop36
280
     0
102
RTVSPost2010PropOp36
 70
     1
102
RTVSPost2010Prop37
 90
       50
102
RTVSPost2010PropOp37
 70
     1
102
RTVSPost2010Prop38
140
0.0
102
RTVSPost2010PropOp38
 70
     1
102
RTVSPost2010Prop39
140
1.0
102
RTVSPost2010PropOp39
 70
     1
102
RTVSPost2010Prop40
 90
        0
102
RTVSPost2010PropOp40
 70
     1
102
RTVSPost2010Prop41ColorIndex
 90
       18
102
RTVSPost2010Prop41ColorRGB
 90
        0
102
RTVSPost2010PropOp41
 70
     1
102
RTVSPost2010Prop42
 90
       50
102
RTVSPost2010PropOp42
 70
     1
102
RTVSPost2010Prop43
 90
        3
102
RTVSPost2010PropOp43
 70
     1
102
RTVSPost2010Prop44ColorIndex
 90
        5
102
RTVSPost2010Prop44ColorRGB
 90
      255
102
RTVSPost2010PropOp44
 70
     1
102
RTVSPost2010Prop45
280
     0
102
RTVSPost2010PropOp45
 70
     1
102
RTVSPost2010Prop46
 90
       50
102
RTVSPost2010PropOp46
 70
     1
102
RTVSPost2010Prop47
 90
       50
102
RTVSPost2010PropOp47
 70
     1
102
RTVSPost2010Prop48
 90
       50
102
RTVSPost2010PropOp48
 70
     1
102
RTVSPost2010Prop49
280
     0
102
RTVSPost2010PropOp49
 70
     1
102
RTVSPost2010Prop50
 90
       50
102
RTVSPost2010PropOp50
 70
     1
102
RTVSPost2010Prop51ColorIndex
 90
      256
102
RTVSPost2010Prop51ColorRGB
 90
-16777216
102
RTVSPost2010PropOp51
 70
     0
102
RTVSPost2010Prop52
140
1.0
102
RTVSPost2010PropOp52
 70
     0
102
RTVSPost2010Prop53
 90
        2
102
RTVSPost2010PropOp53
 70
     1
102
RTVSPost2010Prop54
  1
strokes_ogs.tif
102
RTVSPost2010PropOp54
 70
     1
102
RTVSPost2010Prop55
280
     0
102
RTVSPost2010PropOp55
 70
     1
102
RTVSPost2010Prop56
140
1.0
102
RTVSPost2010PropOp56
 70
     1
102
RTVSPost2010Prop57
140
1.0
102
RTVSPost2010PropOp57
 70
     1
102
RTVSPropertyOp0
 70
     1
102
RTVSPropertyOp1
 70
     1
102
RTVSPropertyOp2
 70
     1
102
RTVSPropertyOp3
 70
     1
102
RTVSPropertyOp4
 70
     1
102
RTVSPropertyOp5
 70
     1
102
RTVSPropertyOp6
 70
     1
102
RTVSPropertyOp7
 70
     1
102
RTVSPropertyOp8
 70
     1
102
RTVSPropertyOp9
 70
     1
102
RTVSPropertyOp10
 70
     1
102
RTVSPropertyOp11
 70
     1
102
RTVSPropertyOp12
 70
     1
102
RTVSPropertyOp13
 70
     1
102
RTVSPropertyOp14
 70
     1
102
RTVSPropertyOp15
 70
     1
102
RTVSPropertyOp16
 70
     1
102
RTVSPropertyOp17
 70
     1
102
RTVSPropertyOp18
 70
     1
102
RTVSPropertyOp19
 70
     1
102
RTVSPropertyOp20
 70
     1
102
RTVSPropertyOp21
 70
     1
102
RTVSPropertyOp22
 70
     1
102
RTVSPropertyOp23
 70
     1
102
RTVSPropertyOp24
 70
     1
102
RTVSPropertyOp25
 70
     1
102
RTVSPropertyOp26
 70
     1
102
RTVSPropertyOp27
 70
     1
102
RTVSPropertyOp28
 70
     1
102
RTVSPropertyOp29
 70
     1
102
RTVSPropertyOp30
 70
     1
102
RTVSPropertyOp31
 70
     1
102
RTVSPropertyOp32
 70
     1
102
RTVSPropertyOp33
 70
     1
102
RTVSPropertyOp34
 70
     1
102
RTVSPropertyOp35
 70
     1
102
RTVSPropertyOp36
 70
     1
102
RTVSPropertyOp37
 70
     1
102
RTVSPropertyOp38
 70
     1
102
RTVSPropertyOp39
 70
     1
102
RTVSPropertyOp40
 70
     1
102
RTVSPropertyOp41
 70
     1
102
RTVSPropertyOp42
 70
     1
102
RTVSPropertyOp43
 70
     1
102
RTVSPropertyOp44
 70
     1
102
RTVSPropertyOp45
 70
     1
102
RTVSPropertyOp46
 70
     1
102
RTVSPropertyOp47
 70
     1
102
RTVSPropertyOp48
 70
     1
102
RTVSPropertyOp49
 70
     1
102
RTVSPropertyOp50
 70
     1
102
RTVSPropertyOp51
 70
     0
102
RTVSPropertyOp52
 70
     0
102
RTVSPropertyOp53
 70
     1
102
RTVSPropertyOp54
 70
     1
102
RTVSPropertyOp55
 70
     1
102
RTVSPropertyOp56
 70
     1
102
RTVSPropertyOp57
 70
     1
102
RTVSPropertyOp58
 70
     1
102
RTVSPropertyOp59
 70
     1
102
RTVSPropertyOp60
 70
     1
102
RTVSPropertyOp61
 70
     1
102
RTVSPropertyOp62
 70
     1
  0
XRECORD
  5
473
102
{ACAD_REACTORS
330
472
102
}
330
472
100
AcDbXrecord
280
     1
102
RTVSPost2010Prop28
280
     0
102
RTVSPost2010PropOp28
 70
     1
102
RTVSPost2010Prop29
280
     1
102
RTVSPost2010PropOp29
 70
     1
102
RTVSPost2010Prop30
280
     1
102
RTVSPost2010PropOp30
 70
     1
102
RTVSPost2010Prop31
280
     0
102
RTVSPost2010PropOp31
 70
     1
102
RTVSPost2010Prop32
280
     0
102
RTVSPost2010PropOp32
 70
     1
102
RTVSPost2010Prop33
280
     0
102
RTVSPost2010PropOp33
 70
     1
102
RTVSPost2010Prop34
280
     0
102
RTVSPost2010PropOp34
 70
     1
102
RTVSPost2010Prop35
280
     0
102
RTVSPost2010PropOp35
 70
     1
102
RTVSPost2010Prop36
280
     0
102
RTVSPost2010PropOp36
 70
     1
102
RTVSPost2010Prop37
 90
       50
102
RTVSPost2010PropOp37
 70
     0
102
RTVSPost2010Prop38
140
0.0
102
RTVSPost2010PropOp38
 70
     0
102
RTVSPost2010Prop39
140
1.0
102
RTVSPost2010PropOp39
 70
     0
102
RTVSPost2010Prop40
 90
        0
102
RTVSPost2010PropOp40
 70
     0
102
RTVSPost2010Prop41ColorIndex
 90
       18
102
RTVSPost2010Prop41ColorRGB
 90
        0
102
RTVSPost2010PropOp41
 70
     0
102
RTVSPost2010Prop42
 90
       50
102
RTVSPost2010PropOp42
 70
     0
102
RTVSPost2010Prop43
 90
        3
102
RTVSPost2010PropOp43
 70
     0
102
RTVSPost2010Prop44ColorIndex
 90
        5
102
RTVSPost2010Prop44ColorRGB
 90
      255
102
RTVSPost2010PropOp44
 70
     0
102
RTVSPost2010Prop45
280
     0
102
RTVSPost2010PropOp45
 70
     1
102
RTVSPost2010Prop46
 90
       50
102
RTVSPost2010PropOp46
 70
     0
102
RTVSPost2010Prop47
 90
       50
102
RTVSPost2010PropOp47
 70
     0
102
RTVSPost2010Prop48
 90
       50
102
RTVSPost2010PropOp48
 70
     0
102
RTVSPost2010Prop49
280
     0
102
RTVSPost2010PropOp49
 70
     1
102
RTVSPost2010Prop50
 90
       50
102
RTVSPost2010PropOp50
 70
     0
102
RTVSPost2010Prop51ColorIndex
 90
      256
102
RTVSPost2010Prop51ColorRGB
 90
-16777216
102
RTVSPost2010PropOp51
 70
     0
102
RTVSPost2010Prop52
140
1.0
102
RTVSPost2010PropOp52
 70
     0
102
RTVSPost2010Prop53
 90
        2
102
RTVSPost2010PropOp53
 70
     0
102
RTVSPost2010Prop54
  1
strokes_ogs.tif
102
RTVSPost2010PropOp54
 70
     0
102
RTVSPost2010Prop55
280
     0
102
RTVSPost2010PropOp55
 70
     1
102
RTVSPost2010Prop56
140
1.0
102
RTVSPost2010PropOp56
 70
     0
102
RTVSPost2010Prop57
140
1.0
102
RTVSPost2010PropOp57
 70
     0
102
RTVSPropertyOp0
 70
     0
102
RTVSPropertyOp1
 70
     0
102
RTVSPropertyOp2
 70
     0
102
RTVSPropertyOp3
 70
     0
102
RTVSPropertyOp4
 70
     0
102
RTVSPropertyOp5
 70
     0
102
RTVSPropertyOp6
 70
     0
102
RTVSPropertyOp7
 70
     0
102
RTVSPropertyOp8
 70
     0
102
RTVSPropertyOp9
 70
     0
102
RTVSPropertyOp10
 70
     0
102
RTVSPropertyOp11
 70
     0
102
RTVSPropertyOp12
 70
     0
102
RTVSPropertyOp13
 70
     0
102
RTVSPropertyOp14
 70
     2
102
RTVSPropertyOp15
 70
     0
102
RTVSPropertyOp16
 70
     0
102
RTVSPropertyOp17
 70
     0
102
RTVSPropertyOp18
 70
     0
102
RTVSPropertyOp19
 70
     0
102
RTVSPropertyOp20
 70
     0
102
RTVSPropertyOp21
 70
     0
102
RTVSPropertyOp22
 70
     0
102
RTVSPropertyOp23
 70
     0
102
RTVSPropertyOp24
 70
     0
102
RTVSPropertyOp25
 70
     0
102
RTVSPropertyOp26
 70
     0
102
RTVSPropertyOp27
 70
     0
102
RTVSPropertyOp28
 70
     1
102
RTVSPropertyOp29
 70
     1
102
RTVSPropertyOp30
 70
     1
102
RTVSPropertyOp31
 70
     1
102
RTVSPropertyOp32
 70
     1
102
RTVSPropertyOp33
 70
     1
102
RTVSPropertyOp34
 70
     1
102
RTVSPropertyOp35
 70
     1
102
RTVSPropertyOp36
 70
     1
102
RTVSPropertyOp37
 70
     0
102
RTVSPropertyOp38
 70
     0
102
RTVSPropertyOp39
 70
     0
102
RTVSPropertyOp40
 70
     0
102
RTVSPropertyOp41
 70
     0
102
RTVSPropertyOp42
 70
     0
102
RTVSPropertyOp43
 70
     0
102
RTVSPropertyOp44
 70
     0
102
RTVSPropertyOp45
 70
     1
102
RTVSPropertyOp46
 70
     0
102
RTVSPropertyOp47
 70
     0
102
RTVSPropertyOp48
 70
     0
102
RTVSPropertyOp49
 70
     1
102
RTVSPropertyOp50
 70
     0
102
RTVSPropertyOp51
 70
     0
102
RTVSPropertyOp52
 70
     0
102
RTVSPropertyOp53
 70
     0
102
RTVSPropertyOp54
 70
     0
102
RTVSPropertyOp55
 70
     1
102
RTVSPropertyOp56
 70
     0
102
RTVSPropertyOp57
 70
     0
102
RTVSPropertyOp58
 70
     0
102
RTVSPropertyOp59
 70
     0
102
RTVSPropertyOp60
 70
     0
102
RTVSPropertyOp61
 70
     0
102
RTVSPropertyOp62
 70
     0
  0
XRECORD
  5
461
102
{ACAD_REACTORS
330
460
102
}
330
460
100
AcDbXrecord
280
     1
102
RTVSPost2010Prop28
280
     0
102
RTVSPost2010PropOp28
 70
     1
102
RTVSPost2010Prop29
280
     1
102
RTVSPost2010PropOp29
 70
     1
102
RTVSPost2010Prop30
280
     1
102
RTVSPost2010PropOp30
 70
     1
102
RTVSPost2010Prop31
280
     0
102
RTVSPost2010PropOp31
 70
     1
102
RTVSPost2010Prop32
280
     0
102
RTVSPost2010PropOp32
 70
     1
102
RTVSPost2010Prop33
280
     0
102
RTVSPost2010PropOp33
 70
     1
102
RTVSPost2010Prop34
280
     0
102
RTVSPost2010PropOp34
 70
     1
102
RTVSPost2010Prop35
280
     0
102
RTVSPost2010PropOp35
 70
     1
102
RTVSPost2010Prop36
280
     0
102
RTVSPost2010PropOp36
 70
     1
102
RTVSPost2010Prop37
 90
       50
102
RTVSPost2010PropOp37
 70
     1
102
RTVSPost2010Prop38
140
0.0
102
RTVSPost2010PropOp38
 70
     1
102
RTVSPost2010Prop39
140
1.0
102
RTVSPost2010PropOp39
 70
     1
102
RTVSPost2010Prop40
 90
        0
102
RTVSPost2010PropOp40
 70
     1
102
RTVSPost2010Prop41ColorIndex
 90
       18
102
RTVSPost2010Prop41ColorRGB
 90
        0
102
RTVSPost2010PropOp41
 70
     1
102
RTVSPost2010Prop42
 90
       50
102
RTVSPost2010PropOp42
 70
     1
102
RTVSPost2010Prop43
 90
        3
102
RTVSPost2010PropOp43
 70
     1
102
RTVSPost2010Prop44ColorIndex
 90
        5
102
RTVSPost2010Prop44ColorRGB
 90
      255
102
RTVSPost2010PropOp44
 70
     1
102
RTVSPost2010Prop45
280
     0
102
RTVSPost2010PropOp45
 70
     1
102
RTVSPost2010Prop46
 90
       50
102
RTVSPost2010PropOp46
 70
     1
102
RTVSPost2010Prop47
 90
       50
102
RTVSPost2010PropOp47
 70
     1
102
RTVSPost2010Prop48
 90
       50
102
RTVSPost2010PropOp48
 70
     1
102
RTVSPost2010Prop49
280
     0
102
RTVSPost2010PropOp49
 70
     1
102
RTVSPost2010Prop50
 90
       50
102
RTVSPost2010PropOp50
 70
     1
102
RTVSPost2010Prop51ColorIndex
 90
      256
102
RTVSPost2010Prop51ColorRGB
 90
-16777216
102
RTVSPost2010PropOp51
 70
     0
102
RTVSPost2010Prop52
140
1.0
102
RTVSPost2010PropOp52
 70
     0
102
RTVSPost2010Prop53
 90
        2
102
RTVSPost2010PropOp53
 70
     1
102
RTVSPost2010Prop54
  1
strokes_ogs.tif
102
RTVSPost2010PropOp54
 70
     1
102
RTVSPost2010Prop55
280
     0
102
RTVSPost2010PropOp55
 70
     1
102
RTVSPost2010Prop56
140
1.0
102
RTVSPost2010PropOp56
 70
     1
102
RTVSPost2010Prop57
140
1.0
102
RTVSPost2010PropOp57
 70
     1
102
RTVSPropertyOp0
 70
     1
102
RTVSPropertyOp1
 70
     1
102
RTVSPropertyOp2
 70
     1
102
RTVSPropertyOp3
 70
     1
102
RTVSPropertyOp4
 70
     1
102
RTVSPropertyOp5
 70
     1
102
RTVSPropertyOp6
 70
     1
102
RTVSPropertyOp7
 70
     1
102
RTVSPropertyOp8
 70
     1
102
RTVSPropertyOp9
 70
     1
102
RTVSPropertyOp10
 70
     1
102
RTVSPropertyOp11
 70
     1
102
RTVSPropertyOp12
 70
     1
102
RTVSPropertyOp13
 70
     1
102
RTVSPropertyOp14
 70
     1
102
RTVSPropertyOp15
 70
     1
102
RTVSPropertyOp16
 70
     1
102
RTVSPropertyOp17
 70
     1
102
RTVSPropertyOp18
 70
     1
102
RTVSPropertyOp19
 70
     1
102
RTVSPropertyOp20
 70
     1
102
RTVSPropertyOp21
 70
     1
102
RTVSPropertyOp22
 70
     1
102
RTVSPropertyOp23
 70
     1
102
RTVSPropertyOp24
 70
     1
102
RTVSPropertyOp25
 70
     1
102
RTVSPropertyOp26
 70
     1
102
RTVSPropertyOp27
 70
     1
102
RTVSPropertyOp28
 70
     1
102
RTVSPropertyOp29
 70
     1
102
RTVSPropertyOp30
 70
     1
102
RTVSPropertyOp31
 70
     1
102
RTVSPropertyOp32
 70
     1
102
RTVSPropertyOp33
 70
     1
102
RTVSPropertyOp34
 70
     1
102
RTVSPropertyOp35
 70
     1
102
RTVSPropertyOp36
 70
     1
102
RTVSPropertyOp37
 70
     1
102
RTVSPropertyOp38
 70
     1
102
RTVSPropertyOp39
 70
     1
102
RTVSPropertyOp40
 70
     1
102
RTVSPropertyOp41
 70
     1
102
RTVSPropertyOp42
 70
     1
102
RTVSPropertyOp43
 70
     1
102
RTVSPropertyOp44
 70
     1
102
RTVSPropertyOp45
 70
     1
102
RTVSPropertyOp46
 70
     1
102
RTVSPropertyOp47
 70
     1
102
RTVSPropertyOp48
 70
     1
102
RTVSPropertyOp49
 70
     1
102
RTVSPropertyOp50
 70
     1
102
RTVSPropertyOp51
 70
     0
102
RTVSPropertyOp52
 70
     0
102
RTVSPropertyOp53
 70
     1
102
RTVSPropertyOp54
 70
     1
102
RTVSPropertyOp55
 70
     1
102
RTVSPropertyOp56
 70
     1
102
RTVSPropertyOp57
 70
     1
102
RTVSPropertyOp58
 70
     1
102
RTVSPropertyOp59
 70
     1
102
RTVSPropertyOp60
 70
     1
102
RTVSPropertyOp61
 70
     1
102
RTVSPropertyOp62
 70
     1
  0
XRECORD
  5
445
102
{ACAD_REACTORS
330
444
102
}
330
444
100
AcDbXrecord
280
     1
102
RTVSPost2010Prop28
280
     0
102
RTVSPost2010PropOp28
 70
     1
102
RTVSPost2010Prop29
280
     1
102
RTVSPost2010PropOp29
 70
     1
102
RTVSPost2010Prop30
280
     1
102
RTVSPost2010PropOp30
 70
     1
102
RTVSPost2010Prop31
280
     0
102
RTVSPost2010PropOp31
 70
     1
102
RTVSPost2010Prop32
280
     0
102
RTVSPost2010PropOp32
 70
     1
102
RTVSPost2010Prop33
280
     0
102
RTVSPost2010PropOp33
 70
     1
102
RTVSPost2010Prop34
280
     0
102
RTVSPost2010PropOp34
 70
     1
102
RTVSPost2010Prop35
280
     0
102
RTVSPost2010PropOp35
 70
     1
102
RTVSPost2010Prop36
280
     0
102
RTVSPost2010PropOp36
 70
     1
102
RTVSPost2010Prop37
 90
       50
102
RTVSPost2010PropOp37
 70
     1
102
RTVSPost2010Prop38
140
0.0
102
RTVSPost2010PropOp38
 70
     1
102
RTVSPost2010Prop39
140
1.0
102
RTVSPost2010PropOp39
 70
     1
102
RTVSPost2010Prop40
 90
        0
102
RTVSPost2010PropOp40
 70
     1
102
RTVSPost2010Prop41ColorIndex
 90
       18
102
RTVSPost2010Prop41ColorRGB
 90
        0
102
RTVSPost2010PropOp41
 70
     1
102
RTVSPost2010Prop42
 90
       50
102
RTVSPost2010PropOp42
 70
     1
102
RTVSPost2010Prop43
 90
        3
102
RTVSPost2010PropOp43
 70
     1
102
RTVSPost2010Prop44ColorIndex
 90
        5
102
RTVSPost2010Prop44ColorRGB
 90
      255
102
RTVSPost2010PropOp44
 70
     1
102
RTVSPost2010Prop45
280
     0
102
RTVSPost2010PropOp45
 70
     1
102
RTVSPost2010Prop46
 90
       50
102
RTVSPost2010PropOp46
 70
     1
102
RTVSPost2010Prop47
 90
       50
102
RTVSPost2010PropOp47
 70
     1
102
RTVSPost2010Prop48
 90
       50
102
RTVSPost2010PropOp48
 70
     1
102
RTVSPost2010Prop49
280
     0
102
RTVSPost2010PropOp49
 70
     1
102
RTVSPost2010Prop50
 90
       50
102
RTVSPost2010PropOp50
 70
     1
102
RTVSPost2010Prop51ColorIndex
 90
      256
102
RTVSPost2010Prop51ColorRGB
 90
-16777216
102
RTVSPost2010PropOp51
 70
     0
102
RTVSPost2010Prop52
140
1.0
102
RTVSPost2010PropOp52
 70
     0
102
RTVSPost2010Prop53
 90
        2
102
RTVSPost2010PropOp53
 70
     1
102
RTVSPost2010Prop54
  1
strokes_ogs.tif
102
RTVSPost2010PropOp54
 70
     1
102
RTVSPost2010Prop55
280
     0
102
RTVSPost2010PropOp55
 70
     1
102
RTVSPost2010Prop56
140
1.0
102
RTVSPost2010PropOp56
 70
     1
102
RTVSPost2010Prop57
140
1.0
102
RTVSPost2010PropOp57
 70
     1
102
RTVSPropertyOp0
 70
     1
102
RTVSPropertyOp1
 70
     1
102
RTVSPropertyOp2
 70
     1
102
RTVSPropertyOp3
 70
     1
102
RTVSPropertyOp4
 70
     1
102
RTVSPropertyOp5
 70
     1
102
RTVSPropertyOp6
 70
     1
102
RTVSPropertyOp7
 70
     1
102
RTVSPropertyOp8
 70
     1
102
RTVSPropertyOp9
 70
     1
102
RTVSPropertyOp10
 70
     1
102
RTVSPropertyOp11
 70
     1
102
RTVSPropertyOp12
 70
     1
102
RTVSPropertyOp13
 70
     1
102
RTVSPropertyOp14
 70
     1
102
RTVSPropertyOp15
 70
     1
102
RTVSPropertyOp16
 70
     1
102
RTVSPropertyOp17
 70
     1
102
RTVSPropertyOp18
 70
     1
102
RTVSPropertyOp19
 70
     1
102
RTVSPropertyOp20
 70
     1
102
RTVSPropertyOp21
 70
     1
102
RTVSPropertyOp22
 70
     1
102
RTVSPropertyOp23
 70
     1
102
RTVSPropertyOp24
 70
     1
102
RTVSPropertyOp25
 70
     1
102
RTVSPropertyOp26
 70
     1
102
RTVSPropertyOp27
 70
     1
102
RTVSPropertyOp28
 70
     1
102
RTVSPropertyOp29
 70
     1
102
RTVSPropertyOp30
 70
     1
102
RTVSPropertyOp31
 70
     1
102
RTVSPropertyOp32
 70
     1
102
RTVSPropertyOp33
 70
     1
102
RTVSPropertyOp34
 70
     1
102
RTVSPropertyOp35
 70
     1
102
RTVSPropertyOp36
 70
     1
102
RTVSPropertyOp37
 70
     1
102
RTVSPropertyOp38
 70
     1
102
RTVSPropertyOp39
 70
     1
102
RTVSPropertyOp40
 70
     1
102
RTVSPropertyOp41
 70
     1
102
RTVSPropertyOp42
 70
     1
102
RTVSPropertyOp43
 70
     1
102
RTVSPropertyOp44
 70
     1
102
RTVSPropertyOp45
 70
     1
102
RTVSPropertyOp46
 70
     1
102
RTVSPropertyOp47
 70
     1
102
RTVSPropertyOp48
 70
     1
102
RTVSPropertyOp49
 70
     1
102
RTVSPropertyOp50
 70
     1
102
RTVSPropertyOp51
 70
     0
102
RTVSPropertyOp52
 70
     0
102
RTVSPropertyOp53
 70
     1
102
RTVSPropertyOp54
 70
     1
102
RTVSPropertyOp55
 70
     1
102
RTVSPropertyOp56
 70
     1
102
RTVSPropertyOp57
 70
     1
102
RTVSPropertyOp58
 70
     1
102
RTVSPropertyOp59
 70
     1
102
RTVSPropertyOp60
 70
     1
102
RTVSPropertyOp61
 70
     1
102
RTVSPropertyOp62
 70
     1
  0
XRECORD
  5
447
102
{ACAD_REACTORS
330
446
102
}
330
446
100
AcDbXrecord
280
     1
102
RTVSPost2010Prop28
280
     0
102
RTVSPost2010PropOp28
 70
     1
102
RTVSPost2010Prop29
280
     1
102
RTVSPost2010PropOp29
 70
     1
102
RTVSPost2010Prop30
280
     1
102
RTVSPost2010PropOp30
 70
     1
102
RTVSPost2010Prop31
280
     0
102
RTVSPost2010PropOp31
 70
     1
102
RTVSPost2010Prop32
280
     0
102
RTVSPost2010PropOp32
 70
     1
102
RTVSPost2010Prop33
280
     0
102
RTVSPost2010PropOp33
 70
     1
102
RTVSPost2010Prop34
280
     0
102
RTVSPost2010PropOp34
 70
     1
102
RTVSPost2010Prop35
280
     0
102
RTVSPost2010PropOp35
 70
     1
102
RTVSPost2010Prop36
280
     0
102
RTVSPost2010PropOp36
 70
     1
102
RTVSPost2010Prop37
 90
       50
102
RTVSPost2010PropOp37
 70
     1
102
RTVSPost2010Prop38
140
0.0
102
RTVSPost2010PropOp38
 70
     1
102
RTVSPost2010Prop39
140
1.0
102
RTVSPost2010PropOp39
 70
     1
102
RTVSPost2010Prop40
 90
        0
102
RTVSPost2010PropOp40
 70
     1
102
RTVSPost2010Prop41ColorIndex
 90
       18
102
RTVSPost2010Prop41ColorRGB
 90
        0
102
RTVSPost2010PropOp41
 70
     1
102
RTVSPost2010Prop42
 90
       50
102
RTVSPost2010PropOp42
 70
     1
102
RTVSPost2010Prop43
 90
        3
102
RTVSPost2010PropOp43
 70
     1
102
RTVSPost2010Prop44ColorIndex
 90
        5
102
RTVSPost2010Prop44ColorRGB
 90
      255
102
RTVSPost2010PropOp44
 70
     1
102
RTVSPost2010Prop45
280
     0
102
RTVSPost2010PropOp45
 70
     1
102
RTVSPost2010Prop46
 90
       50
102
RTVSPost2010PropOp46
 70
     1
102
RTVSPost2010Prop47
 90
       50
102
RTVSPost2010PropOp47
 70
     1
102
RTVSPost2010Prop48
 90
       50
102
RTVSPost2010PropOp48
 70
     1
102
RTVSPost2010Prop49
280
     0
102
RTVSPost2010PropOp49
 70
     1
102
RTVSPost2010Prop50
 90
       50
102
RTVSPost2010PropOp50
 70
     1
102
RTVSPost2010Prop51ColorIndex
 90
      256
102
RTVSPost2010Prop51ColorRGB
 90
-16777216
102
RTVSPost2010PropOp51
 70
     0
102
RTVSPost2010Prop52
140
1.0
102
RTVSPost2010PropOp52
 70
     0
102
RTVSPost2010Prop53
 90
        2
102
RTVSPost2010PropOp53
 70
     1
102
RTVSPost2010Prop54
  1
strokes_ogs.tif
102
RTVSPost2010PropOp54
 70
     1
102
RTVSPost2010Prop55
280
     0
102
RTVSPost2010PropOp55
 70
     1
102
RTVSPost2010Prop56
140
1.0
102
RTVSPost2010PropOp56
 70
     1
102
RTVSPost2010Prop57
140
1.0
102
RTVSPost2010PropOp57
 70
     1
102
RTVSPropertyOp0
 70
     1
102
RTVSPropertyOp1
 70
     1
102
RTVSPropertyOp2
 70
     1
102
RTVSPropertyOp3
 70
     1
102
RTVSPropertyOp4
 70
     1
102
RTVSPropertyOp5
 70
     1
102
RTVSPropertyOp6
 70
     1
102
RTVSPropertyOp7
 70
     1
102
RTVSPropertyOp8
 70
     1
102
RTVSPropertyOp9
 70
     1
102
RTVSPropertyOp10
 70
     1
102
RTVSPropertyOp11
 70
     1
102
RTVSPropertyOp12
 70
     1
102
RTVSPropertyOp13
 70
     1
102
RTVSPropertyOp14
 70
     1
102
RTVSPropertyOp15
 70
     1
102
RTVSPropertyOp16
 70
     1
102
RTVSPropertyOp17
 70
     1
102
RTVSPropertyOp18
 70
     1
102
RTVSPropertyOp19
 70
     1
102
RTVSPropertyOp20
 70
     1
102
RTVSPropertyOp21
 70
     1
102
RTVSPropertyOp22
 70
     1
102
RTVSPropertyOp23
 70
     1
102
RTVSPropertyOp24
 70
     1
102
RTVSPropertyOp25
 70
     1
102
RTVSPropertyOp26
 70
     1
102
RTVSPropertyOp27
 70
     1
102
RTVSPropertyOp28
 70
     1
102
RTVSPropertyOp29
 70
     1
102
RTVSPropertyOp30
 70
     1
102
RTVSPropertyOp31
 70
     1
102
RTVSPropertyOp32
 70
     1
102
RTVSPropertyOp33
 70
     1
102
RTVSPropertyOp34
 70
     1
102
RTVSPropertyOp35
 70
     1
102
RTVSPropertyOp36
 70
     1
102
RTVSPropertyOp37
 70
     1
102
RTVSPropertyOp38
 70
     1
102
RTVSPropertyOp39
 70
     1
102
RTVSPropertyOp40
 70
     1
102
RTVSPropertyOp41
 70
     1
102
RTVSPropertyOp42
 70
     1
102
RTVSPropertyOp43
 70
     1
102
RTVSPropertyOp44
 70
     1
102
RTVSPropertyOp45
 70
     1
102
RTVSPropertyOp46
 70
     1
102
RTVSPropertyOp47
 70
     1
102
RTVSPropertyOp48
 70
     1
102
RTVSPropertyOp49
 70
     1
102
RTVSPropertyOp50
 70
     1
102
RTVSPropertyOp51
 70
     0
102
RTVSPropertyOp52
 70
     0
102
RTVSPropertyOp53
 70
     1
102
RTVSPropertyOp54
 70
     1
102
RTVSPropertyOp55
 70
     1
102
RTVSPropertyOp56
 70
     1
102
RTVSPropertyOp57
 70
     1
102
RTVSPropertyOp58
 70
     1
102
RTVSPropertyOp59
 70
     1
102
RTVSPropertyOp60
 70
     1
102
RTVSPropertyOp61
 70
     1
102
RTVSPropertyOp62
 70
     1
  0
XRECORD
  5
449
102
{ACAD_REACTORS
330
448
102
}
330
448
100
AcDbXrecord
280
     1
102
RTVSPost2010Prop28
280
     0
102
RTVSPost2010PropOp28
 70
     1
102
RTVSPost2010Prop29
280
     1
102
RTVSPost2010PropOp29
 70
     1
102
RTVSPost2010Prop30
280
     1
102
RTVSPost2010PropOp30
 70
     1
102
RTVSPost2010Prop31
280
     0
102
RTVSPost2010PropOp31
 70
     1
102
RTVSPost2010Prop32
280
     0
102
RTVSPost2010PropOp32
 70
     1
102
RTVSPost2010Prop33
280
     0
102
RTVSPost2010PropOp33
 70
     1
102
RTVSPost2010Prop34
280
     0
102
RTVSPost2010PropOp34
 70
     1
102
RTVSPost2010Prop35
280
     0
102
RTVSPost2010PropOp35
 70
     1
102
RTVSPost2010Prop36
280
     0
102
RTVSPost2010PropOp36
 70
     1
102
RTVSPost2010Prop37
 90
       50
102
RTVSPost2010PropOp37
 70
     1
102
RTVSPost2010Prop38
140
0.0
102
RTVSPost2010PropOp38
 70
     1
102
RTVSPost2010Prop39
140
1.0
102
RTVSPost2010PropOp39
 70
     1
102
RTVSPost2010Prop40
 90
        0
102
RTVSPost2010PropOp40
 70
     1
102
RTVSPost2010Prop41ColorIndex
 90
       18
102
RTVSPost2010Prop41ColorRGB
 90
        0
102
RTVSPost2010PropOp41
 70
     1
102
RTVSPost2010Prop42
 90
       50
102
RTVSPost2010PropOp42
 70
     1
102
RTVSPost2010Prop43
 90
        3
102
RTVSPost2010PropOp43
 70
     1
102
RTVSPost2010Prop44ColorIndex
 90
        5
102
RTVSPost2010Prop44ColorRGB
 90
      255
102
RTVSPost2010PropOp44
 70
     1
102
RTVSPost2010Prop45
280
     0
102
RTVSPost2010PropOp45
 70
     1
102
RTVSPost2010Prop46
 90
       50
102
RTVSPost2010PropOp46
 70
     1
102
RTVSPost2010Prop47
 90
       50
102
RTVSPost2010PropOp47
 70
     1
102
RTVSPost2010Prop48
 90
       50
102
RTVSPost2010PropOp48
 70
     1
102
RTVSPost2010Prop49
280
     0
102
RTVSPost2010PropOp49
 70
     1
102
RTVSPost2010Prop50
 90
       50
102
RTVSPost2010PropOp50
 70
     1
102
RTVSPost2010Prop51ColorIndex
 90
      256
102
RTVSPost2010Prop51ColorRGB
 90
-16777216
102
RTVSPost2010PropOp51
 70
     0
102
RTVSPost2010Prop52
140
1.0
102
RTVSPost2010PropOp52
 70
     0
102
RTVSPost2010Prop53
 90
        2
102
RTVSPost2010PropOp53
 70
     1
102
RTVSPost2010Prop54
  1
strokes_ogs.tif
102
RTVSPost2010PropOp54
 70
     1
102
RTVSPost2010Prop55
280
     0
102
RTVSPost2010PropOp55
 70
     1
102
RTVSPost2010Prop56
140
1.0
102
RTVSPost2010PropOp56
 70
     1
102
RTVSPost2010Prop57
140
1.0
102
RTVSPost2010PropOp57
 70
     1
102
RTVSPropertyOp0
 70
     1
102
RTVSPropertyOp1
 70
     1
102
RTVSPropertyOp2
 70
     1
102
RTVSPropertyOp3
 70
     1
102
RTVSPropertyOp4
 70
     1
102
RTVSPropertyOp5
 70
     1
102
RTVSPropertyOp6
 70
     1
102
RTVSPropertyOp7
 70
     1
102
RTVSPropertyOp8
 70
     1
102
RTVSPropertyOp9
 70
     1
102
RTVSPropertyOp10
 70
     1
102
RTVSPropertyOp11
 70
     1
102
RTVSPropertyOp12
 70
     1
102
RTVSPropertyOp13
 70
     1
102
RTVSPropertyOp14
 70
     1
102
RTVSPropertyOp15
 70
     1
102
RTVSPropertyOp16
 70
     1
102
RTVSPropertyOp17
 70
     1
102
RTVSPropertyOp18
 70
     1
102
RTVSPropertyOp19
 70
     1
102
RTVSPropertyOp20
 70
     1
102
RTVSPropertyOp21
 70
     1
102
RTVSPropertyOp22
 70
     1
102
RTVSPropertyOp23
 70
     1
102
RTVSPropertyOp24
 70
     1
102
RTVSPropertyOp25
 70
     1
102
RTVSPropertyOp26
 70
     1
102
RTVSPropertyOp27
 70
     1
102
RTVSPropertyOp28
 70
     1
102
RTVSPropertyOp29
 70
     1
102
RTVSPropertyOp30
 70
     1
102
RTVSPropertyOp31
 70
     1
102
RTVSPropertyOp32
 70
     1
102
RTVSPropertyOp33
 70
     1
102
RTVSPropertyOp34
 70
     1
102
RTVSPropertyOp35
 70
     1
102
RTVSPropertyOp36
 70
     1
102
RTVSPropertyOp37
 70
     1
102
RTVSPropertyOp38
 70
     1
102
RTVSPropertyOp39
 70
     1
102
RTVSPropertyOp40
 70
     1
102
RTVSPropertyOp41
 70
     1
102
RTVSPropertyOp42
 70
     1
102
RTVSPropertyOp43
 70
     1
102
RTVSPropertyOp44
 70
     1
102
RTVSPropertyOp45
 70
     1
102
RTVSPropertyOp46
 70
     1
102
RTVSPropertyOp47
 70
     1
102
RTVSPropertyOp48
 70
     1
102
RTVSPropertyOp49
 70
     1
102
RTVSPropertyOp50
 70
     1
102
RTVSPropertyOp51
 70
     0
102
RTVSPropertyOp52
 70
     0
102
RTVSPropertyOp53
 70
     1
102
RTVSPropertyOp54
 70
     1
102
RTVSPropertyOp55
 70
     1
102
RTVSPropertyOp56
 70
     1
102
RTVSPropertyOp57
 70
     1
102
RTVSPropertyOp58
 70
     1
102
RTVSPropertyOp59
 70
     1
102
RTVSPropertyOp60
 70
     1
102
RTVSPropertyOp61
 70
     1
102
RTVSPropertyOp62
 70
     1
  0
XRECORD
  5
44B
102
{ACAD_REACTORS
330
44A
102
}
330
44A
100
AcDbXrecord
280
     1
102
RTVSPost2010Prop28
280
     0
102
RTVSPost2010PropOp28
 70
     1
102
RTVSPost2010Prop29
280
     1
102
RTVSPost2010PropOp29
 70
     1
102
RTVSPost2010Prop30
280
     1
102
RTVSPost2010PropOp30
 70
     1
102
RTVSPost2010Prop31
280
     0
102
RTVSPost2010PropOp31
 70
     1
102
RTVSPost2010Prop32
280
     0
102
RTVSPost2010PropOp32
 70
     1
102
RTVSPost2010Prop33
280
     0
102
RTVSPost2010PropOp33
 70
     1
102
RTVSPost2010Prop34
280
     0
102
RTVSPost2010PropOp34
 70
     1
102
RTVSPost2010Prop35
280
     0
102
RTVSPost2010PropOp35
 70
     1
102
RTVSPost2010Prop36
280
     0
102
RTVSPost2010PropOp36
 70
     1
102
RTVSPost2010Prop37
 90
       50
102
RTVSPost2010PropOp37
 70
     1
102
RTVSPost2010Prop38
140
0.0
102
RTVSPost2010PropOp38
 70
     1
102
RTVSPost2010Prop39
140
1.0
102
RTVSPost2010PropOp39
 70
     1
102
RTVSPost2010Prop40
 90
        0
102
RTVSPost2010PropOp40
 70
     1
102
RTVSPost2010Prop41ColorIndex
 90
       18
102
RTVSPost2010Prop41ColorRGB
 90
        0
102
RTVSPost2010PropOp41
 70
     1
102
RTVSPost2010Prop42
 90
       50
102
RTVSPost2010PropOp42
 70
     1
102
RTVSPost2010Prop43
 90
        3
102
RTVSPost2010PropOp43
 70
     1
102
RTVSPost2010Prop44ColorIndex
 90
        5
102
RTVSPost2010Prop44ColorRGB
 90
      255
102
RTVSPost2010PropOp44
 70
     1
102
RTVSPost2010Prop45
280
     0
102
RTVSPost2010PropOp45
 70
     1
102
RTVSPost2010Prop46
 90
       50
102
RTVSPost2010PropOp46
 70
     1
102
RTVSPost2010Prop47
 90
       50
102
RTVSPost2010PropOp47
 70
     1
102
RTVSPost2010Prop48
 90
       50
102
RTVSPost2010PropOp48
 70
     1
102
RTVSPost2010Prop49
280
     0
102
RTVSPost2010PropOp49
 70
     1
102
RTVSPost2010Prop50
 90
       50
102
RTVSPost2010PropOp50
 70
     1
102
RTVSPost2010Prop51ColorIndex
 90
      256
102
RTVSPost2010Prop51ColorRGB
 90
-16777216
102
RTVSPost2010PropOp51
 70
     0
102
RTVSPost2010Prop52
140
1.0
102
RTVSPost2010PropOp52
 70
     0
102
RTVSPost2010Prop53
 90
        2
102
RTVSPost2010PropOp53
 70
     1
102
RTVSPost2010Prop54
  1
strokes_ogs.tif
102
RTVSPost2010PropOp54
 70
     1
102
RTVSPost2010Prop55
280
     0
102
RTVSPost2010PropOp55
 70
     1
102
RTVSPost2010Prop56
140
1.0
102
RTVSPost2010PropOp56
 70
     1
102
RTVSPost2010Prop57
140
1.0
102
RTVSPost2010PropOp57
 70
     1
102
RTVSPropertyOp0
 70
     1
102
RTVSPropertyOp1
 70
     1
102
RTVSPropertyOp2
 70
     1
102
RTVSPropertyOp3
 70
     1
102
RTVSPropertyOp4
 70
     1
102
RTVSPropertyOp5
 70
     1
102
RTVSPropertyOp6
 70
     1
102
RTVSPropertyOp7
 70
     1
102
RTVSPropertyOp8
 70
     1
102
RTVSPropertyOp9
 70
     1
102
RTVSPropertyOp10
 70
     1
102
RTVSPropertyOp11
 70
     1
102
RTVSPropertyOp12
 70
     1
102
RTVSPropertyOp13
 70
     1
102
RTVSPropertyOp14
 70
     1
102
RTVSPropertyOp15
 70
     1
102
RTVSPropertyOp16
 70
     1
102
RTVSPropertyOp17
 70
     1
102
RTVSPropertyOp18
 70
     1
102
RTVSPropertyOp19
 70
     1
102
RTVSPropertyOp20
 70
     1
102
RTVSPropertyOp21
 70
     1
102
RTVSPropertyOp22
 70
     1
102
RTVSPropertyOp23
 70
     1
102
RTVSPropertyOp24
 70
     1
102
RTVSPropertyOp25
 70
     1
102
RTVSPropertyOp26
 70
     1
102
RTVSPropertyOp27
 70
     1
102
RTVSPropertyOp28
 70
     1
102
RTVSPropertyOp29
 70
     1
102
RTVSPropertyOp30
 70
     1
102
RTVSPropertyOp31
 70
     1
102
RTVSPropertyOp32
 70
     1
102
RTVSPropertyOp33
 70
     1
102
RTVSPropertyOp34
 70
     1
102
RTVSPropertyOp35
 70
     1
102
RTVSPropertyOp36
 70
     1
102
RTVSPropertyOp37
 70
     1
102
RTVSPropertyOp38
 70
     1
102
RTVSPropertyOp39
 70
     1
102
RTVSPropertyOp40
 70
     1
102
RTVSPropertyOp41
 70
     1
102
RTVSPropertyOp42
 70
     1
102
RTVSPropertyOp43
 70
     1
102
RTVSPropertyOp44
 70
     1
102
RTVSPropertyOp45
 70
     1
102
RTVSPropertyOp46
 70
     1
102
RTVSPropertyOp47
 70
     1
102
RTVSPropertyOp48
 70
     1
102
RTVSPropertyOp49
 70
     1
102
RTVSPropertyOp50
 70
     1
102
RTVSPropertyOp51
 70
     0
102
RTVSPropertyOp52
 70
     0
102
RTVSPropertyOp53
 70
     1
102
RTVSPropertyOp54
 70
     1
102
RTVSPropertyOp55
 70
     1
102
RTVSPropertyOp56
 70
     1
102
RTVSPropertyOp57
 70
     1
102
RTVSPropertyOp58
 70
     1
102
RTVSPropertyOp59
 70
     1
102
RTVSPropertyOp60
 70
     1
102
RTVSPropertyOp61
 70
     1
102
RTVSPropertyOp62
 70
     1
  0
XRECORD
  5
453
102
{ACAD_REACTORS
330
452
102
}
330
452
100
AcDbXrecord
280
     1
102
RTVSPost2010Prop28
280
     0
102
RTVSPost2010PropOp28
 70
     1
102
RTVSPost2010Prop29
280
     1
102
RTVSPost2010PropOp29
 70
     1
102
RTVSPost2010Prop30
280
     1
102
RTVSPost2010PropOp30
 70
     1
102
RTVSPost2010Prop31
280
     0
102
RTVSPost2010PropOp31
 70
     1
102
RTVSPost2010Prop32
280
     0
102
RTVSPost2010PropOp32
 70
     1
102
RTVSPost2010Prop33
280
     0
102
RTVSPost2010PropOp33
 70
     1
102
RTVSPost2010Prop34
280
     0
102
RTVSPost2010PropOp34
 70
     1
102
RTVSPost2010Prop35
280
     0
102
RTVSPost2010PropOp35
 70
     1
102
RTVSPost2010Prop36
280
     0
102
RTVSPost2010PropOp36
 70
     1
102
RTVSPost2010Prop37
 90
       50
102
RTVSPost2010PropOp37
 70
     1
102
RTVSPost2010Prop38
140
0.0
102
RTVSPost2010PropOp38
 70
     1
102
RTVSPost2010Prop39
140
1.0
102
RTVSPost2010PropOp39
 70
     1
102
RTVSPost2010Prop40
 90
        0
102
RTVSPost2010PropOp40
 70
     1
102
RTVSPost2010Prop41ColorIndex
 90
       18
102
RTVSPost2010Prop41ColorRGB
 90
        0
102
RTVSPost2010PropOp41
 70
     1
102
RTVSPost2010Prop42
 90
       50
102
RTVSPost2010PropOp42
 70
     1
102
RTVSPost2010Prop43
 90
        3
102
RTVSPost2010PropOp43
 70
     1
102
RTVSPost2010Prop44ColorIndex
 90
        5
102
RTVSPost2010Prop44ColorRGB
 90
      255
102
RTVSPost2010PropOp44
 70
     1
102
RTVSPost2010Prop45
280
     0
102
RTVSPost2010PropOp45
 70
     1
102
RTVSPost2010Prop46
 90
       50
102
RTVSPost2010PropOp46
 70
     1
102
RTVSPost2010Prop47
 90
       50
102
RTVSPost2010PropOp47
 70
     1
102
RTVSPost2010Prop48
 90
       50
102
RTVSPost2010PropOp48
 70
     1
102
RTVSPost2010Prop49
280
     0
102
RTVSPost2010PropOp49
 70
     1
102
RTVSPost2010Prop50
 90
       50
102
RTVSPost2010PropOp50
 70
     1
102
RTVSPost2010Prop51ColorIndex
 90
      256
102
RTVSPost2010Prop51ColorRGB
 90
-16777216
102
RTVSPost2010PropOp51
 70
     0
102
RTVSPost2010Prop52
140
1.0
102
RTVSPost2010PropOp52
 70
     0
102
RTVSPost2010Prop53
 90
        2
102
RTVSPost2010PropOp53
 70
     1
102
RTVSPost2010Prop54
  1
strokes_ogs.tif
102
RTVSPost2010PropOp54
 70
     1
102
RTVSPost2010Prop55
280
     0
102
RTVSPost2010PropOp55
 70
     1
102
RTVSPost2010Prop56
140
1.0
102
RTVSPost2010PropOp56
 70
     1
102
RTVSPost2010Prop57
140
1.0
102
RTVSPost2010PropOp57
 70
     1
102
RTVSPropertyOp0
 70
     1
102
RTVSPropertyOp1
 70
     1
102
RTVSPropertyOp2
 70
     1
102
RTVSPropertyOp3
 70
     1
102
RTVSPropertyOp4
 70
     1
102
RTVSPropertyOp5
 70
     1
102
RTVSPropertyOp6
 70
     1
102
RTVSPropertyOp7
 70
     1
102
RTVSPropertyOp8
 70
     1
102
RTVSPropertyOp9
 70
     1
102
RTVSPropertyOp10
 70
     1
102
RTVSPropertyOp11
 70
     1
102
RTVSPropertyOp12
 70
     1
102
RTVSPropertyOp13
 70
     1
102
RTVSPropertyOp14
 70
     1
102
RTVSPropertyOp15
 70
     1
102
RTVSPropertyOp16
 70
     1
102
RTVSPropertyOp17
 70
     1
102
RTVSPropertyOp18
 70
     1
102
RTVSPropertyOp19
 70
     1
102
RTVSPropertyOp20
 70
     1
102
RTVSPropertyOp21
 70
     1
102
RTVSPropertyOp22
 70
     1
102
RTVSPropertyOp23
 70
     1
102
RTVSPropertyOp24
 70
     1
102
RTVSPropertyOp25
 70
     1
102
RTVSPropertyOp26
 70
     1
102
RTVSPropertyOp27
 70
     1
102
RTVSPropertyOp28
 70
     1
102
RTVSPropertyOp29
 70
     1
102
RTVSPropertyOp30
 70
     1
102
RTVSPropertyOp31
 70
     1
102
RTVSPropertyOp32
 70
     1
102
RTVSPropertyOp33
 70
     1
102
RTVSPropertyOp34
 70
     1
102
RTVSPropertyOp35
 70
     1
102
RTVSPropertyOp36
 70
     1
102
RTVSPropertyOp37
 70
     1
102
RTVSPropertyOp38
 70
     1
102
RTVSPropertyOp39
 70
     1
102
RTVSPropertyOp40
 70
     1
102
RTVSPropertyOp41
 70
     1
102
RTVSPropertyOp42
 70
     1
102
RTVSPropertyOp43
 70
     1
102
RTVSPropertyOp44
 70
     1
102
RTVSPropertyOp45
 70
     1
102
RTVSPropertyOp46
 70
     1
102
RTVSPropertyOp47
 70
     1
102
RTVSPropertyOp48
 70
     1
102
RTVSPropertyOp49
 70
     1
102
RTVSPropertyOp50
 70
     1
102
RTVSPropertyOp51
 70
     0
102
RTVSPropertyOp52
 70
     0
102
RTVSPropertyOp53
 70
     1
102
RTVSPropertyOp54
 70
     1
102
RTVSPropertyOp55
 70
     1
102
RTVSPropertyOp56
 70
     1
102
RTVSPropertyOp57
 70
     1
102
RTVSPropertyOp58
 70
     1
102
RTVSPropertyOp59
 70
     1
102
RTVSPropertyOp60
 70
     1
102
RTVSPropertyOp61
 70
     1
102
RTVSPropertyOp62
 70
     1
  0
XRECORD
  5
46F
102
{ACAD_REACTORS
330
46E
102
}
330
46E
100
AcDbXrecord
280
     1
102
RTVSPost2010Prop28
280
     0
102
RTVSPost2010PropOp28
 70
     1
102
RTVSPost2010Prop29
280
     1
102
RTVSPost2010PropOp29
 70
     1
102
RTVSPost2010Prop30
280
     1
102
RTVSPost2010PropOp30
 70
     1
102
RTVSPost2010Prop31
280
     0
102
RTVSPost2010PropOp31
 70
     1
102
RTVSPost2010Prop32
280
     0
102
RTVSPost2010PropOp32
 70
     1
102
RTVSPost2010Prop33
280
     0
102
RTVSPost2010PropOp33
 70
     1
102
RTVSPost2010Prop34
280
     0
102
RTVSPost2010PropOp34
 70
     1
102
RTVSPost2010Prop35
280
     0
102
RTVSPost2010PropOp35
 70
     1
102
RTVSPost2010Prop36
280
     0
102
RTVSPost2010PropOp36
 70
     1
102
RTVSPost2010Prop37
 90
       50
102
RTVSPost2010PropOp37
 70
     0
102
RTVSPost2010Prop38
140
0.0
102
RTVSPost2010PropOp38
 70
     0
102
RTVSPost2010Prop39
140
1.0
102
RTVSPost2010PropOp39
 70
     0
102
RTVSPost2010Prop40
 90
        0
102
RTVSPost2010PropOp40
 70
     0
102
RTVSPost2010Prop41ColorIndex
 90
       18
102
RTVSPost2010Prop41ColorRGB
 90
        0
102
RTVSPost2010PropOp41
 70
     0
102
RTVSPost2010Prop42
 90
       50
102
RTVSPost2010PropOp42
 70
     0
102
RTVSPost2010Prop43
 90
        3
102
RTVSPost2010PropOp43
 70
     0
102
RTVSPost2010Prop44ColorIndex
 90
        5
102
RTVSPost2010Prop44ColorRGB
 90
      255
102
RTVSPost2010PropOp44
 70
     0
102
RTVSPost2010Prop45
280
     0
102
RTVSPost2010PropOp45
 70
     1
102
RTVSPost2010Prop46
 90
       50
102
RTVSPost2010PropOp46
 70
     0
102
RTVSPost2010Prop47
 90
       50
102
RTVSPost2010PropOp47
 70
     0
102
RTVSPost2010Prop48
 90
       50
102
RTVSPost2010PropOp48
 70
     0
102
RTVSPost2010Prop49
280
     0
102
RTVSPost2010PropOp49
 70
     1
102
RTVSPost2010Prop50
 90
       50
102
RTVSPost2010PropOp50
 70
     0
102
RTVSPost2010Prop51ColorIndex
 90
      256
102
RTVSPost2010Prop51ColorRGB
 90
-16777216
102
RTVSPost2010PropOp51
 70
     0
102
RTVSPost2010Prop52
140
1.0
102
RTVSPost2010PropOp52
 70
     0
102
RTVSPost2010Prop53
 90
        2
102
RTVSPost2010PropOp53
 70
     0
102
RTVSPost2010Prop54
  1
strokes_ogs.tif
102
RTVSPost2010PropOp54
 70
     0
102
RTVSPost2010Prop55
280
     0
102
RTVSPost2010PropOp55
 70
     1
102
RTVSPost2010Prop56
140
1.0
102
RTVSPost2010PropOp56
 70
     0
102
RTVSPost2010Prop57
140
1.0
102
RTVSPost2010PropOp57
 70
     0
102
RTVSPropertyOp0
 70
     0
102
RTVSPropertyOp1
 70
     0
102
RTVSPropertyOp2
 70
     0
102
RTVSPropertyOp3
 70
     0
102
RTVSPropertyOp4
 70
     0
102
RTVSPropertyOp5
 70
     0
102
RTVSPropertyOp6
 70
     0
102
RTVSPropertyOp7
 70
     0
102
RTVSPropertyOp8
 70
     0
102
RTVSPropertyOp9
 70
     0
102
RTVSPropertyOp10
 70
     0
102
RTVSPropertyOp11
 70
     0
102
RTVSPropertyOp12
 70
     0
102
RTVSPropertyOp13
 70
     0
102
RTVSPropertyOp14
 70
     2
102
RTVSPropertyOp15
 70
     0
102
RTVSPropertyOp16
 70
     0
102
RTVSPropertyOp17
 70
     0
102
RTVSPropertyOp18
 70
     0
102
RTVSPropertyOp19
 70
     0
102
RTVSPropertyOp20
 70
     0
102
RTVSPropertyOp21
 70
     0
102
RTVSPropertyOp22
 70
     0
102
RTVSPropertyOp23
 70
     0
102
RTVSPropertyOp24
 70
     0
102
RTVSPropertyOp25
 70
     0
102
RTVSPropertyOp26
 70
     0
102
RTVSPropertyOp27
 70
     0
102
RTVSPropertyOp28
 70
     1
102
RTVSPropertyOp29
 70
     1
102
RTVSPropertyOp30
 70
     1
102
RTVSPropertyOp31
 70
     1
102
RTVSPropertyOp32
 70
     1
102
RTVSPropertyOp33
 70
     1
102
RTVSPropertyOp34
 70
     1
102
RTVSPropertyOp35
 70
     1
102
RTVSPropertyOp36
 70
     1
102
RTVSPropertyOp37
 70
     0
102
RTVSPropertyOp38
 70
     0
102
RTVSPropertyOp39
 70
     0
102
RTVSPropertyOp40
 70
     0
102
RTVSPropertyOp41
 70
     0
102
RTVSPropertyOp42
 70
     0
102
RTVSPropertyOp43
 70
     0
102
RTVSPropertyOp44
 70
     0
102
RTVSPropertyOp45
 70
     1
102
RTVSPropertyOp46
 70
     0
102
RTVSPropertyOp47
 70
     0
102
RTVSPropertyOp48
 70
     0
102
RTVSPropertyOp49
 70
     1
102
RTVSPropertyOp50
 70
     0
102
RTVSPropertyOp51
 70
     0
102
RTVSPropertyOp52
 70
     0
102
RTVSPropertyOp53
 70
     0
102
RTVSPropertyOp54
 70
     0
102
RTVSPropertyOp55
 70
     1
102
RTVSPropertyOp56
 70
     0
102
RTVSPropertyOp57
 70
     0
102
RTVSPropertyOp58
 70
     0
102
RTVSPropertyOp59
 70
     0
102
RTVSPropertyOp60
 70
     0
102
RTVSPropertyOp61
 70
     0
102
RTVSPropertyOp62
 70
     0
  0
XRECORD
  5
45F
102
{ACAD_REACTORS
330
45E
102
}
330
45E
100
AcDbXrecord
280
     1
102
RTVSPost2010Prop28
280
     0
102
RTVSPost2010PropOp28
 70
     1
102
RTVSPost2010Prop29
280
     1
102
RTVSPost2010PropOp29
 70
     1
102
RTVSPost2010Prop30
280
     1
102
RTVSPost2010PropOp30
 70
     1
102
RTVSPost2010Prop31
280
     0
102
RTVSPost2010PropOp31
 70
     1
102
RTVSPost2010Prop32
280
     0
102
RTVSPost2010PropOp32
 70
     1
102
RTVSPost2010Prop33
280
     0
102
RTVSPost2010PropOp33
 70
     1
102
RTVSPost2010Prop34
280
     0
102
RTVSPost2010PropOp34
 70
     1
102
RTVSPost2010Prop35
280
     0
102
RTVSPost2010PropOp35
 70
     1
102
RTVSPost2010Prop36
280
     0
102
RTVSPost2010PropOp36
 70
     1
102
RTVSPost2010Prop37
 90
       50
102
RTVSPost2010PropOp37
 70
     1
102
RTVSPost2010Prop38
140
0.0
102
RTVSPost2010PropOp38
 70
     1
102
RTVSPost2010Prop39
140
1.0
102
RTVSPost2010PropOp39
 70
     1
102
RTVSPost2010Prop40
 90
        0
102
RTVSPost2010PropOp40
 70
     1
102
RTVSPost2010Prop41ColorIndex
 90
       18
102
RTVSPost2010Prop41ColorRGB
 90
        0
102
RTVSPost2010PropOp41
 70
     1
102
RTVSPost2010Prop42
 90
       50
102
RTVSPost2010PropOp42
 70
     1
102
RTVSPost2010Prop43
 90
        3
102
RTVSPost2010PropOp43
 70
     1
102
RTVSPost2010Prop44ColorIndex
 90
        5
102
RTVSPost2010Prop44ColorRGB
 90
      255
102
RTVSPost2010PropOp44
 70
     1
102
RTVSPost2010Prop45
280
     0
102
RTVSPost2010PropOp45
 70
     1
102
RTVSPost2010Prop46
 90
       50
102
RTVSPost2010PropOp46
 70
     1
102
RTVSPost2010Prop47
 90
       50
102
RTVSPost2010PropOp47
 70
     1
102
RTVSPost2010Prop48
 90
       50
102
RTVSPost2010PropOp48
 70
     1
102
RTVSPost2010Prop49
280
     0
102
RTVSPost2010PropOp49
 70
     1
102
RTVSPost2010Prop50
 90
       50
102
RTVSPost2010PropOp50
 70
     1
102
RTVSPost2010Prop51ColorIndex
 90
      256
102
RTVSPost2010Prop51ColorRGB
 90
-16777216
102
RTVSPost2010PropOp51
 70
     0
102
RTVSPost2010Prop52
140
1.0
102
RTVSPost2010PropOp52
 70
     0
102
RTVSPost2010Prop53
 90
        2
102
RTVSPost2010PropOp53
 70
     1
102
RTVSPost2010Prop54
  1
strokes_ogs.tif
102
RTVSPost2010PropOp54
 70
     1
102
RTVSPost2010Prop55
280
     0
102
RTVSPost2010PropOp55
 70
     1
102
RTVSPost2010Prop56
140
1.0
102
RTVSPost2010PropOp56
 70
     1
102
RTVSPost2010Prop57
140
1.0
102
RTVSPost2010PropOp57
 70
     1
102
RTVSPropertyOp0
 70
     1
102
RTVSPropertyOp1
 70
     1
102
RTVSPropertyOp2
 70
     1
102
RTVSPropertyOp3
 70
     1
102
RTVSPropertyOp4
 70
     1
102
RTVSPropertyOp5
 70
     1
102
RTVSPropertyOp6
 70
     1
102
RTVSPropertyOp7
 70
     1
102
RTVSPropertyOp8
 70
     1
102
RTVSPropertyOp9
 70
     1
102
RTVSPropertyOp10
 70
     1
102
RTVSPropertyOp11
 70
     1
102
RTVSPropertyOp12
 70
     1
102
RTVSPropertyOp13
 70
     1
102
RTVSPropertyOp14
 70
     1
102
RTVSPropertyOp15
 70
     1
102
RTVSPropertyOp16
 70
     1
102
RTVSPropertyOp17
 70
     1
102
RTVSPropertyOp18
 70
     1
102
RTVSPropertyOp19
 70
     1
102
RTVSPropertyOp20
 70
     1
102
RTVSPropertyOp21
 70
     1
102
RTVSPropertyOp22
 70
     1
102
RTVSPropertyOp23
 70
     1
102
RTVSPropertyOp24
 70
     1
102
RTVSPropertyOp25
 70
     1
102
RTVSPropertyOp26
 70
     1
102
RTVSPropertyOp27
 70
     1
102
RTVSPropertyOp28
 70
     1
102
RTVSPropertyOp29
 70
     1
102
RTVSPropertyOp30
 70
     1
102
RTVSPropertyOp31
 70
     1
102
RTVSPropertyOp32
 70
     1
102
RTVSPropertyOp33
 70
     1
102
RTVSPropertyOp34
 70
     1
102
RTVSPropertyOp35
 70
     1
102
RTVSPropertyOp36
 70
     1
102
RTVSPropertyOp37
 70
     1
102
RTVSPropertyOp38
 70
     1
102
RTVSPropertyOp39
 70
     1
102
RTVSPropertyOp40
 70
     1
102
RTVSPropertyOp41
 70
     1
102
RTVSPropertyOp42
 70
     1
102
RTVSPropertyOp43
 70
     1
102
RTVSPropertyOp44
 70
     1
102
RTVSPropertyOp45
 70
     1
102
RTVSPropertyOp46
 70
     1
102
RTVSPropertyOp47
 70
     1
102
RTVSPropertyOp48
 70
     1
102
RTVSPropertyOp49
 70
     1
102
RTVSPropertyOp50
 70
     1
102
RTVSPropertyOp51
 70
     0
102
RTVSPropertyOp52
 70
     0
102
RTVSPropertyOp53
 70
     1
102
RTVSPropertyOp54
 70
     1
102
RTVSPropertyOp55
 70
     1
102
RTVSPropertyOp56
 70
     1
102
RTVSPropertyOp57
 70
     1
102
RTVSPropertyOp58
 70
     1
102
RTVSPropertyOp59
 70
     1
102
RTVSPropertyOp60
 70
     1
102
RTVSPropertyOp61
 70
     1
102
RTVSPropertyOp62
 70
     1
  0
XRECORD
  5
471
102
{ACAD_REACTORS
330
470
102
}
330
470
100
AcDbXrecord
280
     1
102
RTVSPost2010Prop28
280
     0
102
RTVSPost2010PropOp28
 70
     1
102
RTVSPost2010Prop29
280
     1
102
RTVSPost2010PropOp29
 70
     1
102
RTVSPost2010Prop30
280
     1
102
RTVSPost2010PropOp30
 70
     1
102
RTVSPost2010Prop31
280
     0
102
RTVSPost2010PropOp31
 70
     1
102
RTVSPost2010Prop32
280
     0
102
RTVSPost2010PropOp32
 70
     1
102
RTVSPost2010Prop33
280
     0
102
RTVSPost2010PropOp33
 70
     1
102
RTVSPost2010Prop34
280
     0
102
RTVSPost2010PropOp34
 70
     1
102
RTVSPost2010Prop35
280
     0
102
RTVSPost2010PropOp35
 70
     1
102
RTVSPost2010Prop36
280
     0
102
RTVSPost2010PropOp36
 70
     1
102
RTVSPost2010Prop37
 90
       50
102
RTVSPost2010PropOp37
 70
     0
102
RTVSPost2010Prop38
140
0.0
102
RTVSPost2010PropOp38
 70
     0
102
RTVSPost2010Prop39
140
1.0
102
RTVSPost2010PropOp39
 70
     0
102
RTVSPost2010Prop40
 90
        0
102
RTVSPost2010PropOp40
 70
     0
102
RTVSPost2010Prop41ColorIndex
 90
       18
102
RTVSPost2010Prop41ColorRGB
 90
        0
102
RTVSPost2010PropOp41
 70
     0
102
RTVSPost2010Prop42
 90
       50
102
RTVSPost2010PropOp42
 70
     0
102
RTVSPost2010Prop43
 90
        3
102
RTVSPost2010PropOp43
 70
     0
102
RTVSPost2010Prop44ColorIndex
 90
        5
102
RTVSPost2010Prop44ColorRGB
 90
      255
102
RTVSPost2010PropOp44
 70
     0
102
RTVSPost2010Prop45
280
     0
102
RTVSPost2010PropOp45
 70
     1
102
RTVSPost2010Prop46
 90
       50
102
RTVSPost2010PropOp46
 70
     0
102
RTVSPost2010Prop47
 90
       50
102
RTVSPost2010PropOp47
 70
     0
102
RTVSPost2010Prop48
 90
       50
102
RTVSPost2010PropOp48
 70
     0
102
RTVSPost2010Prop49
280
     0
102
RTVSPost2010PropOp49
 70
     1
102
RTVSPost2010Prop50
 90
       50
102
RTVSPost2010PropOp50
 70
     0
102
RTVSPost2010Prop51ColorIndex
 90
      256
102
RTVSPost2010Prop51ColorRGB
 90
-16777216
102
RTVSPost2010PropOp51
 70
     0
102
RTVSPost2010Prop52
140
1.0
102
RTVSPost2010PropOp52
 70
     0
102
RTVSPost2010Prop53
 90
        2
102
RTVSPost2010PropOp53
 70
     0
102
RTVSPost2010Prop54
  1
strokes_ogs.tif
102
RTVSPost2010PropOp54
 70
     0
102
RTVSPost2010Prop55
280
     0
102
RTVSPost2010PropOp55
 70
     1
102
RTVSPost2010Prop56
140
1.0
102
RTVSPost2010PropOp56
 70
     0
102
RTVSPost2010Prop57
140
1.0
102
RTVSPost2010PropOp57
 70
     0
102
RTVSPropertyOp0
 70
     0
102
RTVSPropertyOp1
 70
     0
102
RTVSPropertyOp2
 70
     0
102
RTVSPropertyOp3
 70
     0
102
RTVSPropertyOp4
 70
     0
102
RTVSPropertyOp5
 70
     0
102
RTVSPropertyOp6
 70
     0
102
RTVSPropertyOp7
 70
     0
102
RTVSPropertyOp8
 70
     0
102
RTVSPropertyOp9
 70
     0
102
RTVSPropertyOp10
 70
     0
102
RTVSPropertyOp11
 70
     0
102
RTVSPropertyOp12
 70
     0
102
RTVSPropertyOp13
 70
     0
102
RTVSPropertyOp14
 70
     2
102
RTVSPropertyOp15
 70
     0
102
RTVSPropertyOp16
 70
     0
102
RTVSPropertyOp17
 70
     0
102
RTVSPropertyOp18
 70
     0
102
RTVSPropertyOp19
 70
     0
102
RTVSPropertyOp20
 70
     0
102
RTVSPropertyOp21
 70
     0
102
RTVSPropertyOp22
 70
     0
102
RTVSPropertyOp23
 70
     0
102
RTVSPropertyOp24
 70
     0
102
RTVSPropertyOp25
 70
     0
102
RTVSPropertyOp26
 70
     0
102
RTVSPropertyOp27
 70
     0
102
RTVSPropertyOp28
 70
     1
102
RTVSPropertyOp29
 70
     1
102
RTVSPropertyOp30
 70
     1
102
RTVSPropertyOp31
 70
     1
102
RTVSPropertyOp32
 70
     1
102
RTVSPropertyOp33
 70
     1
102
RTVSPropertyOp34
 70
     1
102
RTVSPropertyOp35
 70
     1
102
RTVSPropertyOp36
 70
     1
102
RTVSPropertyOp37
 70
     0
102
RTVSPropertyOp38
 70
     0
102
RTVSPropertyOp39
 70
     0
102
RTVSPropertyOp40
 70
     0
102
RTVSPropertyOp41
 70
     0
102
RTVSPropertyOp42
 70
     0
102
RTVSPropertyOp43
 70
     0
102
RTVSPropertyOp44
 70
     0
102
RTVSPropertyOp45
 70
     1
102
RTVSPropertyOp46
 70
     0
102
RTVSPropertyOp47
 70
     0
102
RTVSPropertyOp48
 70
     0
102
RTVSPropertyOp49
 70
     1
102
RTVSPropertyOp50
 70
     0
102
RTVSPropertyOp51
 70
     0
102
RTVSPropertyOp52
 70
     0
102
RTVSPropertyOp53
 70
     0
102
RTVSPropertyOp54
 70
     0
102
RTVSPropertyOp55
 70
     1
102
RTVSPropertyOp56
 70
     0
102
RTVSPropertyOp57
 70
     0
102
RTVSPropertyOp58
 70
     0
102
RTVSPropertyOp59
 70
     0
102
RTVSPropertyOp60
 70
     0
102
RTVSPropertyOp61
 70
     0
102
RTVSPropertyOp62
 70
     0
  0
XRECORD
  5
457
102
{ACAD_REACTORS
330
456
102
}
330
456
100
AcDbXrecord
280
     1
102
RTVSPost2010Prop28
280
     0
102
RTVSPost2010PropOp28
 70
     1
102
RTVSPost2010Prop29
280
     1
102
RTVSPost2010PropOp29
 70
     1
102
RTVSPost2010Prop30
280
     1
102
RTVSPost2010PropOp30
 70
     1
102
RTVSPost2010Prop31
280
     0
102
RTVSPost2010PropOp31
 70
     1
102
RTVSPost2010Prop32
280
     0
102
RTVSPost2010PropOp32
 70
     1
102
RTVSPost2010Prop33
280
     0
102
RTVSPost2010PropOp33
 70
     1
102
RTVSPost2010Prop34
280
     0
102
RTVSPost2010PropOp34
 70
     1
102
RTVSPost2010Prop35
280
     0
102
RTVSPost2010PropOp35
 70
     1
102
RTVSPost2010Prop36
280
     0
102
RTVSPost2010PropOp36
 70
     1
102
RTVSPost2010Prop37
 90
       50
102
RTVSPost2010PropOp37
 70
     1
102
RTVSPost2010Prop38
140
0.0
102
RTVSPost2010PropOp38
 70
     1
102
RTVSPost2010Prop39
140
1.0
102
RTVSPost2010PropOp39
 70
     1
102
RTVSPost2010Prop40
 90
        0
102
RTVSPost2010PropOp40
 70
     1
102
RTVSPost2010Prop41ColorIndex
 90
       18
102
RTVSPost2010Prop41ColorRGB
 90
        0
102
RTVSPost2010PropOp41
 70
     1
102
RTVSPost2010Prop42
 90
       50
102
RTVSPost2010PropOp42
 70
     1
102
RTVSPost2010Prop43
 90
        3
102
RTVSPost2010PropOp43
 70
     1
102
RTVSPost2010Prop44ColorIndex
 90
        5
102
RTVSPost2010Prop44ColorRGB
 90
      255
102
RTVSPost2010PropOp44
 70
     1
102
RTVSPost2010Prop45
280
     0
102
RTVSPost2010PropOp45
 70
     1
102
RTVSPost2010Prop46
 90
       50
102
RTVSPost2010PropOp46
 70
     1
102
RTVSPost2010Prop47
 90
       50
102
RTVSPost2010PropOp47
 70
     1
102
RTVSPost2010Prop48
 90
       50
102
RTVSPost2010PropOp48
 70
     1
102
RTVSPost2010Prop49
280
     0
102
RTVSPost2010PropOp49
 70
     1
102
RTVSPost2010Prop50
 90
       50
102
RTVSPost2010PropOp50
 70
     1
102
RTVSPost2010Prop51ColorIndex
 90
      256
102
RTVSPost2010Prop51ColorRGB
 90
-16777216
102
RTVSPost2010PropOp51
 70
     0
102
RTVSPost2010Prop52
140
1.0
102
RTVSPost2010PropOp52
 70
     0
102
RTVSPost2010Prop53
 90
        2
102
RTVSPost2010PropOp53
 70
     1
102
RTVSPost2010Prop54
  1
strokes_ogs.tif
102
RTVSPost2010PropOp54
 70
     1
102
RTVSPost2010Prop55
280
     0
102
RTVSPost2010PropOp55
 70
     1
102
RTVSPost2010Prop56
140
1.0
102
RTVSPost2010PropOp56
 70
     1
102
RTVSPost2010Prop57
140
1.0
102
RTVSPost2010PropOp57
 70
     1
102
RTVSPropertyOp0
 70
     1
102
RTVSPropertyOp1
 70
     1
102
RTVSPropertyOp2
 70
     1
102
RTVSPropertyOp3
 70
     1
102
RTVSPropertyOp4
 70
     1
102
RTVSPropertyOp5
 70
     1
102
RTVSPropertyOp6
 70
     1
102
RTVSPropertyOp7
 70
     1
102
RTVSPropertyOp8
 70
     1
102
RTVSPropertyOp9
 70
     1
102
RTVSPropertyOp10
 70
     1
102
RTVSPropertyOp11
 70
     1
102
RTVSPropertyOp12
 70
     1
102
RTVSPropertyOp13
 70
     1
102
RTVSPropertyOp14
 70
     1
102
RTVSPropertyOp15
 70
     1
102
RTVSPropertyOp16
 70
     1
102
RTVSPropertyOp17
 70
     1
102
RTVSPropertyOp18
 70
     1
102
RTVSPropertyOp19
 70
     1
102
RTVSPropertyOp20
 70
     1
102
RTVSPropertyOp21
 70
     1
102
RTVSPropertyOp22
 70
     1
102
RTVSPropertyOp23
 70
     1
102
RTVSPropertyOp24
 70
     1
102
RTVSPropertyOp25
 70
     1
102
RTVSPropertyOp26
 70
     1
102
RTVSPropertyOp27
 70
     1
102
RTVSPropertyOp28
 70
     1
102
RTVSPropertyOp29
 70
     1
102
RTVSPropertyOp30
 70
     1
102
RTVSPropertyOp31
 70
     1
102
RTVSPropertyOp32
 70
     1
102
RTVSPropertyOp33
 70
     1
102
RTVSPropertyOp34
 70
     1
102
RTVSPropertyOp35
 70
     1
102
RTVSPropertyOp36
 70
     1
102
RTVSPropertyOp37
 70
     1
102
RTVSPropertyOp38
 70
     1
102
RTVSPropertyOp39
 70
     1
102
RTVSPropertyOp40
 70
     1
102
RTVSPropertyOp41
 70
     1
102
RTVSPropertyOp42
 70
     1
102
RTVSPropertyOp43
 70
     1
102
RTVSPropertyOp44
 70
     1
102
RTVSPropertyOp45
 70
     1
102
RTVSPropertyOp46
 70
     1
102
RTVSPropertyOp47
 70
     1
102
RTVSPropertyOp48
 70
     1
102
RTVSPropertyOp49
 70
     1
102
RTVSPropertyOp50
 70
     1
102
RTVSPropertyOp51
 70
     0
102
RTVSPropertyOp52
 70
     0
102
RTVSPropertyOp53
 70
     1
102
RTVSPropertyOp54
 70
     1
102
RTVSPropertyOp55
 70
     1
102
RTVSPropertyOp56
 70
     1
102
RTVSPropertyOp57
 70
     1
102
RTVSPropertyOp58
 70
     1
102
RTVSPropertyOp59
 70
     1
102
RTVSPropertyOp60
 70
     1
102
RTVSPropertyOp61
 70
     1
102
RTVSPropertyOp62
 70
     1
  0
XRECORD
  5
46D
102
{ACAD_REACTORS
330
46C
102
}
330
46C
100
AcDbXrecord
280
     1
102
RTVSPost2010Prop28
280
     0
102
RTVSPost2010PropOp28
 70
     1
102
RTVSPost2010Prop29
280
     1
102
RTVSPost2010PropOp29
 70
     1
102
RTVSPost2010Prop30
280
     1
102
RTVSPost2010PropOp30
 70
     1
102
RTVSPost2010Prop31
280
     0
102
RTVSPost2010PropOp31
 70
     1
102
RTVSPost2010Prop32
280
     0
102
RTVSPost2010PropOp32
 70
     1
102
RTVSPost2010Prop33
280
     0
102
RTVSPost2010PropOp33
 70
     1
102
RTVSPost2010Prop34
280
     0
102
RTVSPost2010PropOp34
 70
     1
102
RTVSPost2010Prop35
280
     0
102
RTVSPost2010PropOp35
 70
     1
102
RTVSPost2010Prop36
280
     0
102
RTVSPost2010PropOp36
 70
     1
102
RTVSPost2010Prop37
 90
       50
102
RTVSPost2010PropOp37
 70
     1
102
RTVSPost2010Prop38
140
0.0
102
RTVSPost2010PropOp38
 70
     1
102
RTVSPost2010Prop39
140
1.0
102
RTVSPost2010PropOp39
 70
     1
102
RTVSPost2010Prop40
 90
        0
102
RTVSPost2010PropOp40
 70
     1
102
RTVSPost2010Prop41ColorIndex
 90
       18
102
RTVSPost2010Prop41ColorRGB
 90
        0
102
RTVSPost2010PropOp41
 70
     1
102
RTVSPost2010Prop42
 90
       50
102
RTVSPost2010PropOp42
 70
     1
102
RTVSPost2010Prop43
 90
        3
102
RTVSPost2010PropOp43
 70
     1
102
RTVSPost2010Prop44ColorIndex
 90
        5
102
RTVSPost2010Prop44ColorRGB
 90
      255
102
RTVSPost2010PropOp44
 70
     1
102
RTVSPost2010Prop45
280
     0
102
RTVSPost2010PropOp45
 70
     1
102
RTVSPost2010Prop46
 90
       50
102
RTVSPost2010PropOp46
 70
     1
102
RTVSPost2010Prop47
 90
       50
102
RTVSPost2010PropOp47
 70
     1
102
RTVSPost2010Prop48
 90
       50
102
RTVSPost2010PropOp48
 70
     1
102
RTVSPost2010Prop49
280
     0
102
RTVSPost2010PropOp49
 70
     1
102
RTVSPost2010Prop50
 90
       50
102
RTVSPost2010PropOp50
 70
     1
102
RTVSPost2010Prop51ColorIndex
 90
      256
102
RTVSPost2010Prop51ColorRGB
 90
-16777216
102
RTVSPost2010PropOp51
 70
     0
102
RTVSPost2010Prop52
140
1.0
102
RTVSPost2010PropOp52
 70
     0
102
RTVSPost2010Prop53
 90
        2
102
RTVSPost2010PropOp53
 70
     1
102
RTVSPost2010Prop54
  1
strokes_ogs.tif
102
RTVSPost2010PropOp54
 70
     1
102
RTVSPost2010Prop55
280
     0
102
RTVSPost2010PropOp55
 70
     1
102
RTVSPost2010Prop56
140
1.0
102
RTVSPost2010PropOp56
 70
     1
102
RTVSPost2010Prop57
140
1.0
102
RTVSPost2010PropOp57
 70
     1
102
RTVSPropertyOp0
 70
     1
102
RTVSPropertyOp1
 70
     1
102
RTVSPropertyOp2
 70
     1
102
RTVSPropertyOp3
 70
     1
102
RTVSPropertyOp4
 70
     1
102
RTVSPropertyOp5
 70
     1
102
RTVSPropertyOp6
 70
     1
102
RTVSPropertyOp7
 70
     1
102
RTVSPropertyOp8
 70
     1
102
RTVSPropertyOp9
 70
     1
102
RTVSPropertyOp10
 70
     1
102
RTVSPropertyOp11
 70
     1
102
RTVSPropertyOp12
 70
     1
102
RTVSPropertyOp13
 70
     1
102
RTVSPropertyOp14
 70
     1
102
RTVSPropertyOp15
 70
     1
102
RTVSPropertyOp16
 70
     1
102
RTVSPropertyOp17
 70
     1
102
RTVSPropertyOp18
 70
     1
102
RTVSPropertyOp19
 70
     1
102
RTVSPropertyOp20
 70
     1
102
RTVSPropertyOp21
 70
     1
102
RTVSPropertyOp22
 70
     1
102
RTVSPropertyOp23
 70
     1
102
RTVSPropertyOp24
 70
     1
102
RTVSPropertyOp25
 70
     1
102
RTVSPropertyOp26
 70
     1
102
RTVSPropertyOp27
 70
     1
102
RTVSPropertyOp28
 70
     1
102
RTVSPropertyOp29
 70
     1
102
RTVSPropertyOp30
 70
     1
102
RTVSPropertyOp31
 70
     1
102
RTVSPropertyOp32
 70
     1
102
RTVSPropertyOp33
 70
     1
102
RTVSPropertyOp34
 70
     1
102
RTVSPropertyOp35
 70
     1
102
RTVSPropertyOp36
 70
     1
102
RTVSPropertyOp37
 70
     1
102
RTVSPropertyOp38
 70
     1
102
RTVSPropertyOp39
 70
     1
102
RTVSPropertyOp40
 70
     1
102
RTVSPropertyOp41
 70
     1
102
RTVSPropertyOp42
 70
     1
102
RTVSPropertyOp43
 70
     1
102
RTVSPropertyOp44
 70
     1
102
RTVSPropertyOp45
 70
     1
102
RTVSPropertyOp46
 70
     1
102
RTVSPropertyOp47
 70
     1
102
RTVSPropertyOp48
 70
     1
102
RTVSPropertyOp49
 70
     1
102
RTVSPropertyOp50
 70
     1
102
RTVSPropertyOp51
 70
     0
102
RTVSPropertyOp52
 70
     0
102
RTVSPropertyOp53
 70
     1
102
RTVSPropertyOp54
 70
     1
102
RTVSPropertyOp55
 70
     1
102
RTVSPropertyOp56
 70
     1
102
RTVSPropertyOp57
 70
     1
102
RTVSPropertyOp58
 70
     1
102
RTVSPropertyOp59
 70
     1
102
RTVSPropertyOp60
 70
     1
102
RTVSPropertyOp61
 70
     1
102
RTVSPropertyOp62
 70
     1
  0
XRECORD
  5
46B
102
{ACAD_REACTORS
330
46A
102
}
330
46A
100
AcDbXrecord
280
     1
102
RTVSPost2010Prop28
280
     0
102
RTVSPost2010PropOp28
 70
     1
102
RTVSPost2010Prop29
280
     1
102
RTVSPost2010PropOp29
 70
     1
102
RTVSPost2010Prop30
280
     1
102
RTVSPost2010PropOp30
 70
     1
102
RTVSPost2010Prop31
280
     0
102
RTVSPost2010PropOp31
 70
     1
102
RTVSPost2010Prop32
280
     0
102
RTVSPost2010PropOp32
 70
     1
102
RTVSPost2010Prop33
280
     0
102
RTVSPost2010PropOp33
 70
     1
102
RTVSPost2010Prop34
280
     0
102
RTVSPost2010PropOp34
 70
     1
102
RTVSPost2010Prop35
280
     0
102
RTVSPost2010PropOp35
 70
     1
102
RTVSPost2010Prop36
280
     0
102
RTVSPost2010PropOp36
 70
     1
102
RTVSPost2010Prop37
 90
       50
102
RTVSPost2010PropOp37
 70
     1
102
RTVSPost2010Prop38
140
0.0
102
RTVSPost2010PropOp38
 70
     1
102
RTVSPost2010Prop39
140
1.0
102
RTVSPost2010PropOp39
 70
     1
102
RTVSPost2010Prop40
 90
        0
102
RTVSPost2010PropOp40
 70
     1
102
RTVSPost2010Prop41ColorIndex
 90
       18
102
RTVSPost2010Prop41ColorRGB
 90
        0
102
RTVSPost2010PropOp41
 70
     1
102
RTVSPost2010Prop42
 90
       50
102
RTVSPost2010PropOp42
 70
     1
102
RTVSPost2010Prop43
 90
        3
102
RTVSPost2010PropOp43
 70
     1
102
RTVSPost2010Prop44ColorIndex
 90
        5
102
RTVSPost2010Prop44ColorRGB
 90
      255
102
RTVSPost2010PropOp44
 70
     1
102
RTVSPost2010Prop45
280
     0
102
RTVSPost2010PropOp45
 70
     1
102
RTVSPost2010Prop46
 90
       50
102
RTVSPost2010PropOp46
 70
     1
102
RTVSPost2010Prop47
 90
       50
102
RTVSPost2010PropOp47
 70
     1
102
RTVSPost2010Prop48
 90
       50
102
RTVSPost2010PropOp48
 70
     1
102
RTVSPost2010Prop49
280
     0
102
RTVSPost2010PropOp49
 70
     1
102
RTVSPost2010Prop50
 90
       50
102
RTVSPost2010PropOp50
 70
     1
102
RTVSPost2010Prop51ColorIndex
 90
      256
102
RTVSPost2010Prop51ColorRGB
 90
-16777216
102
RTVSPost2010PropOp51
 70
     0
102
RTVSPost2010Prop52
140
1.0
102
RTVSPost2010PropOp52
 70
     0
102
RTVSPost2010Prop53
 90
        2
102
RTVSPost2010PropOp53
 70
     1
102
RTVSPost2010Prop54
  1
strokes_ogs.tif
102
RTVSPost2010PropOp54
 70
     1
102
RTVSPost2010Prop55
280
     0
102
RTVSPost2010PropOp55
 70
     1
102
RTVSPost2010Prop56
140
1.0
102
RTVSPost2010PropOp56
 70
     1
102
RTVSPost2010Prop57
140
1.0
102
RTVSPost2010PropOp57
 70
     1
102
RTVSPropertyOp0
 70
     1
102
RTVSPropertyOp1
 70
     1
102
RTVSPropertyOp2
 70
     1
102
RTVSPropertyOp3
 70
     1
102
RTVSPropertyOp4
 70
     1
102
RTVSPropertyOp5
 70
     1
102
RTVSPropertyOp6
 70
     1
102
RTVSPropertyOp7
 70
     1
102
RTVSPropertyOp8
 70
     1
102
RTVSPropertyOp9
 70
     1
102
RTVSPropertyOp10
 70
     1
102
RTVSPropertyOp11
 70
     1
102
RTVSPropertyOp12
 70
     1
102
RTVSPropertyOp13
 70
     1
102
RTVSPropertyOp14
 70
     1
102
RTVSPropertyOp15
 70
     1
102
RTVSPropertyOp16
 70
     1
102
RTVSPropertyOp17
 70
     1
102
RTVSPropertyOp18
 70
     1
102
RTVSPropertyOp19
 70
     1
102
RTVSPropertyOp20
 70
     1
102
RTVSPropertyOp21
 70
     1
102
RTVSPropertyOp22
 70
     1
102
RTVSPropertyOp23
 70
     1
102
RTVSPropertyOp24
 70
     1
102
RTVSPropertyOp25
 70
     1
102
RTVSPropertyOp26
 70
     1
102
RTVSPropertyOp27
 70
     1
102
RTVSPropertyOp28
 70
     1
102
RTVSPropertyOp29
 70
     1
102
RTVSPropertyOp30
 70
     1
102
RTVSPropertyOp31
 70
     1
102
RTVSPropertyOp32
 70
     1
102
RTVSPropertyOp33
 70
     1
102
RTVSPropertyOp34
 70
     1
102
RTVSPropertyOp35
 70
     1
102
RTVSPropertyOp36
 70
     1
102
RTVSPropertyOp37
 70
     1
102
RTVSPropertyOp38
 70
     1
102
RTVSPropertyOp39
 70
     1
102
RTVSPropertyOp40
 70
     1
102
RTVSPropertyOp41
 70
     1
102
RTVSPropertyOp42
 70
     1
102
RTVSPropertyOp43
 70
     1
102
RTVSPropertyOp44
 70
     1
102
RTVSPropertyOp45
 70
     1
102
RTVSPropertyOp46
 70
     1
102
RTVSPropertyOp47
 70
     1
102
RTVSPropertyOp48
 70
     1
102
RTVSPropertyOp49
 70
     1
102
RTVSPropertyOp50
 70
     1
102
RTVSPropertyOp51
 70
     0
102
RTVSPropertyOp52
 70
     0
102
RTVSPropertyOp53
 70
     1
102
RTVSPropertyOp54
 70
     1
102
RTVSPropertyOp55
 70
     1
102
RTVSPropertyOp56
 70
     1
102
RTVSPropertyOp57
 70
     1
102
RTVSPropertyOp58
 70
     1
102
RTVSPropertyOp59
 70
     1
102
RTVSPropertyOp60
 70
     1
102
RTVSPropertyOp61
 70
     1
102
RTVSPropertyOp62
 70
     1
  0
XRECORD
  5
465
102
{ACAD_REACTORS
330
464
102
}
330
464
100
AcDbXrecord
280
     1
102
RTVSPost2010Prop28
280
     0
102
RTVSPost2010PropOp28
 70
     1
102
RTVSPost2010Prop29
280
     1
102
RTVSPost2010PropOp29
 70
     1
102
RTVSPost2010Prop30
280
     1
102
RTVSPost2010PropOp30
 70
     1
102
RTVSPost2010Prop31
280
     0
102
RTVSPost2010PropOp31
 70
     1
102
RTVSPost2010Prop32
280
     0
102
RTVSPost2010PropOp32
 70
     1
102
RTVSPost2010Prop33
280
     0
102
RTVSPost2010PropOp33
 70
     1
102
RTVSPost2010Prop34
280
     0
102
RTVSPost2010PropOp34
 70
     1
102
RTVSPost2010Prop35
280
     0
102
RTVSPost2010PropOp35
 70
     1
102
RTVSPost2010Prop36
280
     0
102
RTVSPost2010PropOp36
 70
     1
102
RTVSPost2010Prop37
 90
       50
102
RTVSPost2010PropOp37
 70
     1
102
RTVSPost2010Prop38
140
0.0
102
RTVSPost2010PropOp38
 70
     1
102
RTVSPost2010Prop39
140
1.0
102
RTVSPost2010PropOp39
 70
     1
102
RTVSPost2010Prop40
 90
        0
102
RTVSPost2010PropOp40
 70
     1
102
RTVSPost2010Prop41ColorIndex
 90
       18
102
RTVSPost2010Prop41ColorRGB
 90
        0
102
RTVSPost2010PropOp41
 70
     1
102
RTVSPost2010Prop42
 90
       50
102
RTVSPost2010PropOp42
 70
     1
102
RTVSPost2010Prop43
 90
        3
102
RTVSPost2010PropOp43
 70
     1
102
RTVSPost2010Prop44ColorIndex
 90
        5
102
RTVSPost2010Prop44ColorRGB
 90
      255
102
RTVSPost2010PropOp44
 70
     1
102
RTVSPost2010Prop45
280
     0
102
RTVSPost2010PropOp45
 70
     1
102
RTVSPost2010Prop46
 90
       50
102
RTVSPost2010PropOp46
 70
     1
102
RTVSPost2010Prop47
 90
       50
102
RTVSPost2010PropOp47
 70
     1
102
RTVSPost2010Prop48
 90
       50
102
RTVSPost2010PropOp48
 70
     1
102
RTVSPost2010Prop49
280
     0
102
RTVSPost2010PropOp49
 70
     1
102
RTVSPost2010Prop50
 90
       50
102
RTVSPost2010PropOp50
 70
     1
102
RTVSPost2010Prop51ColorIndex
 90
      256
102
RTVSPost2010Prop51ColorRGB
 90
-16777216
102
RTVSPost2010PropOp51
 70
     0
102
RTVSPost2010Prop52
140
1.0
102
RTVSPost2010PropOp52
 70
     0
102
RTVSPost2010Prop53
 90
        2
102
RTVSPost2010PropOp53
 70
     1
102
RTVSPost2010Prop54
  1
strokes_ogs.tif
102
RTVSPost2010PropOp54
 70
     1
102
RTVSPost2010Prop55
280
     0
102
RTVSPost2010PropOp55
 70
     1
102
RTVSPost2010Prop56
140
1.0
102
RTVSPost2010PropOp56
 70
     1
102
RTVSPost2010Prop57
140
1.0
102
RTVSPost2010PropOp57
 70
     1
102
RTVSPropertyOp0
 70
     1
102
RTVSPropertyOp1
 70
     1
102
RTVSPropertyOp2
 70
     1
102
RTVSPropertyOp3
 70
     1
102
RTVSPropertyOp4
 70
     1
102
RTVSPropertyOp5
 70
     1
102
RTVSPropertyOp6
 70
     1
102
RTVSPropertyOp7
 70
     1
102
RTVSPropertyOp8
 70
     1
102
RTVSPropertyOp9
 70
     1
102
RTVSPropertyOp10
 70
     1
102
RTVSPropertyOp11
 70
     1
102
RTVSPropertyOp12
 70
     1
102
RTVSPropertyOp13
 70
     1
102
RTVSPropertyOp14
 70
     1
102
RTVSPropertyOp15
 70
     1
102
RTVSPropertyOp16
 70
     1
102
RTVSPropertyOp17
 70
     1
102
RTVSPropertyOp18
 70
     1
102
RTVSPropertyOp19
 70
     1
102
RTVSPropertyOp20
 70
     1
102
RTVSPropertyOp21
 70
     1
102
RTVSPropertyOp22
 70
     1
102
RTVSPropertyOp23
 70
     1
102
RTVSPropertyOp24
 70
     1
102
RTVSPropertyOp25
 70
     1
102
RTVSPropertyOp26
 70
     1
102
RTVSPropertyOp27
 70
     1
102
RTVSPropertyOp28
 70
     1
102
RTVSPropertyOp29
 70
     1
102
RTVSPropertyOp30
 70
     1
102
RTVSPropertyOp31
 70
     1
102
RTVSPropertyOp32
 70
     1
102
RTVSPropertyOp33
 70
     1
102
RTVSPropertyOp34
 70
     1
102
RTVSPropertyOp35
 70
     1
102
RTVSPropertyOp36
 70
     1
102
RTVSPropertyOp37
 70
     1
102
RTVSPropertyOp38
 70
     1
102
RTVSPropertyOp39
 70
     1
102
RTVSPropertyOp40
 70
     1
102
RTVSPropertyOp41
 70
     1
102
RTVSPropertyOp42
 70
     1
102
RTVSPropertyOp43
 70
     1
102
RTVSPropertyOp44
 70
     1
102
RTVSPropertyOp45
 70
     1
102
RTVSPropertyOp46
 70
     1
102
RTVSPropertyOp47
 70
     1
102
RTVSPropertyOp48
 70
     1
102
RTVSPropertyOp49
 70
     1
102
RTVSPropertyOp50
 70
     1
102
RTVSPropertyOp51
 70
     0
102
RTVSPropertyOp52
 70
     0
102
RTVSPropertyOp53
 70
     1
102
RTVSPropertyOp54
 70
     1
102
RTVSPropertyOp55
 70
     1
102
RTVSPropertyOp56
 70
     1
102
RTVSPropertyOp57
 70
     1
102
RTVSPropertyOp58
 70
     1
102
RTVSPropertyOp59
 70
     1
102
RTVSPropertyOp60
 70
     1
102
RTVSPropertyOp61
 70
     1
102
RTVSPropertyOp62
 70
     1
  0
XRECORD
  5
467
102
{ACAD_REACTORS
330
466
102
}
330
466
100
AcDbXrecord
280
     1
102
RTVSPost2010Prop28
280
     0
102
RTVSPost2010PropOp28
 70
     1
102
RTVSPost2010Prop29
280
     1
102
RTVSPost2010PropOp29
 70
     1
102
RTVSPost2010Prop30
280
     1
102
RTVSPost2010PropOp30
 70
     1
102
RTVSPost2010Prop31
280
     0
102
RTVSPost2010PropOp31
 70
     1
102
RTVSPost2010Prop32
280
     0
102
RTVSPost2010PropOp32
 70
     1
102
RTVSPost2010Prop33
280
     0
102
RTVSPost2010PropOp33
 70
     1
102
RTVSPost2010Prop34
280
     0
102
RTVSPost2010PropOp34
 70
     1
102
RTVSPost2010Prop35
280
     0
102
RTVSPost2010PropOp35
 70
     1
102
RTVSPost2010Prop36
280
     0
102
RTVSPost2010PropOp36
 70
     1
102
RTVSPost2010Prop37
 90
       50
102
RTVSPost2010PropOp37
 70
     1
102
RTVSPost2010Prop38
140
0.0
102
RTVSPost2010PropOp38
 70
     1
102
RTVSPost2010Prop39
140
1.0
102
RTVSPost2010PropOp39
 70
     1
102
RTVSPost2010Prop40
 90
        0
102
RTVSPost2010PropOp40
 70
     1
102
RTVSPost2010Prop41ColorIndex
 90
       18
102
RTVSPost2010Prop41ColorRGB
 90
        0
102
RTVSPost2010PropOp41
 70
     1
102
RTVSPost2010Prop42
 90
       50
102
RTVSPost2010PropOp42
 70
     1
102
RTVSPost2010Prop43
 90
        3
102
RTVSPost2010PropOp43
 70
     1
102
RTVSPost2010Prop44ColorIndex
 90
        5
102
RTVSPost2010Prop44ColorRGB
 90
      255
102
RTVSPost2010PropOp44
 70
     1
102
RTVSPost2010Prop45
280
     0
102
RTVSPost2010PropOp45
 70
     1
102
RTVSPost2010Prop46
 90
       50
102
RTVSPost2010PropOp46
 70
     1
102
RTVSPost2010Prop47
 90
       50
102
RTVSPost2010PropOp47
 70
     1
102
RTVSPost2010Prop48
 90
       50
102
RTVSPost2010PropOp48
 70
     1
102
RTVSPost2010Prop49
280
     0
102
RTVSPost2010PropOp49
 70
     1
102
RTVSPost2010Prop50
 90
       50
102
RTVSPost2010PropOp50
 70
     1
102
RTVSPost2010Prop51ColorIndex
 90
      256
102
RTVSPost2010Prop51ColorRGB
 90
-16777216
102
RTVSPost2010PropOp51
 70
     0
102
RTVSPost2010Prop52
140
1.0
102
RTVSPost2010PropOp52
 70
     0
102
RTVSPost2010Prop53
 90
        2
102
RTVSPost2010PropOp53
 70
     1
102
RTVSPost2010Prop54
  1
strokes_ogs.tif
102
RTVSPost2010PropOp54
 70
     1
102
RTVSPost2010Prop55
280
     0
102
RTVSPost2010PropOp55
 70
     1
102
RTVSPost2010Prop56
140
1.0
102
RTVSPost2010PropOp56
 70
     1
102
RTVSPost2010Prop57
140
1.0
102
RTVSPost2010PropOp57
 70
     1
102
RTVSPropertyOp0
 70
     1
102
RTVSPropertyOp1
 70
     1
102
RTVSPropertyOp2
 70
     1
102
RTVSPropertyOp3
 70
     1
102
RTVSPropertyOp4
 70
     1
102
RTVSPropertyOp5
 70
     1
102
RTVSPropertyOp6
 70
     1
102
RTVSPropertyOp7
 70
     1
102
RTVSPropertyOp8
 70
     1
102
RTVSPropertyOp9
 70
     1
102
RTVSPropertyOp10
 70
     1
102
RTVSPropertyOp11
 70
     1
102
RTVSPropertyOp12
 70
     1
102
RTVSPropertyOp13
 70
     1
102
RTVSPropertyOp14
 70
     1
102
RTVSPropertyOp15
 70
     1
102
RTVSPropertyOp16
 70
     1
102
RTVSPropertyOp17
 70
     1
102
RTVSPropertyOp18
 70
     1
102
RTVSPropertyOp19
 70
     1
102
RTVSPropertyOp20
 70
     1
102
RTVSPropertyOp21
 70
     1
102
RTVSPropertyOp22
 70
     1
102
RTVSPropertyOp23
 70
     1
102
RTVSPropertyOp24
 70
     1
102
RTVSPropertyOp25
 70
     1
102
RTVSPropertyOp26
 70
     1
102
RTVSPropertyOp27
 70
     1
102
RTVSPropertyOp28
 70
     1
102
RTVSPropertyOp29
 70
     1
102
RTVSPropertyOp30
 70
     1
102
RTVSPropertyOp31
 70
     1
102
RTVSPropertyOp32
 70
     1
102
RTVSPropertyOp33
 70
     1
102
RTVSPropertyOp34
 70
     1
102
RTVSPropertyOp35
 70
     1
102
RTVSPropertyOp36
 70
     1
102
RTVSPropertyOp37
 70
     1
102
RTVSPropertyOp38
 70
     1
102
RTVSPropertyOp39
 70
     1
102
RTVSPropertyOp40
 70
     1
102
RTVSPropertyOp41
 70
     1
102
RTVSPropertyOp42
 70
     1
102
RTVSPropertyOp43
 70
     1
102
RTVSPropertyOp44
 70
     1
102
RTVSPropertyOp45
 70
     1
102
RTVSPropertyOp46
 70
     1
102
RTVSPropertyOp47
 70
     1
102
RTVSPropertyOp48
 70
     1
102
RTVSPropertyOp49
 70
     1
102
RTVSPropertyOp50
 70
     1
102
RTVSPropertyOp51
 70
     0
102
RTVSPropertyOp52
 70
     0
102
RTVSPropertyOp53
 70
     1
102
RTVSPropertyOp54
 70
     1
102
RTVSPropertyOp55
 70
     1
102
RTVSPropertyOp56
 70
     1
102
RTVSPropertyOp57
 70
     1
102
RTVSPropertyOp58
 70
     1
102
RTVSPropertyOp59
 70
     1
102
RTVSPropertyOp60
 70
     1
102
RTVSPropertyOp61
 70
     1
102
RTVSPropertyOp62
 70
     1
  0
XRECORD
  5
45D
102
{ACAD_REACTORS
330
45C
102
}
330
45C
100
AcDbXrecord
280
     1
102
RTVSPost2010Prop28
280
     0
102
RTVSPost2010PropOp28
 70
     1
102
RTVSPost2010Prop29
280
     1
102
RTVSPost2010PropOp29
 70
     1
102
RTVSPost2010Prop30
280
     1
102
RTVSPost2010PropOp30
 70
     1
102
RTVSPost2010Prop31
280
     0
102
RTVSPost2010PropOp31
 70
     1
102
RTVSPost2010Prop32
280
     0
102
RTVSPost2010PropOp32
 70
     1
102
RTVSPost2010Prop33
280
     0
102
RTVSPost2010PropOp33
 70
     1
102
RTVSPost2010Prop34
280
     0
102
RTVSPost2010PropOp34
 70
     1
102
RTVSPost2010Prop35
280
     0
102
RTVSPost2010PropOp35
 70
     1
102
RTVSPost2010Prop36
280
     0
102
RTVSPost2010PropOp36
 70
     1
102
RTVSPost2010Prop37
 90
       50
102
RTVSPost2010PropOp37
 70
     1
102
RTVSPost2010Prop38
140
0.0
102
RTVSPost2010PropOp38
 70
     1
102
RTVSPost2010Prop39
140
1.0
102
RTVSPost2010PropOp39
 70
     1
102
RTVSPost2010Prop40
 90
        0
102
RTVSPost2010PropOp40
 70
     1
102
RTVSPost2010Prop41ColorIndex
 90
       18
102
RTVSPost2010Prop41ColorRGB
 90
        0
102
RTVSPost2010PropOp41
 70
     1
102
RTVSPost2010Prop42
 90
       50
102
RTVSPost2010PropOp42
 70
     1
102
RTVSPost2010Prop43
 90
        3
102
RTVSPost2010PropOp43
 70
     1
102
RTVSPost2010Prop44ColorIndex
 90
        5
102
RTVSPost2010Prop44ColorRGB
 90
      255
102
RTVSPost2010PropOp44
 70
     1
102
RTVSPost2010Prop45
280
     0
102
RTVSPost2010PropOp45
 70
     1
102
RTVSPost2010Prop46
 90
       50
102
RTVSPost2010PropOp46
 70
     1
102
RTVSPost2010Prop47
 90
       50
102
RTVSPost2010PropOp47
 70
     1
102
RTVSPost2010Prop48
 90
       50
102
RTVSPost2010PropOp48
 70
     1
102
RTVSPost2010Prop49
280
     0
102
RTVSPost2010PropOp49
 70
     1
102
RTVSPost2010Prop50
 90
       50
102
RTVSPost2010PropOp50
 70
     1
102
RTVSPost2010Prop51ColorIndex
 90
      256
102
RTVSPost2010Prop51ColorRGB
 90
-16777216
102
RTVSPost2010PropOp51
 70
     0
102
RTVSPost2010Prop52
140
1.0
102
RTVSPost2010PropOp52
 70
     0
102
RTVSPost2010Prop53
 90
        2
102
RTVSPost2010PropOp53
 70
     1
102
RTVSPost2010Prop54
  1
strokes_ogs.tif
102
RTVSPost2010PropOp54
 70
     1
102
RTVSPost2010Prop55
280
     0
102
RTVSPost2010PropOp55
 70
     1
102
RTVSPost2010Prop56
140
1.0
102
RTVSPost2010PropOp56
 70
     1
102
RTVSPost2010Prop57
140
1.0
102
RTVSPost2010PropOp57
 70
     1
102
RTVSPropertyOp0
 70
     1
102
RTVSPropertyOp1
 70
     1
102
RTVSPropertyOp2
 70
     1
102
RTVSPropertyOp3
 70
     1
102
RTVSPropertyOp4
 70
     1
102
RTVSPropertyOp5
 70
     1
102
RTVSPropertyOp6
 70
     1
102
RTVSPropertyOp7
 70
     1
102
RTVSPropertyOp8
 70
     1
102
RTVSPropertyOp9
 70
     1
102
RTVSPropertyOp10
 70
     1
102
RTVSPropertyOp11
 70
     1
102
RTVSPropertyOp12
 70
     1
102
RTVSPropertyOp13
 70
     1
102
RTVSPropertyOp14
 70
     1
102
RTVSPropertyOp15
 70
     1
102
RTVSPropertyOp16
 70
     1
102
RTVSPropertyOp17
 70
     1
102
RTVSPropertyOp18
 70
     1
102
RTVSPropertyOp19
 70
     1
102
RTVSPropertyOp20
 70
     1
102
RTVSPropertyOp21
 70
     1
102
RTVSPropertyOp22
 70
     1
102
RTVSPropertyOp23
 70
     1
102
RTVSPropertyOp24
 70
     1
102
RTVSPropertyOp25
 70
     1
102
RTVSPropertyOp26
 70
     1
102
RTVSPropertyOp27
 70
     1
102
RTVSPropertyOp28
 70
     1
102
RTVSPropertyOp29
 70
     1
102
RTVSPropertyOp30
 70
     1
102
RTVSPropertyOp31
 70
     1
102
RTVSPropertyOp32
 70
     1
102
RTVSPropertyOp33
 70
     1
102
RTVSPropertyOp34
 70
     1
102
RTVSPropertyOp35
 70
     1
102
RTVSPropertyOp36
 70
     1
102
RTVSPropertyOp37
 70
     1
102
RTVSPropertyOp38
 70
     1
102
RTVSPropertyOp39
 70
     1
102
RTVSPropertyOp40
 70
     1
102
RTVSPropertyOp41
 70
     1
102
RTVSPropertyOp42
 70
     1
102
RTVSPropertyOp43
 70
     1
102
RTVSPropertyOp44
 70
     1
102
RTVSPropertyOp45
 70
     1
102
RTVSPropertyOp46
 70
     1
102
RTVSPropertyOp47
 70
     1
102
RTVSPropertyOp48
 70
     1
102
RTVSPropertyOp49
 70
     1
102
RTVSPropertyOp50
 70
     1
102
RTVSPropertyOp51
 70
     0
102
RTVSPropertyOp52
 70
     0
102
RTVSPropertyOp53
 70
     1
102
RTVSPropertyOp54
 70
     1
102
RTVSPropertyOp55
 70
     1
102
RTVSPropertyOp56
 70
     1
102
RTVSPropertyOp57
 70
     1
102
RTVSPropertyOp58
 70
     1
102
RTVSPropertyOp59
 70
     1
102
RTVSPropertyOp60
 70
     1
102
RTVSPropertyOp61
 70
     1
102
RTVSPropertyOp62
 70
     1
  0
XRECORD
  5
451
102
{ACAD_REACTORS
330
450
102
}
330
450
100
AcDbXrecord
280
     1
102
RTVSPost2010Prop28
280
     0
102
RTVSPost2010PropOp28
 70
     1
102
RTVSPost2010Prop29
280
     1
102
RTVSPost2010PropOp29
 70
     1
102
RTVSPost2010Prop30
280
     1
102
RTVSPost2010PropOp30
 70
     1
102
RTVSPost2010Prop31
280
     0
102
RTVSPost2010PropOp31
 70
     1
102
RTVSPost2010Prop32
280
     0
102
RTVSPost2010PropOp32
 70
     1
102
RTVSPost2010Prop33
280
     0
102
RTVSPost2010PropOp33
 70
     1
102
RTVSPost2010Prop34
280
     0
102
RTVSPost2010PropOp34
 70
     1
102
RTVSPost2010Prop35
280
     0
102
RTVSPost2010PropOp35
 70
     1
102
RTVSPost2010Prop36
280
     0
102
RTVSPost2010PropOp36
 70
     1
102
RTVSPost2010Prop37
 90
       50
102
RTVSPost2010PropOp37
 70
     1
102
RTVSPost2010Prop38
140
0.0
102
RTVSPost2010PropOp38
 70
     1
102
RTVSPost2010Prop39
140
1.0
102
RTVSPost2010PropOp39
 70
     1
102
RTVSPost2010Prop40
 90
        0
102
RTVSPost2010PropOp40
 70
     1
102
RTVSPost2010Prop41ColorIndex
 90
       18
102
RTVSPost2010Prop41ColorRGB
 90
        0
102
RTVSPost2010PropOp41
 70
     1
102
RTVSPost2010Prop42
 90
       50
102
RTVSPost2010PropOp42
 70
     1
102
RTVSPost2010Prop43
 90
        3
102
RTVSPost2010PropOp43
 70
     1
102
RTVSPost2010Prop44ColorIndex
 90
        5
102
RTVSPost2010Prop44ColorRGB
 90
      255
102
RTVSPost2010PropOp44
 70
     1
102
RTVSPost2010Prop45
280
     0
102
RTVSPost2010PropOp45
 70
     1
102
RTVSPost2010Prop46
 90
       50
102
RTVSPost2010PropOp46
 70
     1
102
RTVSPost2010Prop47
 90
       50
102
RTVSPost2010PropOp47
 70
     1
102
RTVSPost2010Prop48
 90
       50
102
RTVSPost2010PropOp48
 70
     1
102
RTVSPost2010Prop49
280
     0
102
RTVSPost2010PropOp49
 70
     1
102
RTVSPost2010Prop50
 90
       50
102
RTVSPost2010PropOp50
 70
     1
102
RTVSPost2010Prop51ColorIndex
 90
      256
102
RTVSPost2010Prop51ColorRGB
 90
-16777216
102
RTVSPost2010PropOp51
 70
     0
102
RTVSPost2010Prop52
140
1.0
102
RTVSPost2010PropOp52
 70
     0
102
RTVSPost2010Prop53
 90
        2
102
RTVSPost2010PropOp53
 70
     1
102
RTVSPost2010Prop54
  1
strokes_ogs.tif
102
RTVSPost2010PropOp54
 70
     1
102
RTVSPost2010Prop55
280
     0
102
RTVSPost2010PropOp55
 70
     1
102
RTVSPost2010Prop56
140
1.0
102
RTVSPost2010PropOp56
 70
     1
102
RTVSPost2010Prop57
140
1.0
102
RTVSPost2010PropOp57
 70
     1
102
RTVSPropertyOp0
 70
     1
102
RTVSPropertyOp1
 70
     1
102
RTVSPropertyOp2
 70
     1
102
RTVSPropertyOp3
 70
     1
102
RTVSPropertyOp4
 70
     1
102
RTVSPropertyOp5
 70
     1
102
RTVSPropertyOp6
 70
     1
102
RTVSPropertyOp7
 70
     1
102
RTVSPropertyOp8
 70
     1
102
RTVSPropertyOp9
 70
     1
102
RTVSPropertyOp10
 70
     1
102
RTVSPropertyOp11
 70
     1
102
RTVSPropertyOp12
 70
     1
102
RTVSPropertyOp13
 70
     1
102
RTVSPropertyOp14
 70
     1
102
RTVSPropertyOp15
 70
     1
102
RTVSPropertyOp16
 70
     1
102
RTVSPropertyOp17
 70
     1
102
RTVSPropertyOp18
 70
     1
102
RTVSPropertyOp19
 70
     1
102
RTVSPropertyOp20
 70
     1
102
RTVSPropertyOp21
 70
     1
102
RTVSPropertyOp22
 70
     1
102
RTVSPropertyOp23
 70
     1
102
RTVSPropertyOp24
 70
     1
102
RTVSPropertyOp25
 70
     1
102
RTVSPropertyOp26
 70
     1
102
RTVSPropertyOp27
 70
     1
102
RTVSPropertyOp28
 70
     1
102
RTVSPropertyOp29
 70
     1
102
RTVSPropertyOp30
 70
     1
102
RTVSPropertyOp31
 70
     1
102
RTVSPropertyOp32
 70
     1
102
RTVSPropertyOp33
 70
     1
102
RTVSPropertyOp34
 70
     1
102
RTVSPropertyOp35
 70
     1
102
RTVSPropertyOp36
 70
     1
102
RTVSPropertyOp37
 70
     1
102
RTVSPropertyOp38
 70
     1
102
RTVSPropertyOp39
 70
     1
102
RTVSPropertyOp40
 70
     1
102
RTVSPropertyOp41
 70
     1
102
RTVSPropertyOp42
 70
     1
102
RTVSPropertyOp43
 70
     1
102
RTVSPropertyOp44
 70
     1
102
RTVSPropertyOp45
 70
     1
102
RTVSPropertyOp46
 70
     1
102
RTVSPropertyOp47
 70
     1
102
RTVSPropertyOp48
 70
     1
102
RTVSPropertyOp49
 70
     1
102
RTVSPropertyOp50
 70
     1
102
RTVSPropertyOp51
 70
     0
102
RTVSPropertyOp52
 70
     0
102
RTVSPropertyOp53
 70
     1
102
RTVSPropertyOp54
 70
     1
102
RTVSPropertyOp55
 70
     1
102
RTVSPropertyOp56
 70
     1
102
RTVSPropertyOp57
 70
     1
102
RTVSPropertyOp58
 70
     1
102
RTVSPropertyOp59
 70
     1
102
RTVSPropertyOp60
 70
     1
102
RTVSPropertyOp61
 70
     1
102
RTVSPropertyOp62
 70
     1
  0
XRECORD
  5
469
102
{ACAD_REACTORS
330
468
102
}
330
468
100
AcDbXrecord
280
     1
102
RTVSPost2010Prop28
280
     0
102
RTVSPost2010PropOp28
 70
     1
102
RTVSPost2010Prop29
280
     1
102
RTVSPost2010PropOp29
 70
     1
102
RTVSPost2010Prop30
280
     1
102
RTVSPost2010PropOp30
 70
     1
102
RTVSPost2010Prop31
280
     0
102
RTVSPost2010PropOp31
 70
     1
102
RTVSPost2010Prop32
280
     0
102
RTVSPost2010PropOp32
 70
     1
102
RTVSPost2010Prop33
280
     0
102
RTVSPost2010PropOp33
 70
     1
102
RTVSPost2010Prop34
280
     0
102
RTVSPost2010PropOp34
 70
     1
102
RTVSPost2010Prop35
280
     0
102
RTVSPost2010PropOp35
 70
     1
102
RTVSPost2010Prop36
280
     0
102
RTVSPost2010PropOp36
 70
     1
102
RTVSPost2010Prop37
 90
       50
102
RTVSPost2010PropOp37
 70
     1
102
RTVSPost2010Prop38
140
0.0
102
RTVSPost2010PropOp38
 70
     1
102
RTVSPost2010Prop39
140
1.0
102
RTVSPost2010PropOp39
 70
     1
102
RTVSPost2010Prop40
 90
        0
102
RTVSPost2010PropOp40
 70
     1
102
RTVSPost2010Prop41ColorIndex
 90
       18
102
RTVSPost2010Prop41ColorRGB
 90
        0
102
RTVSPost2010PropOp41
 70
     1
102
RTVSPost2010Prop42
 90
       50
102
RTVSPost2010PropOp42
 70
     1
102
RTVSPost2010Prop43
 90
        3
102
RTVSPost2010PropOp43
 70
     1
102
RTVSPost2010Prop44ColorIndex
 90
        5
102
RTVSPost2010Prop44ColorRGB
 90
      255
102
RTVSPost2010PropOp44
 70
     1
102
RTVSPost2010Prop45
280
     0
102
RTVSPost2010PropOp45
 70
     1
102
RTVSPost2010Prop46
 90
       50
102
RTVSPost2010PropOp46
 70
     1
102
RTVSPost2010Prop47
 90
       50
102
RTVSPost2010PropOp47
 70
     1
102
RTVSPost2010Prop48
 90
       50
102
RTVSPost2010PropOp48
 70
     1
102
RTVSPost2010Prop49
280
     0
102
RTVSPost2010PropOp49
 70
     1
102
RTVSPost2010Prop50
 90
       50
102
RTVSPost2010PropOp50
 70
     1
102
RTVSPost2010Prop51ColorIndex
 90
      256
102
RTVSPost2010Prop51ColorRGB
 90
-16777216
102
RTVSPost2010PropOp51
 70
     0
102
RTVSPost2010Prop52
140
1.0
102
RTVSPost2010PropOp52
 70
     0
102
RTVSPost2010Prop53
 90
        2
102
RTVSPost2010PropOp53
 70
     1
102
RTVSPost2010Prop54
  1
strokes_ogs.tif
102
RTVSPost2010PropOp54
 70
     1
102
RTVSPost2010Prop55
280
     0
102
RTVSPost2010PropOp55
 70
     1
102
RTVSPost2010Prop56
140
1.0
102
RTVSPost2010PropOp56
 70
     1
102
RTVSPost2010Prop57
140
1.0
102
RTVSPost2010PropOp57
 70
     1
102
RTVSPropertyOp0
 70
     1
102
RTVSPropertyOp1
 70
     1
102
RTVSPropertyOp2
 70
     1
102
RTVSPropertyOp3
 70
     1
102
RTVSPropertyOp4
 70
     1
102
RTVSPropertyOp5
 70
     1
102
RTVSPropertyOp6
 70
     1
102
RTVSPropertyOp7
 70
     1
102
RTVSPropertyOp8
 70
     1
102
RTVSPropertyOp9
 70
     1
102
RTVSPropertyOp10
 70
     1
102
RTVSPropertyOp11
 70
     1
102
RTVSPropertyOp12
 70
     1
102
RTVSPropertyOp13
 70
     1
102
RTVSPropertyOp14
 70
     1
102
RTVSPropertyOp15
 70
     1
102
RTVSPropertyOp16
 70
     1
102
RTVSPropertyOp17
 70
     1
102
RTVSPropertyOp18
 70
     1
102
RTVSPropertyOp19
 70
     1
102
RTVSPropertyOp20
 70
     1
102
RTVSPropertyOp21
 70
     1
102
RTVSPropertyOp22
 70
     1
102
RTVSPropertyOp23
 70
     1
102
RTVSPropertyOp24
 70
     1
102
RTVSPropertyOp25
 70
     1
102
RTVSPropertyOp26
 70
     1
102
RTVSPropertyOp27
 70
     1
102
RTVSPropertyOp28
 70
     1
102
RTVSPropertyOp29
 70
     1
102
RTVSPropertyOp30
 70
     1
102
RTVSPropertyOp31
 70
     1
102
RTVSPropertyOp32
 70
     1
102
RTVSPropertyOp33
 70
     1
102
RTVSPropertyOp34
 70
     1
102
RTVSPropertyOp35
 70
     1
102
RTVSPropertyOp36
 70
     1
102
RTVSPropertyOp37
 70
     1
102
RTVSPropertyOp38
 70
     1
102
RTVSPropertyOp39
 70
     1
102
RTVSPropertyOp40
 70
     1
102
RTVSPropertyOp41
 70
     1
102
RTVSPropertyOp42
 70
     1
102
RTVSPropertyOp43
 70
     1
102
RTVSPropertyOp44
 70
     1
102
RTVSPropertyOp45
 70
     1
102
RTVSPropertyOp46
 70
     1
102
RTVSPropertyOp47
 70
     1
102
RTVSPropertyOp48
 70
     1
102
RTVSPropertyOp49
 70
     1
102
RTVSPropertyOp50
 70
     1
102
RTVSPropertyOp51
 70
     0
102
RTVSPropertyOp52
 70
     0
102
RTVSPropertyOp53
 70
     1
102
RTVSPropertyOp54
 70
     1
102
RTVSPropertyOp55
 70
     1
102
RTVSPropertyOp56
 70
     1
102
RTVSPropertyOp57
 70
     1
102
RTVSPropertyOp58
 70
     1
102
RTVSPropertyOp59
 70
     1
102
RTVSPropertyOp60
 70
     1
102
RTVSPropertyOp61
 70
     1
102
RTVSPropertyOp62
 70
     1
  0
ENDSEC
  0
EOF
