  0
SECTION
  2
HEADER
  9
$ACADVER
  1
AC1021
  9
$ACADMAINTVER
 70
    50
  9
$DWGCODEPAGE
  3
ANSI_932
  9
$LASTSAVEDBY
  1
suzuki
  9
$INSBASE
 10
0.0
 20
0.0
 30
0.0
  9
$EXTMIN
 10
-0.1281640493871237
 20
-0.0906302920675444
 30
-0.0015258207003583
  9
$EXTMAX
 10
4200.128183607161
 20
2970.090644122207
 30
0.0000000349246037
  9
$LIMMIN
 10
0.0
 20
0.0
  9
$LIMMAX
 10
12.0
 20
9.0
  9
$ORTHOMODE
 70
     0
  9
$REGENMODE
 70
     1
  9
$FILLMODE
 70
     1
  9
$QTEXTMODE
 70
     0
  9
$MIRRTEXT
 70
     0
  9
$LTSCALE
 40
10.0
  9
$ATTMODE
 70
     1
  9
$TEXTSIZE
 40
0.0
  9
$TRACEWID
 40
0.05
  9
$TEXTSTYLE
  7
STANDARD
  9
$CLAYER
  8
0
  9
$CELTYPE
  6
CONTINUOUS
  9
$CECOLOR
 62
   256
  9
$CELTSCALE
 40
1.0
  9
$DISPSILH
 70
     0
  9
$DIMSCALE
 40
1.0
  9
$DIMASZ
 40
0.18
  9
$DIMEXO
 40
0.0625
  9
$DIMDLI
 40
0.38
  9
$DIMRND
 40
0.0
  9
$DIMDLE
 40
0.0
  9
$DIMEXE
 40
0.18
  9
$DIMTP
 40
0.0
  9
$DIMTM
 40
0.0
  9
$DIMTXT
 40
0.18
  9
$DIMCEN
 40
0.09
  9
$DIMTSZ
 40
0.0
  9
$DIMTOL
 70
     0
  9
$DIMLIM
 70
     0
  9
$DIMTIH
 70
     1
  9
$DIMTOH
 70
     1
  9
$DIMSE1
 70
     0
  9
$DIMSE2
 70
     0
  9
$DIMTAD
 70
     0
  9
$DIMZIN
 70
     0
  9
$DIMBLK
  1

  9
$DIMASO
 70
     1
  9
$DIMSHO
 70
     1
  9
$DIMPOST
  1

  9
$DIMAPOST
  1

  9
$DIMALT
 70
     0
  9
$DIMALTD
 70
     2
  9
$DIMALTF
 40
25.4
  9
$DIMLFAC
 40
1.0
  9
$DIMTOFL
 70
     0
  9
$DIMTVP
 40
0.0
  9
$DIMTIX
 70
     0
  9
$DIMSOXD
 70
     0
  9
$DIMSAH
 70
     0
  9
$DIMBLK1
  1

  9
$DIMBLK2
  1

  9
$DIMSTYLE
  2
Standard
  9
$DIMCLRD
 70
     0
  9
$DIMCLRE
 70
     0
  9
$DIMCLRT
 70
     0
  9
$DIMTFAC
 40
1.0
  9
$DIMGAP
 40
0.09
  9
$DIMJUST
 70
     0
  9
$DIMSD1
 70
     0
  9
$DIMSD2
 70
     0
  9
$DIMTOLJ
 70
     1
  9
$DIMTZIN
 70
     0
  9
$DIMALTZ
 70
     0
  9
$DIMALTTZ
 70
     0
  9
$DIMUPT
 70
     0
  9
$DIMDEC
 70
     4
  9
$DIMTDEC
 70
     4
  9
$DIMALTU
 70
     2
  9
$DIMALTTD
 70
     2
  9
$DIMTXSTY
  7
STANDARD
  9
$DIMAUNIT
 70
     0
  9
$DIMADEC
 70
     0
  9
$DIMALTRND
 40
0.0
  9
$DIMAZIN
 70
     0
  9
$DIMDSEP
 70
    46
  9
$DIMATFIT
 70
     3
  9
$DIMFRAC
 70
     0
  9
$DIMLDRBLK
  1

  9
$DIMLUNIT
 70
     2
  9
$DIMLWD
 70
    -2
  9
$DIMLWE
 70
    -2
  9
$DIMTMOVE
 70
     0
  9
$DIMFXL
 40
1.0
  9
$DIMFXLON
 70
     0
  9
$DIMJOGANG
 40
0.7853981633974483
  9
$DIMTFILL
 70
     0
  9
$DIMTFILLCLR
 70
     0
  9
$DIMARCSYM
 70
     0
  9
$DIMLTYPE
  6

  9
$DIMLTEX1
  6

  9
$DIMLTEX2
  6

  9
$LUNITS
 70
     2
  9
$LUPREC
 70
     4
  9
$SKETCHINC
 40
0.1
  9
$FILLETRAD
 40
0.0
  9
$AUNITS
 70
     0
  9
$AUPREC
 70
     0
  9
$MENU
  1
.
  9
$ELEVATION
 40
0.0
  9
$PELEVATION
 40
0.0
  9
$THICKNESS
 40
0.0
  9
$LIMCHECK
 70
     0
  9
$CHAMFERA
 40
0.0
  9
$CHAMFERB
 40
0.0
  9
$CHAMFERC
 40
0.0
  9
$CHAMFERD
 40
0.0
  9
$SKPOLY
 70
     0
  9
$TDCREATE
 40
2460248.778726852
  9
$TDUCREATE
 40
2460248.403726852
  9
$TDUPDATE
 40
2460248.778946759
  9
$TDUUPDATE
 40
2460248.403946759
  9
$TDINDWG
 40
0.0002199074
  9
$TDUSRTIMER
 40
0.0002199074
  9
$USRTIMER
 70
     1
  9
$ANGBASE
 50
0.0
  9
$ANGDIR
 70
     0
  9
$PDMODE
 70
     0
  9
$PDSIZE
 40
5.0
  9
$PLINEWID
 40
0.0
  9
$SPLFRAME
 70
     0
  9
$SPLINETYPE
 70
     6
  9
$SPLINESEGS
 70
     8
  9
$HANDSEED
  5
46B
  9
$SURFTAB1
 70
     6
  9
$SURFTAB2
 70
     6
  9
$SURFTYPE
 70
     6
  9
$SURFU
 70
     6
  9
$SURFV
 70
     6
  9
$UCSBASE
  2

  9
$UCSNAME
  2

  9
$UCSORG
 10
0.0
 20
0.0
 30
0.0
  9
$UCSXDIR
 10
1.0
 20
0.0
 30
0.0
  9
$UCSYDIR
 10
0.0
 20
1.0
 30
0.0
  9
$UCSORTHOREF
  2

  9
$UCSORTHOVIEW
 70
     0
  9
$UCSORGTOP
 10
0.0
 20
0.0
 30
0.0
  9
$UCSORGBOTTOM
 10
0.0
 20
0.0
 30
0.0
  9
$UCSORGLEFT
 10
0.0
 20
0.0
 30
0.0
  9
$UCSORGRIGHT
 10
0.0
 20
0.0
 30
0.0
  9
$UCSORGFRONT
 10
0.0
 20
0.0
 30
0.0
  9
$UCSORGBACK
 10
0.0
 20
0.0
 30
0.0
  9
$PUCSBASE
  2

  9
$PUCSNAME
  2

  9
$PUCSORG
 10
0.0
 20
0.0
 30
0.0
  9
$PUCSXDIR
 10
1.0
 20
0.0
 30
0.0
  9
$PUCSYDIR
 10
0.0
 20
1.0
 30
0.0
  9
$PUCSORTHOREF
  2

  9
$PUCSORTHOVIEW
 70
     0
  9
$PUCSORGTOP
 10
0.0
 20
0.0
 30
0.0
  9
$PUCSORGBOTTOM
 10
0.0
 20
0.0
 30
0.0
  9
$PUCSORGLEFT
 10
0.0
 20
0.0
 30
0.0
  9
$PUCSORGRIGHT
 10
0.0
 20
0.0
 30
0.0
  9
$PUCSORGFRONT
 10
0.0
 20
0.0
 30
0.0
  9
$PUCSORGBACK
 10
0.0
 20
0.0
 30
0.0
  9
$USERI1
 70
     0
  9
$USERI2
 70
     0
  9
$USERI3
 70
     0
  9
$USERI4
 70
     0
  9
$USERI5
 70
     0
  9
$USERR1
 40
0.0
  9
$USERR2
 40
0.0
  9
$USERR3
 40
0.0
  9
$USERR4
 40
0.0
  9
$USERR5
 40
0.0
  9
$WORLDVIEW
 70
     1
  9
$SHADEDGE
 70
     3
  9
$SHADEDIF
 70
    70
  9
$TILEMODE
 70
     1
  9
$MAXACTVP
 70
    64
  9
$PINSBASE
 10
0.0
 20
0.0
 30
0.0
  9
$PLIMCHECK
 70
     0
  9
$PEXTMIN
 10
1.000000000000000E+20
 20
1.000000000000000E+20
 30
1.000000000000000E+20
  9
$PEXTMAX
 10
-1.000000000000000E+20
 20
-1.000000000000000E+20
 30
-1.000000000000000E+20
  9
$PLIMMIN
 10
0.0
 20
0.0
  9
$PLIMMAX
 10
12.0
 20
9.0
  9
$UNITMODE
 70
     0
  9
$VISRETAIN
 70
     1
  9
$PLINEGEN
 70
     0
  9
$PSLTSCALE
 70
     1
  9
$TREEDEPTH
 70
  3020
  9
$CMLSTYLE
  2
Standard
  9
$CMLJUST
 70
     0
  9
$CMLSCALE
 40
1.0
  9
$PROXYGRAPHICS
 70
     1
  9
$MEASUREMENT
 70
     0
  9
$CELWEIGHT
370
    -1
  9
$ENDCAPS
280
     0
  9
$JOINSTYLE
280
     0
  9
$LWDISPLAY
290
     0
  9
$INSUNITS
 70
     0
  9
$HYPERLINKBASE
  1

  9
$STYLESHEET
  1

  9
$XEDIT
290
     1
  9
$CEPSNTYPE
380
     0
  9
$PSTYLEMODE
290
     1
  9
$FINGERPRINTGUID
  2
{05C1F7FD-6A34-E943-97F1-1D5A0F62B5FF}
  9
$VERSIONGUID
  2
{522BBDDD-E33B-F941-AA67-B9956E803E09}
  9
$EXTNAMES
290
     1
  9
$PSVPSCALE
 40
0.0
  9
$OLESTARTUP
290
     0
  9
$SORTENTS
280
   127
  9
$INDEXCTL
280
     0
  9
$HIDETEXT
280
     0
  9
$XCLIPFRAME
290
     0
  9
$HALOGAP
280
     0
  9
$OBSCOLOR
 70
   257
  9
$OBSLTYPE
280
     0
  9
$INTERSECTIONDISPLAY
280
     0
  9
$INTERSECTIONCOLOR
 70
   257
  9
$DIMASSOC
280
     1
  9
$PROJECTNAME
  1

  9
$CAMERADISPLAY
290
     0
  9
$LENSLENGTH
 40
50.0
  9
$CAMERAHEIGHT
 40
0.0
  9
$STEPSPERSEC
 40
2.0
  9
$STEPSIZE
 40
6.0
  9
$3DDWFPREC
 40
2.0
  9
$PSOLWIDTH
 40
0.25
  9
$PSOLHEIGHT
 40
4.0
  9
$LOFTANG1
 40
1.570796326794896
  9
$LOFTANG2
 40
1.570796326794896
  9
$LOFTMAG1
 40
0.0
  9
$LOFTMAG2
 40
0.0
  9
$LOFTPARAM
 70
     7
  9
$LOFTNORMALS
280
     1
  9
$LATITUDE
 40
37.795
  9
$LONGITUDE
 40
-122.394
  9
$NORTHDIRECTION
 40
0.0
  9
$TIMEZONE
 70
 -8000
  9
$LIGHTGLYPHDISPLAY
280
     1
  9
$TILEMODELIGHTSYNCH
280
     1
  9
$CMATERIAL
347
11
  9
$SOLIDHIST
280
     0
  9
$SHOWHIST
280
     1
  9
$DWFFRAME
280
     2
  9
$DGNFRAME
280
     0
  9
$REALWORLDSCALE
290
     1
  9
$INTERFERECOLOR
 62
     1
  9
$INTERFEREOBJVS
345
33
  9
$INTERFEREVPVS
346
30
  9
$CSHADOW
280
     0
  9
$SHADOWPLANELOCATION
 40
0.0
  0
ENDSEC
  0
SECTION
  2
CLASSES
  0
CLASS
  1
ACDBDICTIONARYWDFLT
  2
AcDbDictionaryWithDefault
  3
ObjectDBX Classes
 90
        0
 91
        1
280
     0
281
     0
  0
CLASS
  1
MATERIAL
  2
AcDbMaterial
  3
ObjectDBX Classes
 90
     1153
 91
        3
280
     0
281
     0
  0
CLASS
  1
VISUALSTYLE
  2
AcDbVisualStyle
  3
ObjectDBX Classes
 90
     4095
 91
       24
280
     0
281
     0
  0
CLASS
  1
SCALE
  2
AcDbScale
  3
ObjectDBX Classes
 90
     1153
 91
       17
280
     0
281
     0
  0
CLASS
  1
TABLESTYLE
  2
AcDbTableStyle
  3
ObjectDBX Classes
 90
     4095
 91
        1
280
     0
281
     0
  0
CLASS
  1
MLEADERSTYLE
  2
AcDbMLeaderStyle
  3
ACDB_MLEADERSTYLE_CLASS
 90
     4095
 91
        1
280
     0
281
     0
  0
CLASS
  1
ACDBSECTIONVIEWSTYLE
  2
AcDbSectionViewStyle
  3
ObjectDBX Classes
 90
     1025
 91
        1
280
     0
281
     0
  0
CLASS
  1
ACDBDETAILVIEWSTYLE
  2
AcDbDetailViewStyle
  3
ObjectDBX Classes
 90
     1025
 91
        1
280
     0
281
     0
  0
CLASS
  1
DICTIONARYVAR
  2
AcDbDictionaryVar
  3
ObjectDBX Classes
 90
        0
 91
       10
280
     0
281
     0
  0
CLASS
  1
CELLSTYLEMAP
  2
AcDbCellStyleMap
  3
ObjectDBX Classes
 90
     1152
 91
        1
280
     0
281
     0
  0
ENDSEC
  0
SECTION
  2
TABLES
  0
TABLE
  2
VPORT
  5
8
330
0
100
AcDbSymbolTable
 70
     1
  0
VPORT
  5
8C
330
8
100
AcDbSymbolTableRecord
100
AcDbViewportTableRecord
  2
*Active
 70
     0
 10
0.0
 20
0.0
 11
1.0
 21
1.0
 12
2100.000009778886
 22
1485.000006915069
 13
0.0
 23
0.0
 14
1.0
 24
1.0
 15
0.0
 25
0.0
 16
0.0
 26
0.0
 36
1.0
 17
0.0
 27
0.0
 37
0.0
 40
2991.447488789556
 41
2.283154121863799
 42
50.0
 43
0.0
 44
0.0
 50
0.0
 51
0.0
 71
     0
 72
   100
 73
     1
 74
     0
 75
     1
 76
     0
 77
     0
 78
     0
281
     0
 65
     1
110
0.0
120
0.0
130
0.0
111
1.0
121
0.0
131
0.0
112
0.0
122
1.0
132
0.0
 79
     0
146
0.0
348
2F
 60
     3
 61
     5
292
     1
282
     1
141
0.0
142
0.0
 63
   250
421
  3355443
1001
ACAD_NAV_VCDISPLAY
1070
     3
  0
ENDTAB
  0
TABLE
  2
LTYPE
  5
5
330
0
100
AcDbSymbolTable
 70
     9
  0
LTYPE
  5
5A
330
5
100
AcDbSymbolTableRecord
100
AcDbLinetypeTableRecord
  2
ByBlock
 70
     0
  3

 72
    65
 73
     0
 40
0.0
  0
LTYPE
  5
5B
330
5
100
AcDbSymbolTableRecord
100
AcDbLinetypeTableRecord
  2
ByLayer
 70
     0
  3

 72
    65
 73
     0
 40
0.0
  0
LTYPE
  5
5C
330
5
100
AcDbSymbolTableRecord
100
AcDbLinetypeTableRecord
  2
CONTINUOUS
 70
     0
  3
SolidLine
 72
    65
 73
     0
 40
0.0
  0
LTYPE
  5
73
330
5
100
AcDbSymbolTableRecord
100
AcDbLinetypeTableRecord
  2
DOT
 70
     0
  3
--  --  --  --  --  --  --  --     
 72
    65
 73
     2
 40
3.0
 49
1.0
 74
     0
 49
-2.0
 74
     0
  0
LTYPE
  5
74
330
5
100
AcDbSymbolTableRecord
100
AcDbLinetypeTableRecord
  2
DASHED
 70
     0
  3
----    ----    ----    ----    
 72
    65
 73
     2
 40
5.0
 49
2.0
 74
     0
 49
-3.0
 74
     0
  0
LTYPE
  5
75
330
5
100
AcDbSymbolTableRecord
100
AcDbLinetypeTableRecord
  2
DASHED2
 70
     0
  3
------  ------  ------  ------ 
 72
    65
 73
     2
 40
10.0
 49
4.0
 74
     0
 49
-6.0
 74
     0
  0
LTYPE
  5
76
330
5
100
AcDbSymbolTableRecord
100
AcDbLinetypeTableRecord
  2
CENTER
 70
     0
  3
----- - ----- - ----- - ----- - 
 72
    65
 73
     4
 40
10.0
 49
6.0
 74
     0
 49
-3.0
 74
     0
 49
1.0
 74
     0
 49
-3.0
 74
     0
  0
LTYPE
  5
77
330
5
100
AcDbSymbolTableRecord
100
AcDbLinetypeTableRecord
  2
CENTER2
 70
     0
  3
----------  --  ----------  -- 
 72
    65
 73
     4
 40
17.0
 49
12.0
 74
     0
 49
-5.0
 74
     0
 49
2.0
 74
     0
 49
-5.0
 74
     0
  0
LTYPE
  5
78
330
5
100
AcDbSymbolTableRecord
100
AcDbLinetypeTableRecord
  2
PHANTOM
 70
     0
  3
--- - - --- - - --- - - --- - -
 72
    65
 73
     6
 40
13.0
 49
5.0
 74
     0
 49
-3.0
 74
     0
 49
1.0
 74
     0
 49
-3.0
 74
     0
 49
1.0
 74
     0
 49
-3.0
 74
     0
  0
LTYPE
  5
79
330
5
100
AcDbSymbolTableRecord
100
AcDbLinetypeTableRecord
  2
PHANTOM2
 70
     0
  3
--------  -  -  --------  -  -
 72
    65
 73
     6
 40
20.0
 49
6.0
 74
     0
 49
-5.0
 74
     0
 49
2.0
 74
     0
 49
-5.0
 74
     0
 49
2.0
 74
     0
 49
-5.0
 74
     0
  0
LTYPE
  5
7A
330
5
100
AcDbSymbolTableRecord
100
AcDbLinetypeTableRecord
  2
HIDDEN
 70
     0
  3
-   -   -   -   -   -   -   -   
 72
    65
 73
     2
 40
3.0
 49
0.5
 74
     0
 49
-2.5
 74
     0
  0
ENDTAB
  0
TABLE
  2
LAYER
  5
2
330
0
100
AcDbSymbolTable
 70
    11
  0
LAYER
  5
54
102
{ACAD_XDICTIONARY
360
411
102
}
330
2
100
AcDbSymbolTableRecord
100
AcDbLayerTableRecord
  2
0
 70
     0
 62
     7
  6
CONTINUOUS
370
    -3
390
F
347
21
  0
LAYER
  5
7F
102
{ACAD_XDICTIONARY
360
413
102
}
330
2
100
AcDbSymbolTableRecord
100
AcDbLayerTableRecord
  2
2-0
 70
     0
 62
     7
  6
CONTINUOUS
370
    -3
390
F
347
21
  0
LAYER
  5
80
102
{ACAD_XDICTIONARY
360
415
102
}
330
2
100
AcDbSymbolTableRecord
100
AcDbLayerTableRecord
  2
4-0
 70
     0
 62
    -7
  6
CONTINUOUS
370
    -3
390
F
347
21
  0
LAYER
  5
81
102
{ACAD_XDICTIONARY
360
417
102
}
330
2
100
AcDbSymbolTableRecord
100
AcDbLayerTableRecord
  2
5-0
 70
     0
 62
    -7
  6
CONTINUOUS
370
    -3
390
F
347
21
  0
LAYER
  5
82
102
{ACAD_XDICTIONARY
360
419
102
}
330
2
100
AcDbSymbolTableRecord
100
AcDbLayerTableRecord
  2
6-0
 70
     0
 62
     7
  6
CONTINUOUS
370
    -3
390
F
347
21
  0
LAYER
  5
83
102
{ACAD_XDICTIONARY
360
41B
102
}
330
2
100
AcDbSymbolTableRecord
100
AcDbLayerTableRecord
  2
7-0
 70
     0
 62
     7
  6
CONTINUOUS
370
    -3
390
F
347
21
  0
LAYER
  5
84
102
{ACAD_XDICTIONARY
360
41D
102
}
330
2
100
AcDbSymbolTableRecord
100
AcDbLayerTableRecord
  2
8-0
 70
     0
 62
     1
  6
CONTINUOUS
370
    -3
390
F
347
21
  0
LAYER
  5
85
102
{ACAD_XDICTIONARY
360
41F
102
}
330
2
100
AcDbSymbolTableRecord
100
AcDbLayerTableRecord
  2
9-0
 70
     0
 62
     6
  6
CENTER
370
    -3
390
F
347
21
  0
LAYER
  5
86
102
{ACAD_XDICTIONARY
360
421
102
}
330
2
100
AcDbSymbolTableRecord
100
AcDbLayerTableRecord
  2
C-0
 70
     0
 62
     4
  6
CONTINUOUS
370
    -3
390
F
347
21
  0
LAYER
  5
87
102
{ACAD_XDICTIONARY
360
423
102
}
330
2
100
AcDbSymbolTableRecord
100
AcDbLayerTableRecord
  2
D-0
 70
     0
 62
     5
  6
CONTINUOUS
370
    -3
390
F
347
21
  0
LAYER
  5
8D
102
{ACAD_XDICTIONARY
360
425
102
}
330
2
100
AcDbSymbolTableRecord
100
AcDbLayerTableRecord
  2
1-0
 70
     0
 62
     7
  6
CONTINUOUS
370
    -3
390
F
347
21
  0
ENDTAB
  0
TABLE
  2
STYLE
  5
3
330
0
100
AcDbSymbolTable
 70
     6
  0
STYLE
  5
55
330
3
100
AcDbSymbolTableRecord
100
AcDbTextStyleTableRecord
  2
STANDARD
 70
     0
 40
0.0
 41
1.0
 50
0.0
 71
     0
 42
0.0
  3
txt.shx
  4
extfont.shx
  0
STYLE
  5
59
330
3
100
AcDbSymbolTableRecord
100
AcDbTextStyleTableRecord
  2
Annotative
 70
     0
 40
0.0
 41
1.0
 50
0.0
 71
     0
 42
0.2
  3
txt
  4

1001
AcadAnnotative
1000
AnnotativeData
1002
{
1070
     1
1070
     1
1002
}
  0
STYLE
  5
7B
330
3
100
AcDbSymbolTableRecord
100
AcDbTextStyleTableRecord
  2
TATEGAKI
 70
     4
 40
0.0
 41
1.0
 50
0.0
 71
     0
 42
0.0
  3
txt.shx
  4
extfont.shx
  0
STYLE
  5
7C
330
3
100
AcDbSymbolTableRecord
100
AcDbTextStyleTableRecord
  2
DIM
 70
     0
 40
0.0
 41
0.75
 50
0.0
 71
     0
 42
0.0
  3
txt.shx
  4
extfont.shx
  0
STYLE
  5
7D
330
3
100
AcDbSymbolTableRecord
100
AcDbTextStyleTableRecord
  2
_GOTHIC__
 70
     0
 40
0.0
 41
1.0
 50
0.0
 71
     0
 42
0.0
  3
MS Gothic
  4

  0
STYLE
  5
7E
330
3
100
AcDbSymbolTableRecord
100
AcDbTextStyleTableRecord
  2
_TATEGOTHIC_
 70
     4
 40
0.0
 41
1.0
 50
0.0
 71
     0
 42
0.0
  3
@MS Gothic
  4

  0
ENDTAB
  0
TABLE
  2
VIEW
  5
6
330
0
100
AcDbSymbolTable
 70
     0
  0
ENDTAB
  0
TABLE
  2
UCS
  5
7
330
0
100
AcDbSymbolTable
 70
     0
  0
ENDTAB
  0
TABLE
  2
APPID
  5
9
330
0
100
AcDbSymbolTable
 70
     4
  0
APPID
  5
56
330
9
100
AcDbSymbolTableRecord
100
AcDbRegAppTableRecord
  2
ACAD
 70
     0
  0
APPID
  5
5D
330
9
100
AcDbSymbolTableRecord
100
AcDbRegAppTableRecord
  2
AcadAnnotative
 70
     0
  0
APPID
  5
432
330
9
100
AcDbSymbolTableRecord
100
AcDbRegAppTableRecord
  2
ACAD_NAV_VCDISPLAY
 70
     0
  0
APPID
  5
466
330
9
100
AcDbSymbolTableRecord
100
AcDbRegAppTableRecord
  2
ACAD_MLEADERVER
 70
     0
  0
ENDTAB
  0
TABLE
  2
DIMSTYLE
  5
A
330
0
100
AcDbSymbolTable
 70
     2
100
AcDbDimStyleTable
 71
     0
  0
DIMSTYLE
105
57
330
A
100
AcDbSymbolTableRecord
100
AcDbDimStyleTableRecord
  2
Standard
 70
     0
340
55
  0
DIMSTYLE
105
58
330
A
100
AcDbSymbolTableRecord
100
AcDbDimStyleTableRecord
  2
Annotative
 70
     0
340
55
1001
AcadAnnotative
1000
AnnotativeData
1002
{
1070
     1
1070
     1
1002
}
  0
ENDTAB
  0
TABLE
  2
BLOCK_RECORD
  5
1
330
0
100
AcDbSymbolTable
 70
     0
  0
BLOCK_RECORD
  5
6F
330
1
100
AcDbSymbolTableRecord
100
AcDbBlockTableRecord
  2
*Model_Space
340
72
 70
     0
280
     1
281
     0
  0
BLOCK_RECORD
  5
6B
330
1
100
AcDbSymbolTableRecord
100
AcDbBlockTableRecord
  2
*Paper_Space
340
6E
 70
     0
280
     1
281
     0
  0
ENDTAB
  0
ENDSEC
  0
SECTION
  2
BLOCKS
  0
BLOCK
  5
70
330
6F
100
AcDbEntity
  8
0
100
AcDbBlockBegin
  2
*Model_Space
 70
     0
 10
0.0
 20
0.0
 30
0.0
  3
*Model_Space
  1

  0
ENDBLK
  5
71
330
6F
100
AcDbEntity
  8
0
100
AcDbBlockEnd
  0
BLOCK
  5
6C
330
6B
100
AcDbEntity
 67
     1
  8
0
100
AcDbBlockBegin
  2
*Paper_Space
 70
     0
 10
0.0
 20
0.0
 30
0.0
  3
*Paper_Space
  1

  0
ENDBLK
  5
6D
330
6B
100
AcDbEntity
 67
     1
  8
0
100
AcDbBlockEnd
  0
ENDSEC
  0
SECTION
  2
ENTITIES
  0
LINE
  5
8E
330
6F
100
AcDbEntity
  8
1-0
  6
Continuous
 62
     7
100
AcDbLine
 10
0.0
 20
0.0
 30
0.0
 11
4200.0
 21
0.0
 31
0.0
  0
LINE
  5
8F
330
6F
100
AcDbEntity
  8
1-0
  6
Continuous
 62
     7
100
AcDbLine
 10
4200.0
 20
0.0
 30
0.0
 11
4200.0
 21
2970.0
 31
0.0
  0
LINE
  5
90
330
6F
100
AcDbEntity
  8
1-0
  6
Continuous
 62
     7
100
AcDbLine
 10
4200.0
 20
2970.0
 30
0.0
 11
0.0
 21
2970.0
 31
0.0
  0
LINE
  5
91
330
6F
100
AcDbEntity
  8
1-0
  6
Continuous
 62
     7
100
AcDbLine
 10
0.0
 20
2970.0
 30
0.0
 11
0.0
 21
0.0
 31
0.0
  0
LINE
  5
92
330
6F
100
AcDbEntity
  8
7-0
  6
Continuous
 62
     7
100
AcDbLine
 10
100.0
 20
100.0
 30
0.0
 11
4100.0
 21
100.0
 31
0.0
  0
LINE
  5
93
330
6F
100
AcDbEntity
  8
7-0
  6
Continuous
 62
     7
100
AcDbLine
 10
2500.0
 20
300.0
 30
0.0
 11
4100.0
 21
300.0
 31
0.0
  0
LINE
  5
94
330
6F
100
AcDbEntity
  8
6-0
  6
Continuous
 62
     7
100
AcDbLine
 10
2500.0
 20
240.0
 30
0.0
 11
3150.0
 21
240.0
 31
0.0
  0
LINE
  5
95
330
6F
100
AcDbEntity
  8
7-0
  6
Continuous
 62
     7
100
AcDbLine
 10
4100.0
 20
100.0
 30
0.0
 11
4100.0
 21
2870.0
 31
0.0
  0
LINE
  5
96
330
6F
100
AcDbEntity
  8
7-0
  6
Continuous
 62
     7
100
AcDbLine
 10
4100.0
 20
2870.0
 30
0.0
 11
100.0
 21
2870.0
 31
0.0
  0
LINE
  5
97
330
6F
100
AcDbEntity
  8
7-0
  6
Continuous
 62
     7
100
AcDbLine
 10
100.0
 20
2870.0
 30
0.0
 11
100.0
 21
100.0
 31
0.0
  0
LINE
  5
98
330
6F
100
AcDbEntity
  8
6-0
  6
Continuous
 62
     7
100
AcDbLine
 10
3150.0
 20
100.0
 30
0.0
 11
3150.0
 21
300.0
 31
0.0
  0
LINE
  5
99
330
6F
100
AcDbEntity
  8
7-0
  6
Continuous
 62
     7
100
AcDbLine
 10
2500.0
 20
100.0
 30
0.0
 11
2500.0
 21
300.0
 31
0.0
  0
TEXT
  5
9A
330
6F
100
AcDbEntity
  8
D-0
 62
     5
100
AcDbText
 10
2788.434
 20
252.531
 30
0.0
 40
31.104
  1
品番
100
AcDbText
  0
TEXT
  5
9B
330
6F
100
AcDbEntity
  8
D-0
 62
     5
100
AcDbText
 10
2560.839
 20
147.854
 30
0.0
 40
51.84000000000001
  1
SCHS-600S
100
AcDbText
  0
TEXT
  5
9C
330
6F
100
AcDbEntity
  8
D-0
 62
     5
100
AcDbText
 10
3353.56
 20
192.32
 30
0.0
 40
62.208
  1
アイオ産業株式会社
100
AcDbText
  0
TEXT
  5
9D
330
6F
100
AcDbEntity
  8
D-0
 62
     5
100
AcDbText
 10
3427.941
 20
124.513
 30
0.0
 40
31.104
  1
アイオシステムキッチン事業部
100
AcDbText
  0
ARC
  5
9E
330
6F
100
AcDbEntity
  8
2-0
  6
Continuous
 62
     7
100
AcDbCircle
 10
3255.659538175486
 20
200.204166274297
 30
0.0
 40
63.24278074506601
100
AcDbArc
 50
319.753
 51
220.247
  0
CIRCLE
  5
9F
330
6F
100
AcDbEntity
  8
2-0
  6
Continuous
 62
     7
100
AcDbCircle
 10
3255.659538175486
 20
200.204166274297
 30
0.0
 40
71.58304716886799
  0
CIRCLE
  5
A0
330
6F
100
AcDbEntity
  8
2-0
  6
Continuous
 62
     7
100
AcDbCircle
 10
3255.659538175486
 20
200.204166274297
 30
0.0
 40
72.000060490058
  0
CIRCLE
  5
A1
330
6F
100
AcDbEntity
  8
2-0
  6
Continuous
 62
     7
100
AcDbCircle
 10
3255.659538175486
 20
200.204166274297
 30
0.0
 40
72.417073811248
  0
CIRCLE
  5
A2
330
6F
100
AcDbEntity
  8
2-0
  6
Continuous
 62
     7
100
AcDbCircle
 10
3255.659538175486
 20
200.204166274297
 30
0.0
 40
72.834087132438
  0
CIRCLE
  5
A3
330
6F
100
AcDbEntity
  8
2-0
  6
Continuous
 62
     7
100
AcDbCircle
 10
3255.659538175486
 20
200.204166274297
 30
0.0
 40
73.251100453628
  0
CIRCLE
  5
A4
330
6F
100
AcDbEntity
  8
2-0
  6
Continuous
 62
     7
100
AcDbCircle
 10
3255.659538175486
 20
200.204166274297
 30
0.0
 40
73.459607114223
  0
CIRCLE
  5
A5
330
6F
100
AcDbEntity
  8
2-0
  6
Continuous
 62
     7
100
AcDbCircle
 10
3255.659538175486
 20
200.204166274297
 30
0.0
 40
73.04259379303299
  0
CIRCLE
  5
A6
330
6F
100
AcDbEntity
  8
2-0
  6
Continuous
 62
     7
100
AcDbCircle
 10
3255.659538175486
 20
200.204166274297
 30
0.0
 40
72.62558047184301
  0
CIRCLE
  5
A7
330
6F
100
AcDbEntity
  8
2-0
  6
Continuous
 62
     7
100
AcDbCircle
 10
3255.659538175486
 20
200.204166274297
 30
0.0
 40
72.20856715065299
  0
CIRCLE
  5
A8
330
6F
100
AcDbEntity
  8
2-0
  6
Continuous
 62
     7
100
AcDbCircle
 10
3255.659538175486
 20
200.204166274297
 30
0.0
 40
71.791553829463
  0
CIRCLE
  5
A9
330
6F
100
AcDbEntity
  8
2-0
  6
Continuous
 62
     7
100
AcDbCircle
 10
3255.659538175486
 20
200.204166274297
 30
0.0
 40
71.791553829463
  0
ARC
  5
AA
330
6F
100
AcDbEntity
  8
2-0
  6
Continuous
 62
     7
100
AcDbCircle
 10
3255.659538175486
 20
200.204166274297
 30
0.0
 40
63.45128740566099
100
AcDbArc
 50
319.753
 51
220.247
  0
CIRCLE
  5
AB
330
6F
100
AcDbEntity
  8
2-0
  6
Continuous
 62
     7
100
AcDbCircle
 10
3255.659538175486
 20
200.204166274297
 30
0.0
 40
71.374540508273
  0
ARC
  5
AC
330
6F
100
AcDbEntity
  8
2-0
  6
Continuous
 62
     7
100
AcDbCircle
 10
3255.659538175486
 20
200.204166274297
 30
0.0
 40
63.03427408447099
100
AcDbArc
 50
319.753
 51
220.247
  0
TEXT
  5
AD
330
6F
100
AcDbEntity
  8
2-0
 62
     7
100
AcDbText
 10
3216.455
 20
142.198
 30
0.0
 40
48.64
  1
A
100
AcDbText
  0
TEXT
  5
AE
330
6F
100
AcDbEntity
  8
2-0
 62
     7
100
AcDbText
 10
3258.946
 20
142.301
 30
0.0
 40
48.64
  1
I
100
AcDbText
  0
TEXT
  5
AF
330
6F
100
AcDbEntity
  8
2-0
 62
     7
100
AcDbText
 10
3269.344
 20
142.267
 30
0.0
 40
48.64
  1
O
100
AcDbText
  0
LINE
  5
B0
330
6F
100
AcDbEntity
  8
2-0
  6
Continuous
 62
     7
100
AcDbLine
 10
1143.639005
 20
2243.84981
 30
0.0
 11
543.6390049999999
 21
2243.84981
 31
0.0
  0
LINE
  5
B1
330
6F
100
AcDbEntity
  8
2-0
  6
Continuous
 62
     7
100
AcDbLine
 10
543.6390049999999
 20
2243.84981
 30
0.0
 11
543.6390049999999
 21
1898.84981
 31
0.0
  0
LINE
  5
B2
330
6F
100
AcDbEntity
  8
2-0
  6
Continuous
 62
     7
100
AcDbLine
 10
546.639005
 20
1881.84981
 30
0.0
 11
842.639005
 21
1881.84981
 31
0.0
  0
LINE
  5
B3
330
6F
100
AcDbEntity
  8
2-0
  6
Continuous
 62
     7
100
AcDbLine
 10
1143.639005
 20
1898.84981
 30
0.0
 11
1143.639005
 21
2243.84981
 31
0.0
  0
LINE
  5
B4
330
6F
100
AcDbEntity
  8
2-0
  6
Continuous
 62
     7
100
AcDbLine
 10
558.639005
 20
2243.84981
 30
0.0
 11
558.639005
 21
1898.84981
 31
0.0
  0
LINE
  5
B5
330
6F
100
AcDbEntity
  8
2-0
  6
Continuous
 62
     7
100
AcDbLine
 10
1126.139005
 20
1898.84981
 30
0.0
 11
1126.139005
 21
2243.84981
 31
0.0
  0
LINE
  5
B6
330
6F
100
AcDbEntity
  8
2-0
  6
DASHED2
 62
     7
100
AcDbLine
 10
1126.139005
 20
2223.84981
 30
0.0
 11
558.639005
 21
2223.84981
 31
0.0
  0
LINE
  5
B7
330
6F
100
AcDbEntity
  8
2-0
  6
Continuous
 62
     7
100
AcDbLine
 10
546.639005
 20
1896.84981
 30
0.0
 11
842.639005
 21
1896.84981
 31
0.0
  0
LINE
  5
B8
330
6F
100
AcDbEntity
  8
2-0
  6
Continuous
 62
     7
100
AcDbLine
 10
543.6390049999999
 20
1898.84981
 30
0.0
 11
1143.639005
 21
1898.84981
 31
0.0
  0
LINE
  5
B9
330
6F
100
AcDbEntity
  8
2-0
  6
Continuous
 62
     7
100
AcDbLine
 10
546.639005
 20
1896.84981
 30
0.0
 11
546.639005
 21
1881.84981
 31
0.0
  0
LINE
  5
BA
330
6F
100
AcDbEntity
  8
2-0
  6
DASHED2
 62
     7
100
AcDbLine
 10
598.6390049999999
 20
2243.84981
 30
0.0
 11
598.6390049999999
 21
2223.84981
 31
0.0
  0
LINE
  5
BB
330
6F
100
AcDbEntity
  8
2-0
  6
DASHED2
 62
     7
100
AcDbLine
 10
1086.139005
 20
2243.84981
 30
0.0
 11
1086.139005
 21
2223.84981
 31
0.0
  0
LINE
  5
BC
330
6F
100
AcDbEntity
  8
2-0
  6
DASHED2
 62
     7
100
AcDbLine
 10
1126.139005
 20
2221.14981
 30
0.0
 11
558.639005
 21
2221.14981
 31
0.0
  0
LINE
  5
BD
330
6F
100
AcDbEntity
  8
2-0
  6
DASHED2
 62
     7
100
AcDbLine
 10
558.639005
 20
2223.84981
 30
0.0
 11
598.6390049999999
 21
2243.84981
 31
0.0
  0
LINE
  5
BE
330
6F
100
AcDbEntity
  8
2-0
  6
DASHED2
 62
     7
100
AcDbLine
 10
1086.139005
 20
2223.84981
 30
0.0
 11
1126.139005
 21
2243.84981
 31
0.0
  0
LINE
  5
BF
330
6F
100
AcDbEntity
  8
2-0
  6
Continuous
 62
     7
100
AcDbLine
 10
1140.639005
 20
1896.84981
 30
0.0
 11
1140.639005
 21
1881.84981
 31
0.0
  0
LINE
  5
C0
330
6F
100
AcDbEntity
  8
2-0
  6
Continuous
 62
     7
100
AcDbLine
 10
844.6390049999999
 20
1896.84981
 30
0.0
 11
844.6390049999999
 21
1881.84981
 31
0.0
  0
LINE
  5
C1
330
6F
100
AcDbEntity
  8
2-0
  6
Continuous
 62
     7
100
AcDbLine
 10
842.639005
 20
1896.84981
 30
0.0
 11
842.639005
 21
1881.84981
 31
0.0
  0
LINE
  5
C2
330
6F
100
AcDbEntity
  8
2-0
  6
Continuous
 62
     7
100
AcDbLine
 10
844.6390049999999
 20
1896.84981
 30
0.0
 11
1140.639005
 21
1896.84981
 31
0.0
  0
LINE
  5
C3
330
6F
100
AcDbEntity
  8
2-0
  6
Continuous
 62
     7
100
AcDbLine
 10
844.6390049999999
 20
1881.84981
 30
0.0
 11
1140.639005
 21
1881.84981
 31
0.0
  0
LINE
  5
C4
330
6F
100
AcDbEntity
  8
8-0
  6
Continuous
 62
     4
100
AcDbLine
 10
543.6390049999999
 20
2283.234747
 30
0.0
 11
543.6390049999999
 21
2448.195423
 31
0.0
  0
LINE
  5
C5
330
6F
100
AcDbEntity
  8
8-0
  6
Continuous
 62
     4
100
AcDbLine
 10
1143.639005
 20
2283.549727
 30
0.0
 11
1143.639005
 21
2448.195423
 31
0.0
  0
TEXT
  5
C6
330
6F
100
AcDbEntity
  8
8-0
 62
     4
100
AcDbText
 10
812.8610000000001
 20
2448.815
 30
0.0
 40
36.288
  1
600
100
AcDbText
  0
LINE
  5
C7
330
6F
100
AcDbEntity
  8
8-0
  6
Continuous
 62
     4
100
AcDbLine
 10
1143.639005088615
 20
2448.195423032144
 30
0.0
 11
543.639005088615
 21
2448.195423032144
 31
0.0
  0
CIRCLE
  5
C8
330
6F
100
AcDbEntity
  8
8-0
  6
Continuous
 62
     4
100
AcDbCircle
 10
1143.639005088615
 20
2448.195423032144
 30
0.0
 40
0.25
  0
CIRCLE
  5
C9
330
6F
100
AcDbEntity
  8
8-0
  6
Continuous
 62
     4
100
AcDbCircle
 10
1143.639005088615
 20
2448.195423032144
 30
0.0
 40
0.1875
  0
CIRCLE
  5
CA
330
6F
100
AcDbEntity
  8
8-0
  6
Continuous
 62
     4
100
AcDbCircle
 10
1143.639005088615
 20
2448.195423032144
 30
0.0
 40
0.125
  0
CIRCLE
  5
CB
330
6F
100
AcDbEntity
  8
8-0
  6
Continuous
 62
     4
100
AcDbCircle
 10
1143.639005088615
 20
2448.195423032144
 30
0.0
 40
0.0625
  0
CIRCLE
  5
CC
330
6F
100
AcDbEntity
  8
8-0
  6
Continuous
 62
     4
100
AcDbCircle
 10
543.639005088615
 20
2448.195423032144
 30
0.0
 40
0.25
  0
CIRCLE
  5
CD
330
6F
100
AcDbEntity
  8
8-0
  6
Continuous
 62
     4
100
AcDbCircle
 10
543.639005088615
 20
2448.195423032144
 30
0.0
 40
0.1875
  0
CIRCLE
  5
CE
330
6F
100
AcDbEntity
  8
8-0
  6
Continuous
 62
     4
100
AcDbCircle
 10
543.639005088615
 20
2448.195423032144
 30
0.0
 40
0.125
  0
CIRCLE
  5
CF
330
6F
100
AcDbEntity
  8
8-0
  6
Continuous
 62
     4
100
AcDbCircle
 10
543.639005088615
 20
2448.195423032144
 30
0.0
 40
0.0625
  0
LINE
  5
D0
330
6F
100
AcDbEntity
  8
8-0
  6
Continuous
 62
     4
100
AcDbLine
 10
501.7640049999999
 20
1881.84981
 30
0.0
 11
386.803329
 21
1881.84981
 31
0.0
  0
LINE
  5
D1
330
6F
100
AcDbEntity
  8
8-0
  6
Continuous
 62
     4
100
AcDbLine
 10
500.639005
 20
2243.84981
 30
0.0
 11
386.803329
 21
2243.84981
 31
0.0
  0
TEXT
  5
D2
330
6F
100
AcDbEntity
  8
8-0
 62
     4
100
AcDbText
 10
386.1830000000001
 20
2029.25
 30
0.0
 40
36.288
  1
362
 50
90.0
100
AcDbText
  0
LINE
  5
D3
330
6F
100
AcDbEntity
  8
8-0
  6
Continuous
 62
     4
100
AcDbLine
 10
386.803328992439
 20
2243.849810106425
 30
0.0
 11
386.803328992439
 21
1881.849810106425
 31
0.0
  0
CIRCLE
  5
D4
330
6F
100
AcDbEntity
  8
8-0
  6
Continuous
 62
     4
100
AcDbCircle
 10
386.803328992439
 20
2243.849810106425
 30
0.0
 40
0.25
  0
CIRCLE
  5
D5
330
6F
100
AcDbEntity
  8
8-0
  6
Continuous
 62
     4
100
AcDbCircle
 10
386.803328992439
 20
2243.849810106425
 30
0.0
 40
0.1875
  0
CIRCLE
  5
D6
330
6F
100
AcDbEntity
  8
8-0
  6
Continuous
 62
     4
100
AcDbCircle
 10
386.803328992439
 20
2243.849810106425
 30
0.0
 40
0.125
  0
CIRCLE
  5
D7
330
6F
100
AcDbEntity
  8
8-0
  6
Continuous
 62
     4
100
AcDbCircle
 10
386.803328992439
 20
2243.849810106425
 30
0.0
 40
0.0625
  0
CIRCLE
  5
D8
330
6F
100
AcDbEntity
  8
8-0
  6
Continuous
 62
     4
100
AcDbCircle
 10
386.803328992439
 20
1881.849810106425
 30
0.0
 40
0.25
  0
CIRCLE
  5
D9
330
6F
100
AcDbEntity
  8
8-0
  6
Continuous
 62
     4
100
AcDbCircle
 10
386.803328992439
 20
1881.849810106425
 30
0.0
 40
0.1875
  0
CIRCLE
  5
DA
330
6F
100
AcDbEntity
  8
8-0
  6
Continuous
 62
     4
100
AcDbCircle
 10
386.803328992439
 20
1881.849810106425
 30
0.0
 40
0.125
  0
CIRCLE
  5
DB
330
6F
100
AcDbEntity
  8
8-0
  6
Continuous
 62
     4
100
AcDbCircle
 10
386.803328992439
 20
1881.849810106425
 30
0.0
 40
0.0625
  0
LINE
  5
DC
330
6F
100
AcDbEntity
  8
2-0
  6
Continuous
 62
     7
100
AcDbLine
 10
1143.639005
 20
809.847373
 30
0.0
 11
1143.639005
 21
1409.847373
 31
0.0
  0
LINE
  5
DD
330
6F
100
AcDbEntity
  8
2-0
  6
Continuous
 62
     7
100
AcDbLine
 10
543.6390049999999
 20
1409.847373
 30
0.0
 11
543.6390049999999
 21
809.847373
 31
0.0
  0
LINE
  5
DE
330
6F
100
AcDbEntity
  8
2-0
  6
DASHED2
 62
     7
100
AcDbLine
 10
557.6390049999999
 20
1409.847373
 30
0.0
 11
557.6390049999999
 21
827.3473729999999
 31
0.0
  0
LINE
  5
DF
330
6F
100
AcDbEntity
  8
2-0
  6
DASHED2
 62
     7
100
AcDbLine
 10
1127.139005
 20
827.3473729999999
 30
0.0
 11
1127.139005
 21
1409.847373
 31
0.0
  0
LINE
  5
E0
330
6F
100
AcDbEntity
  8
2-0
  6
Continuous
 62
     7
100
AcDbLine
 10
1143.639005
 20
1409.847373
 30
0.0
 11
543.6390049999999
 21
1409.847373
 31
0.0
  0
LINE
  5
E1
330
6F
100
AcDbEntity
  8
2-0
  6
DASHED2
 62
     7
100
AcDbLine
 10
1143.639005
 20
809.847373
 30
0.0
 11
543.6390049999999
 21
809.847373
 31
0.0
  0
LINE
  5
E2
330
6F
100
AcDbEntity
  8
2-0
  6
Continuous
 62
     7
100
AcDbLine
 10
546.639005
 20
1404.847373
 30
0.0
 11
546.639005
 21
784.8473729999999
 31
0.0
  0
LINE
  5
E3
330
6F
100
AcDbEntity
  8
2-0
  6
DASHED2
 62
     7
100
AcDbLine
 10
1127.139005
 20
1392.147373
 30
0.0
 11
557.6390049999999
 21
1392.147373
 31
0.0
  0
LINE
  5
E4
330
6F
100
AcDbEntity
  8
2-0
  6
DASHED2
 62
     7
100
AcDbLine
 10
1127.139005
 20
1124.847373
 30
0.0
 11
557.6390049999999
 21
1124.847373
 31
0.0
  0
LINE
  5
E5
330
6F
100
AcDbEntity
  8
2-0
  6
DASHED2
 62
     7
100
AcDbLine
 10
1127.139005
 20
1112.847373
 30
0.0
 11
557.6390049999999
 21
1112.847373
 31
0.0
  0
LINE
  5
E6
330
6F
100
AcDbEntity
  8
8-0
  6
Continuous
 62
     4
100
AcDbLine
 10
503.2835259999999
 20
1404.847373
 30
0.0
 11
386.803329
 21
1404.847373
 31
0.0
  0
LINE
  5
E7
330
6F
100
AcDbEntity
  8
8-0
  6
Continuous
 62
     4
100
AcDbLine
 10
526.639005
 20
784.8473729999999
 30
0.0
 11
386.803329
 21
784.8473729999999
 31
0.0
  0
TEXT
  5
E8
330
6F
100
AcDbEntity
  8
8-0
 62
     4
100
AcDbText
 10
386.1830000000001
 20
1061.247
 30
0.0
 40
36.288
  1
620
 50
90.0
100
AcDbText
  0
LINE
  5
E9
330
6F
100
AcDbEntity
  8
8-0
  6
Continuous
 62
     4
100
AcDbLine
 10
386.803328992439
 20
784.847372663836
 30
0.0
 11
386.803328992439
 21
1404.847372663837
 31
0.0
  0
CIRCLE
  5
EA
330
6F
100
AcDbEntity
  8
8-0
  6
Continuous
 62
     4
100
AcDbCircle
 10
386.803328992439
 20
784.847372663836
 30
0.0
 40
0.25
  0
CIRCLE
  5
EB
330
6F
100
AcDbEntity
  8
8-0
  6
Continuous
 62
     4
100
AcDbCircle
 10
386.803328992439
 20
784.847372663836
 30
0.0
 40
0.1875
  0
CIRCLE
  5
EC
330
6F
100
AcDbEntity
  8
8-0
  6
Continuous
 62
     4
100
AcDbCircle
 10
386.803328992439
 20
784.847372663836
 30
0.0
 40
0.125
  0
CIRCLE
  5
ED
330
6F
100
AcDbEntity
  8
8-0
  6
Continuous
 62
     4
100
AcDbCircle
 10
386.803328992439
 20
784.847372663836
 30
0.0
 40
0.0625
  0
CIRCLE
  5
EE
330
6F
100
AcDbEntity
  8
8-0
  6
Continuous
 62
     4
100
AcDbCircle
 10
386.803328992439
 20
1404.847372663837
 30
0.0
 40
0.25
  0
CIRCLE
  5
EF
330
6F
100
AcDbEntity
  8
8-0
  6
Continuous
 62
     4
100
AcDbCircle
 10
386.803328992439
 20
1404.847372663837
 30
0.0
 40
0.1875
  0
CIRCLE
  5
F0
330
6F
100
AcDbEntity
  8
8-0
  6
Continuous
 62
     4
100
AcDbCircle
 10
386.803328992439
 20
1404.847372663837
 30
0.0
 40
0.125
  0
CIRCLE
  5
F1
330
6F
100
AcDbEntity
  8
8-0
  6
Continuous
 62
     4
100
AcDbCircle
 10
386.803328992439
 20
1404.847372663837
 30
0.0
 40
0.0625
  0
LINE
  5
F2
330
6F
100
AcDbEntity
  8
8-0
  6
Continuous
 62
     4
100
AcDbLine
 10
503.2835259999999
 20
1404.847373
 30
0.0
 11
386.803329
 21
1404.847373
 31
0.0
  0
LINE
  5
F3
330
6F
100
AcDbEntity
  8
8-0
  6
Continuous
 62
     4
100
AcDbLine
 10
503.268115
 20
1409.847373
 30
0.0
 11
386.803329
 21
1409.847373
 31
0.0
  0
TEXT
  5
F4
330
6F
100
AcDbEntity
  8
8-0
 62
     4
100
AcDbText
 10
353.6830000000001
 20
1424.958
 30
0.0
 40
36.288
  1
5
 50
90.0
100
AcDbText
  0
LINE
  5
F5
330
6F
100
AcDbEntity
  8
8-0
  6
Continuous
 62
     4
100
AcDbLine
 10
386.803328992439
 20
1409.847372663835
 30
0.0
 11
386.803328992439
 21
1404.847372663837
 31
0.0
  0
CIRCLE
  5
F6
330
6F
100
AcDbEntity
  8
8-0
  6
Continuous
 62
     4
100
AcDbCircle
 10
386.803328992439
 20
1409.847372663835
 30
0.0
 40
0.25
  0
CIRCLE
  5
F7
330
6F
100
AcDbEntity
  8
8-0
  6
Continuous
 62
     4
100
AcDbCircle
 10
386.803328992439
 20
1409.847372663835
 30
0.0
 40
0.1875
  0
CIRCLE
  5
F8
330
6F
100
AcDbEntity
  8
8-0
  6
Continuous
 62
     4
100
AcDbCircle
 10
386.803328992439
 20
1409.847372663835
 30
0.0
 40
0.125
  0
CIRCLE
  5
F9
330
6F
100
AcDbEntity
  8
8-0
  6
Continuous
 62
     4
100
AcDbCircle
 10
386.803328992439
 20
1409.847372663835
 30
0.0
 40
0.0625
  0
CIRCLE
  5
FA
330
6F
100
AcDbEntity
  8
8-0
  6
Continuous
 62
     4
100
AcDbCircle
 10
386.803328992439
 20
1404.847372663837
 30
0.0
 40
0.25
  0
CIRCLE
  5
FB
330
6F
100
AcDbEntity
  8
8-0
  6
Continuous
 62
     4
100
AcDbCircle
 10
386.803328992439
 20
1404.847372663837
 30
0.0
 40
0.1875
  0
CIRCLE
  5
FC
330
6F
100
AcDbEntity
  8
8-0
  6
Continuous
 62
     4
100
AcDbCircle
 10
386.803328992439
 20
1404.847372663837
 30
0.0
 40
0.125
  0
CIRCLE
  5
FD
330
6F
100
AcDbEntity
  8
8-0
  6
Continuous
 62
     4
100
AcDbCircle
 10
386.803328992439
 20
1404.847372663837
 30
0.0
 40
0.0625
  0
LINE
  5
FE
330
6F
100
AcDbEntity
  8
2-0
  6
Continuous
 62
     7
100
AcDbLine
 10
844.6390049999999
 20
1404.847373
 30
0.0
 11
844.6390049999999
 21
784.8473729999999
 31
0.0
  0
LINE
  5
FF
330
6F
100
AcDbEntity
  8
2-0
  6
Continuous
 62
     7
100
AcDbLine
 10
842.639005
 20
1404.847373
 30
0.0
 11
842.639005
 21
784.8473729999999
 31
0.0
  0
LINE
  5
100
330
6F
100
AcDbEntity
  8
2-0
  6
Continuous
 62
     7
100
AcDbLine
 10
1140.639005
 20
1404.847373
 30
0.0
 11
1140.639005
 21
784.8473729999999
 31
0.0
  0
LINE
  5
101
330
6F
100
AcDbEntity
  8
2-0
  6
Continuous
 62
     7
100
AcDbLine
 10
842.639005
 20
1404.847373
 30
0.0
 11
546.639005
 21
1404.847373
 31
0.0
  0
LINE
  5
102
330
6F
100
AcDbEntity
  8
2-0
  6
Continuous
 62
     7
100
AcDbLine
 10
1140.639005
 20
1404.847373
 30
0.0
 11
844.6390049999999
 21
1404.847373
 31
0.0
  0
LINE
  5
103
330
6F
100
AcDbEntity
  8
2-0
  6
Continuous
 62
     7
100
AcDbLine
 10
1140.639005
 20
784.8473729999999
 30
0.0
 11
844.6390049999999
 21
784.8473729999999
 31
0.0
  0
LINE
  5
104
330
6F
100
AcDbEntity
  8
2-0
  6
Continuous
 62
     7
100
AcDbLine
 10
842.639005
 20
784.8473729999999
 30
0.0
 11
546.639005
 21
784.8473729999999
 31
0.0
  0
LINE
  5
105
330
6F
100
AcDbEntity
  8
2-0
  6
CENTER
 62
     8
100
AcDbLine
 10
842.639005
 20
1404.847373
 30
0.0
 11
546.639005
 21
1094.847373
 31
0.0
  0
LINE
  5
106
330
6F
100
AcDbEntity
  8
2-0
  6
CENTER
 62
     8
100
AcDbLine
 10
546.639005
 20
1094.847373
 30
0.0
 11
842.639005
 21
784.8473729999999
 31
0.0
  0
LINE
  5
107
330
6F
100
AcDbEntity
  8
2-0
  6
CENTER
 62
     8
100
AcDbLine
 10
844.6390049999999
 20
1404.847373
 30
0.0
 11
1140.639005
 21
1094.847373
 31
0.0
  0
LINE
  5
108
330
6F
100
AcDbEntity
  8
2-0
  6
CENTER
 62
     8
100
AcDbLine
 10
1140.639005
 20
1094.847373
 30
0.0
 11
844.6390049999999
 21
784.8473729999999
 31
0.0
  0
LINE
  5
109
330
6F
100
AcDbEntity
  8
8-0
  6
Continuous
 62
     4
100
AcDbLine
 10
543.6390049999999
 20
740.805694
 30
0.0
 11
543.6390049999999
 21
675.8450179999999
 31
0.0
  0
LINE
  5
10A
330
6F
100
AcDbEntity
  8
8-0
  6
Continuous
 62
     4
100
AcDbLine
 10
546.639005
 20
739.604157
 30
0.0
 11
546.639005
 21
675.8450179999999
 31
0.0
  0
TEXT
  5
10B
330
6F
100
AcDbEntity
  8
8-0
 62
     4
100
AcDbText
 10
576.072
 20
608.965
 30
0.0
 40
36.288
  1
3
100
AcDbText
  0
LINE
  5
10C
330
6F
100
AcDbEntity
  8
8-0
  6
Continuous
 62
     4
100
AcDbLine
 10
546.639005088615
 20
675.845017717035
 30
0.0
 11
543.639005088615
 21
675.845017717035
 31
0.0
  0
CIRCLE
  5
10D
330
6F
100
AcDbEntity
  8
8-0
  6
Continuous
 62
     4
100
AcDbCircle
 10
546.639005088615
 20
675.845017717035
 30
0.0
 40
0.25
  0
CIRCLE
  5
10E
330
6F
100
AcDbEntity
  8
8-0
  6
Continuous
 62
     4
100
AcDbCircle
 10
546.639005088615
 20
675.845017717035
 30
0.0
 40
0.1875
  0
CIRCLE
  5
10F
330
6F
100
AcDbEntity
  8
8-0
  6
Continuous
 62
     4
100
AcDbCircle
 10
546.639005088615
 20
675.845017717035
 30
0.0
 40
0.125
  0
CIRCLE
  5
110
330
6F
100
AcDbEntity
  8
8-0
  6
Continuous
 62
     4
100
AcDbCircle
 10
546.639005088615
 20
675.845017717035
 30
0.0
 40
0.0625
  0
CIRCLE
  5
111
330
6F
100
AcDbEntity
  8
8-0
  6
Continuous
 62
     4
100
AcDbCircle
 10
543.639005088615
 20
675.845017717035
 30
0.0
 40
0.25
  0
CIRCLE
  5
112
330
6F
100
AcDbEntity
  8
8-0
  6
Continuous
 62
     4
100
AcDbCircle
 10
543.639005088615
 20
675.845017717035
 30
0.0
 40
0.1875
  0
CIRCLE
  5
113
330
6F
100
AcDbEntity
  8
8-0
  6
Continuous
 62
     4
100
AcDbCircle
 10
543.639005088615
 20
675.845017717035
 30
0.0
 40
0.125
  0
CIRCLE
  5
114
330
6F
100
AcDbEntity
  8
8-0
  6
Continuous
 62
     4
100
AcDbCircle
 10
543.639005088615
 20
675.845017717035
 30
0.0
 40
0.0625
  0
LINE
  5
115
330
6F
100
AcDbEntity
  8
8-0
  6
Continuous
 62
     4
100
AcDbLine
 10
842.639005
 20
740.994094
 30
0.0
 11
842.639005
 21
675.8450179999999
 31
0.0
  0
LINE
  5
116
330
6F
100
AcDbEntity
  8
8-0
  6
Continuous
 62
     4
100
AcDbLine
 10
546.639005
 20
739.604157
 30
0.0
 11
546.639005
 21
675.8450179999999
 31
0.0
  0
TEXT
  5
117
330
6F
100
AcDbEntity
  8
8-0
 62
     4
100
AcDbText
 10
663.861
 20
676.465
 30
0.0
 40
36.288
  1
296
100
AcDbText
  0
LINE
  5
118
330
6F
100
AcDbEntity
  8
8-0
  6
Continuous
 62
     4
100
AcDbLine
 10
546.639005088615
 20
675.845017717035
 30
0.0
 11
842.639005088615
 21
675.845017717035
 31
0.0
  0
CIRCLE
  5
119
330
6F
100
AcDbEntity
  8
8-0
  6
Continuous
 62
     4
100
AcDbCircle
 10
546.639005088615
 20
675.845017717035
 30
0.0
 40
0.25
  0
CIRCLE
  5
11A
330
6F
100
AcDbEntity
  8
8-0
  6
Continuous
 62
     4
100
AcDbCircle
 10
546.639005088615
 20
675.845017717035
 30
0.0
 40
0.1875
  0
CIRCLE
  5
11B
330
6F
100
AcDbEntity
  8
8-0
  6
Continuous
 62
     4
100
AcDbCircle
 10
546.639005088615
 20
675.845017717035
 30
0.0
 40
0.125
  0
CIRCLE
  5
11C
330
6F
100
AcDbEntity
  8
8-0
  6
Continuous
 62
     4
100
AcDbCircle
 10
546.639005088615
 20
675.845017717035
 30
0.0
 40
0.0625
  0
CIRCLE
  5
11D
330
6F
100
AcDbEntity
  8
8-0
  6
Continuous
 62
     4
100
AcDbCircle
 10
842.639005088615
 20
675.845017717035
 30
0.0
 40
0.25
  0
CIRCLE
  5
11E
330
6F
100
AcDbEntity
  8
8-0
  6
Continuous
 62
     4
100
AcDbCircle
 10
842.639005088615
 20
675.845017717035
 30
0.0
 40
0.1875
  0
CIRCLE
  5
11F
330
6F
100
AcDbEntity
  8
8-0
  6
Continuous
 62
     4
100
AcDbCircle
 10
842.639005088615
 20
675.845017717035
 30
0.0
 40
0.125
  0
CIRCLE
  5
120
330
6F
100
AcDbEntity
  8
8-0
  6
Continuous
 62
     4
100
AcDbCircle
 10
842.639005088615
 20
675.845017717035
 30
0.0
 40
0.0625
  0
LINE
  5
121
330
6F
100
AcDbEntity
  8
8-0
  6
Continuous
 62
     4
100
AcDbLine
 10
842.639005
 20
740.994094
 30
0.0
 11
842.639005
 21
675.8450179999999
 31
0.0
  0
LINE
  5
122
330
6F
100
AcDbEntity
  8
8-0
  6
Continuous
 62
     4
100
AcDbLine
 10
844.6390049999999
 20
740.985592
 30
0.0
 11
844.6390049999999
 21
675.8450179999999
 31
0.0
  0
LINE
  5
123
330
6F
100
AcDbEntity
  8
8-0
  6
Continuous
 62
     4
100
AcDbLine
 10
832.639005
 20
675.8450179999999
 30
0.0
 11
822.639005
 21
675.8450179999999
 31
0.0
  0
LINE
  5
124
330
6F
100
AcDbEntity
  8
8-0
  6
Continuous
 62
     4
100
AcDbLine
 10
854.6390049999999
 20
675.8450179999999
 30
0.0
 11
864.639005
 21
675.8450179999999
 31
0.0
  0
LINE
  5
125
330
6F
100
AcDbEntity
  8
8-0
  6
Continuous
 62
     4
100
AcDbLine
 10
843.6390049999999
 20
675.8450179999999
 30
0.0
 11
805.729005
 21
714.3830809999999
 31
0.0
  0
LINE
  5
126
330
6F
100
AcDbEntity
  8
8-0
  6
Continuous
 62
     4
100
AcDbLine
 10
805.729005
 20
714.3830809999999
 30
0.0
 11
767.607178
 21
714.3830809999999
 31
0.0
  0
TEXT
  5
127
330
6F
100
AcDbEntity
  8
8-0
 62
     4
100
AcDbText
 10
778.2899999999999
 20
715.003
 30
0.0
 40
36.288
  1
2
100
AcDbText
  0
LINE
  5
128
330
6F
100
AcDbEntity
  8
8-0
  6
Continuous
 62
     4
100
AcDbLine
 10
842.639005
 20
675.8450179999999
 30
0.0
 11
844.6390049999999
 21
675.8450179999999
 31
0.0
  0
LINE
  5
129
330
6F
100
AcDbEntity
  8
8-0
  6
Continuous
 62
     4
100
AcDbLine
 10
842.639005
 20
675.8450179999999
 30
0.0
 11
844.6390049999999
 21
675.8450179999999
 31
0.0
  0
CIRCLE
  5
12A
330
6F
100
AcDbEntity
  8
8-0
  6
Continuous
 62
     4
100
AcDbCircle
 10
842.639005088615
 20
675.845017717035
 30
0.0
 40
0.25
  0
CIRCLE
  5
12B
330
6F
100
AcDbEntity
  8
8-0
  6
Continuous
 62
     4
100
AcDbCircle
 10
842.639005088615
 20
675.845017717035
 30
0.0
 40
0.1875
  0
CIRCLE
  5
12C
330
6F
100
AcDbEntity
  8
8-0
  6
Continuous
 62
     4
100
AcDbCircle
 10
842.639005088615
 20
675.845017717035
 30
0.0
 40
0.125
  0
CIRCLE
  5
12D
330
6F
100
AcDbEntity
  8
8-0
  6
Continuous
 62
     4
100
AcDbCircle
 10
842.639005088615
 20
675.845017717035
 30
0.0
 40
0.0625
  0
ARC
  5
12E
330
6F
100
AcDbEntity
  8
8-0
 62
     4
100
AcDbCircle
 10
842.639005088615
 20
675.850017717035
 30
0.0
 40
2.5
100
AcDbArc
 50
0.1145914065300158
 51
180.114591405945
  0
LINE
  5
12F
330
6F
100
AcDbEntity
  8
8-0
 62
     4
100
AcDbLine
 10
837.6390050886149
 20
675.845017717035
 30
0.0
 11
832.6390050886148
 21
675.845017717035
 31
0.0
  0
CIRCLE
  5
130
330
6F
100
AcDbEntity
  8
8-0
  6
Continuous
 62
     4
100
AcDbCircle
 10
844.6390050886149
 20
675.845017717035
 30
0.0
 40
0.25
  0
CIRCLE
  5
131
330
6F
100
AcDbEntity
  8
8-0
  6
Continuous
 62
     4
100
AcDbCircle
 10
844.6390050886149
 20
675.845017717035
 30
0.0
 40
0.1875
  0
CIRCLE
  5
132
330
6F
100
AcDbEntity
  8
8-0
  6
Continuous
 62
     4
100
AcDbCircle
 10
844.6390050886149
 20
675.845017717035
 30
0.0
 40
0.125
  0
CIRCLE
  5
133
330
6F
100
AcDbEntity
  8
8-0
  6
Continuous
 62
     4
100
AcDbCircle
 10
844.6390050886149
 20
675.845017717035
 30
0.0
 40
0.0625
  0
ARC
  5
134
330
6F
100
AcDbEntity
  8
8-0
 62
     4
100
AcDbCircle
 10
844.6390050886149
 20
675.840017717035
 30
0.0
 40
2.5
100
AcDbArc
 50
180.1145914065301
 51
0.1145914059449637
  0
LINE
  5
135
330
6F
100
AcDbEntity
  8
8-0
 62
     4
100
AcDbLine
 10
849.6390050886148
 20
675.845017717086
 30
0.0
 11
854.6390050886149
 21
675.8450177171369
 31
0.0
  0
LINE
  5
136
330
6F
100
AcDbEntity
  8
8-0
  6
Continuous
 62
     4
100
AcDbLine
 10
1140.639005
 20
742.375529
 30
0.0
 11
1140.639005
 21
675.8450179999999
 31
0.0
  0
LINE
  5
137
330
6F
100
AcDbEntity
  8
8-0
  6
Continuous
 62
     4
100
AcDbLine
 10
844.6390049999999
 20
740.985592
 30
0.0
 11
844.6390049999999
 21
675.8450179999999
 31
0.0
  0
TEXT
  5
138
330
6F
100
AcDbEntity
  8
8-0
 62
     4
100
AcDbText
 10
961.8610000000002
 20
676.465
 30
0.0
 40
36.288
  1
296
100
AcDbText
  0
LINE
  5
139
330
6F
100
AcDbEntity
  8
8-0
  6
Continuous
 62
     4
100
AcDbLine
 10
844.6390050886149
 20
675.845017717035
 30
0.0
 11
1140.639005088615
 21
675.845017717035
 31
0.0
  0
CIRCLE
  5
13A
330
6F
100
AcDbEntity
  8
8-0
  6
Continuous
 62
     4
100
AcDbCircle
 10
844.6390050886149
 20
675.845017717035
 30
0.0
 40
0.25
  0
CIRCLE
  5
13B
330
6F
100
AcDbEntity
  8
8-0
  6
Continuous
 62
     4
100
AcDbCircle
 10
844.6390050886149
 20
675.845017717035
 30
0.0
 40
0.1875
  0
CIRCLE
  5
13C
330
6F
100
AcDbEntity
  8
8-0
  6
Continuous
 62
     4
100
AcDbCircle
 10
844.6390050886149
 20
675.845017717035
 30
0.0
 40
0.125
  0
CIRCLE
  5
13D
330
6F
100
AcDbEntity
  8
8-0
  6
Continuous
 62
     4
100
AcDbCircle
 10
844.6390050886149
 20
675.845017717035
 30
0.0
 40
0.0625
  0
CIRCLE
  5
13E
330
6F
100
AcDbEntity
  8
8-0
  6
Continuous
 62
     4
100
AcDbCircle
 10
1140.639005088615
 20
675.845017717035
 30
0.0
 40
0.25
  0
CIRCLE
  5
13F
330
6F
100
AcDbEntity
  8
8-0
  6
Continuous
 62
     4
100
AcDbCircle
 10
1140.639005088615
 20
675.845017717035
 30
0.0
 40
0.1875
  0
CIRCLE
  5
140
330
6F
100
AcDbEntity
  8
8-0
  6
Continuous
 62
     4
100
AcDbCircle
 10
1140.639005088615
 20
675.845017717035
 30
0.0
 40
0.125
  0
CIRCLE
  5
141
330
6F
100
AcDbEntity
  8
8-0
  6
Continuous
 62
     4
100
AcDbCircle
 10
1140.639005088615
 20
675.845017717035
 30
0.0
 40
0.0625
  0
LINE
  5
142
330
6F
100
AcDbEntity
  8
8-0
  6
Continuous
 62
     4
100
AcDbLine
 10
1140.639005
 20
743.752714
 30
0.0
 11
1140.639005
 21
675.8450179999999
 31
0.0
  0
LINE
  5
143
330
6F
100
AcDbEntity
  8
8-0
  6
Continuous
 62
     4
100
AcDbLine
 10
1143.639005
 20
743.7229599999999
 30
0.0
 11
1143.639005
 21
675.8450179999999
 31
0.0
  0
TEXT
  5
144
330
6F
100
AcDbEntity
  8
8-0
 62
     4
100
AcDbText
 10
1173.072
 20
608.965
 30
0.0
 40
36.288
  1
3
100
AcDbText
  0
LINE
  5
145
330
6F
100
AcDbEntity
  8
8-0
  6
Continuous
 62
     4
100
AcDbLine
 10
1143.639005088615
 20
675.845017717035
 30
0.0
 11
1140.639005088615
 21
675.845017717035
 31
0.0
  0
CIRCLE
  5
146
330
6F
100
AcDbEntity
  8
8-0
  6
Continuous
 62
     4
100
AcDbCircle
 10
1143.639005088615
 20
675.845017717035
 30
0.0
 40
0.25
  0
CIRCLE
  5
147
330
6F
100
AcDbEntity
  8
8-0
  6
Continuous
 62
     4
100
AcDbCircle
 10
1143.639005088615
 20
675.845017717035
 30
0.0
 40
0.1875
  0
CIRCLE
  5
148
330
6F
100
AcDbEntity
  8
8-0
  6
Continuous
 62
     4
100
AcDbCircle
 10
1143.639005088615
 20
675.845017717035
 30
0.0
 40
0.125
  0
CIRCLE
  5
149
330
6F
100
AcDbEntity
  8
8-0
  6
Continuous
 62
     4
100
AcDbCircle
 10
1143.639005088615
 20
675.845017717035
 30
0.0
 40
0.0625
  0
CIRCLE
  5
14A
330
6F
100
AcDbEntity
  8
8-0
  6
Continuous
 62
     4
100
AcDbCircle
 10
1140.639005088615
 20
675.845017717035
 30
0.0
 40
0.25
  0
CIRCLE
  5
14B
330
6F
100
AcDbEntity
  8
8-0
  6
Continuous
 62
     4
100
AcDbCircle
 10
1140.639005088615
 20
675.845017717035
 30
0.0
 40
0.1875
  0
CIRCLE
  5
14C
330
6F
100
AcDbEntity
  8
8-0
  6
Continuous
 62
     4
100
AcDbCircle
 10
1140.639005088615
 20
675.845017717035
 30
0.0
 40
0.125
  0
CIRCLE
  5
14D
330
6F
100
AcDbEntity
  8
8-0
  6
Continuous
 62
     4
100
AcDbCircle
 10
1140.639005088615
 20
675.845017717035
 30
0.0
 40
0.0625
  0
LINE
  5
14E
330
6F
100
AcDbEntity
  8
8-0
  6
Continuous
 62
     4
100
AcDbLine
 10
1143.639005
 20
693.8249729999999
 30
0.0
 11
1143.639005
 21
575.8450179999999
 31
0.0
  0
LINE
  5
14F
330
6F
100
AcDbEntity
  8
8-0
  6
Continuous
 62
     4
100
AcDbLine
 10
543.6390049999999
 20
689.5744029999999
 30
0.0
 11
543.6390049999999
 21
575.8450179999999
 31
0.0
  0
TEXT
  5
150
330
6F
100
AcDbEntity
  8
8-0
 62
     4
100
AcDbText
 10
812.8610000000001
 20
576.465
 30
0.0
 40
36.288
  1
600
100
AcDbText
  0
LINE
  5
151
330
6F
100
AcDbEntity
  8
8-0
  6
Continuous
 62
     4
100
AcDbLine
 10
543.639005088615
 20
575.845017717035
 30
0.0
 11
1143.639005088615
 21
575.845017717035
 31
0.0
  0
CIRCLE
  5
152
330
6F
100
AcDbEntity
  8
8-0
  6
Continuous
 62
     4
100
AcDbCircle
 10
543.639005088615
 20
575.845017717035
 30
0.0
 40
0.25
  0
CIRCLE
  5
153
330
6F
100
AcDbEntity
  8
8-0
  6
Continuous
 62
     4
100
AcDbCircle
 10
543.639005088615
 20
575.845017717035
 30
0.0
 40
0.1875
  0
CIRCLE
  5
154
330
6F
100
AcDbEntity
  8
8-0
  6
Continuous
 62
     4
100
AcDbCircle
 10
543.639005088615
 20
575.845017717035
 30
0.0
 40
0.125
  0
CIRCLE
  5
155
330
6F
100
AcDbEntity
  8
8-0
  6
Continuous
 62
     4
100
AcDbCircle
 10
543.639005088615
 20
575.845017717035
 30
0.0
 40
0.0625
  0
CIRCLE
  5
156
330
6F
100
AcDbEntity
  8
8-0
  6
Continuous
 62
     4
100
AcDbCircle
 10
1143.639005088615
 20
575.845017717035
 30
0.0
 40
0.25
  0
CIRCLE
  5
157
330
6F
100
AcDbEntity
  8
8-0
  6
Continuous
 62
     4
100
AcDbCircle
 10
1143.639005088615
 20
575.845017717035
 30
0.0
 40
0.1875
  0
CIRCLE
  5
158
330
6F
100
AcDbEntity
  8
8-0
  6
Continuous
 62
     4
100
AcDbCircle
 10
1143.639005088615
 20
575.845017717035
 30
0.0
 40
0.125
  0
CIRCLE
  5
159
330
6F
100
AcDbEntity
  8
8-0
  6
Continuous
 62
     4
100
AcDbCircle
 10
1143.639005088615
 20
575.845017717035
 30
0.0
 40
0.0625
  0
LINE
  5
15A
330
6F
100
AcDbEntity
  8
8-0
  6
Continuous
 62
     4
100
AcDbLine
 10
558.639005
 20
2283.813308
 30
0.0
 11
558.639005
 21
2348.195423
 31
0.0
  0
LINE
  5
15B
330
6F
100
AcDbEntity
  8
8-0
  6
Continuous
 62
     4
100
AcDbLine
 10
598.6390049999999
 20
2287.837671
 30
0.0
 11
598.6390049999999
 21
2348.195423
 31
0.0
  0
TEXT
  5
15C
330
6F
100
AcDbEntity
  8
8-0
 62
     4
100
AcDbText
 10
599.954
 20
2381.315
 30
0.0
 40
36.288
  1
40
100
AcDbText
  0
LINE
  5
15D
330
6F
100
AcDbEntity
  8
8-0
  6
Continuous
 62
     4
100
AcDbLine
 10
598.639005088615
 20
2348.195423032144
 30
0.0
 11
558.639005088615
 21
2348.195423032144
 31
0.0
  0
CIRCLE
  5
15E
330
6F
100
AcDbEntity
  8
8-0
  6
Continuous
 62
     4
100
AcDbCircle
 10
598.639005088615
 20
2348.195423032144
 30
0.0
 40
0.25
  0
CIRCLE
  5
15F
330
6F
100
AcDbEntity
  8
8-0
  6
Continuous
 62
     4
100
AcDbCircle
 10
598.639005088615
 20
2348.195423032144
 30
0.0
 40
0.1875
  0
CIRCLE
  5
160
330
6F
100
AcDbEntity
  8
8-0
  6
Continuous
 62
     4
100
AcDbCircle
 10
598.639005088615
 20
2348.195423032144
 30
0.0
 40
0.125
  0
CIRCLE
  5
161
330
6F
100
AcDbEntity
  8
8-0
  6
Continuous
 62
     4
100
AcDbCircle
 10
598.639005088615
 20
2348.195423032144
 30
0.0
 40
0.0625
  0
CIRCLE
  5
162
330
6F
100
AcDbEntity
  8
8-0
  6
Continuous
 62
     4
100
AcDbCircle
 10
558.639005088615
 20
2348.195423032144
 30
0.0
 40
0.25
  0
CIRCLE
  5
163
330
6F
100
AcDbEntity
  8
8-0
  6
Continuous
 62
     4
100
AcDbCircle
 10
558.639005088615
 20
2348.195423032144
 30
0.0
 40
0.1875
  0
CIRCLE
  5
164
330
6F
100
AcDbEntity
  8
8-0
  6
Continuous
 62
     4
100
AcDbCircle
 10
558.639005088615
 20
2348.195423032144
 30
0.0
 40
0.125
  0
CIRCLE
  5
165
330
6F
100
AcDbEntity
  8
8-0
  6
Continuous
 62
     4
100
AcDbCircle
 10
558.639005088615
 20
2348.195423032144
 30
0.0
 40
0.0625
  0
LINE
  5
166
330
6F
100
AcDbEntity
  8
8-0
  6
Continuous
 62
     4
100
AcDbLine
 10
558.639005
 20
2283.813308
 30
0.0
 11
558.639005
 21
2348.195423
 31
0.0
  0
LINE
  5
167
330
6F
100
AcDbEntity
  8
8-0
  6
Continuous
 62
     4
100
AcDbLine
 10
543.6390049999999
 20
2285.423053
 30
0.0
 11
543.6390049999999
 21
2348.195423
 31
0.0
  0
LINE
  5
168
330
6F
100
AcDbEntity
  8
8-0
  6
Continuous
 62
     4
100
AcDbLine
 10
568.6390049999999
 20
2348.195423
 30
0.0
 11
578.639005
 21
2348.195423
 31
0.0
  0
LINE
  5
169
330
6F
100
AcDbEntity
  8
8-0
  6
Continuous
 62
     4
100
AcDbLine
 10
533.639005
 20
2348.195423
 30
0.0
 11
523.6390049999999
 21
2348.195423
 31
0.0
  0
LINE
  5
16A
330
6F
100
AcDbEntity
  8
8-0
  6
Continuous
 62
     4
100
AcDbLine
 10
551.139005
 20
2348.195423
 30
0.0
 11
527.8611059999999
 21
2378.576134
 31
0.0
  0
LINE
  5
16B
330
6F
100
AcDbEntity
  8
8-0
  6
Continuous
 62
     4
100
AcDbLine
 10
527.8611059999999
 20
2378.576134
 30
0.0
 11
424.003238
 21
2378.576134
 31
0.0
  0
TEXT
  5
16C
330
6F
100
AcDbEntity
  8
8-0
 62
     4
100
AcDbText
 10
433.955
 20
2379.196
 30
0.0
 40
36.288
  1
17.5
100
AcDbText
  0
LINE
  5
16D
330
6F
100
AcDbEntity
  8
8-0
  6
Continuous
 62
     4
100
AcDbLine
 10
558.639005
 20
2348.195423
 30
0.0
 11
543.6390049999999
 21
2348.195423
 31
0.0
  0
LINE
  5
16E
330
6F
100
AcDbEntity
  8
8-0
  6
Continuous
 62
     4
100
AcDbLine
 10
558.639005
 20
2348.195423
 30
0.0
 11
543.6390049999999
 21
2348.195423
 31
0.0
  0
CIRCLE
  5
16F
330
6F
100
AcDbEntity
  8
8-0
  6
Continuous
 62
     4
100
AcDbCircle
 10
558.639005088615
 20
2348.195423032144
 30
0.0
 40
0.25
  0
CIRCLE
  5
170
330
6F
100
AcDbEntity
  8
8-0
  6
Continuous
 62
     4
100
AcDbCircle
 10
558.639005088615
 20
2348.195423032144
 30
0.0
 40
0.1875
  0
CIRCLE
  5
171
330
6F
100
AcDbEntity
  8
8-0
  6
Continuous
 62
     4
100
AcDbCircle
 10
558.639005088615
 20
2348.195423032144
 30
0.0
 40
0.125
  0
CIRCLE
  5
172
330
6F
100
AcDbEntity
  8
8-0
  6
Continuous
 62
     4
100
AcDbCircle
 10
558.639005088615
 20
2348.195423032144
 30
0.0
 40
0.0625
  0
ARC
  5
173
330
6F
100
AcDbEntity
  8
8-0
 62
     4
100
AcDbCircle
 10
558.639005088615
 20
2348.190423032144
 30
0.0
 40
2.5
100
AcDbArc
 50
180.1145914065301
 51
0.1145914059449637
  0
LINE
  5
174
330
6F
100
AcDbEntity
  8
8-0
 62
     4
100
AcDbLine
 10
563.6390050886149
 20
2348.195423032195
 30
0.0
 11
568.639005088615
 21
2348.195423032246
 31
0.0
  0
CIRCLE
  5
175
330
6F
100
AcDbEntity
  8
8-0
  6
Continuous
 62
     4
100
AcDbCircle
 10
543.639005088615
 20
2348.195423032144
 30
0.0
 40
0.25
  0
CIRCLE
  5
176
330
6F
100
AcDbEntity
  8
8-0
  6
Continuous
 62
     4
100
AcDbCircle
 10
543.639005088615
 20
2348.195423032144
 30
0.0
 40
0.1875
  0
CIRCLE
  5
177
330
6F
100
AcDbEntity
  8
8-0
  6
Continuous
 62
     4
100
AcDbCircle
 10
543.639005088615
 20
2348.195423032144
 30
0.0
 40
0.125
  0
CIRCLE
  5
178
330
6F
100
AcDbEntity
  8
8-0
  6
Continuous
 62
     4
100
AcDbCircle
 10
543.639005088615
 20
2348.195423032144
 30
0.0
 40
0.0625
  0
ARC
  5
179
330
6F
100
AcDbEntity
  8
8-0
 62
     4
100
AcDbCircle
 10
543.639005088615
 20
2348.200423032144
 30
0.0
 40
2.5
100
AcDbArc
 50
0.1145914065300158
 51
180.114591405945
  0
LINE
  5
17A
330
6F
100
AcDbEntity
  8
8-0
 62
     4
100
AcDbLine
 10
538.6390050886149
 20
2348.195423032144
 30
0.0
 11
533.639005088615
 21
2348.195423032144
 31
0.0
  0
LINE
  5
17B
330
6F
100
AcDbEntity
  8
8-0
  6
Continuous
 62
     4
100
AcDbLine
 10
1126.139005
 20
2283.813308
 30
0.0
 11
1126.139005
 21
2348.195423
 31
0.0
  0
LINE
  5
17C
330
6F
100
AcDbEntity
  8
8-0
  6
Continuous
 62
     4
100
AcDbLine
 10
1143.639005
 20
2285.423053
 30
0.0
 11
1143.639005
 21
2348.195423
 31
0.0
  0
LINE
  5
17D
330
6F
100
AcDbEntity
  8
8-0
  6
Continuous
 62
     4
100
AcDbLine
 10
1116.139005
 20
2348.195423
 30
0.0
 11
1106.139005
 21
2348.195423
 31
0.0
  0
LINE
  5
17E
330
6F
100
AcDbEntity
  8
8-0
  6
Continuous
 62
     4
100
AcDbLine
 10
1153.639005
 20
2348.195423
 30
0.0
 11
1163.639005
 21
2348.195423
 31
0.0
  0
LINE
  5
17F
330
6F
100
AcDbEntity
  8
8-0
  6
Continuous
 62
     4
100
AcDbLine
 10
1134.889005
 20
2348.195423
 30
0.0
 11
1159.416904
 21
2378.576134
 31
0.0
  0
LINE
  5
180
330
6F
100
AcDbEntity
  8
8-0
  6
Continuous
 62
     4
100
AcDbLine
 10
1159.416904
 20
2378.576134
 30
0.0
 11
1263.274772
 21
2378.576134
 31
0.0
  0
TEXT
  5
181
330
6F
100
AcDbEntity
  8
8-0
 62
     4
100
AcDbText
 10
1169.368
 20
2379.196
 30
0.0
 40
36.288
  1
17.5
100
AcDbText
  0
LINE
  5
182
330
6F
100
AcDbEntity
  8
8-0
  6
Continuous
 62
     4
100
AcDbLine
 10
1126.139005
 20
2348.195423
 30
0.0
 11
1143.639005
 21
2348.195423
 31
0.0
  0
LINE
  5
183
330
6F
100
AcDbEntity
  8
8-0
  6
Continuous
 62
     4
100
AcDbLine
 10
1126.139005
 20
2348.195423
 30
0.0
 11
1143.639005
 21
2348.195423
 31
0.0
  0
CIRCLE
  5
184
330
6F
100
AcDbEntity
  8
8-0
  6
Continuous
 62
     4
100
AcDbCircle
 10
1126.139005088615
 20
2348.195423032144
 30
0.0
 40
0.25
  0
CIRCLE
  5
185
330
6F
100
AcDbEntity
  8
8-0
  6
Continuous
 62
     4
100
AcDbCircle
 10
1126.139005088615
 20
2348.195423032144
 30
0.0
 40
0.1875
  0
CIRCLE
  5
186
330
6F
100
AcDbEntity
  8
8-0
  6
Continuous
 62
     4
100
AcDbCircle
 10
1126.139005088615
 20
2348.195423032144
 30
0.0
 40
0.125
  0
CIRCLE
  5
187
330
6F
100
AcDbEntity
  8
8-0
  6
Continuous
 62
     4
100
AcDbCircle
 10
1126.139005088615
 20
2348.195423032144
 30
0.0
 40
0.0625
  0
ARC
  5
188
330
6F
100
AcDbEntity
  8
8-0
 62
     4
100
AcDbCircle
 10
1126.139005088615
 20
2348.200423032144
 30
0.0
 40
2.5
100
AcDbArc
 50
0.1145914065300158
 51
180.114591405945
  0
LINE
  5
189
330
6F
100
AcDbEntity
  8
8-0
 62
     4
100
AcDbLine
 10
1121.139005088615
 20
2348.195423032144
 30
0.0
 11
1116.139005088615
 21
2348.195423032144
 31
0.0
  0
CIRCLE
  5
18A
330
6F
100
AcDbEntity
  8
8-0
  6
Continuous
 62
     4
100
AcDbCircle
 10
1143.639005088615
 20
2348.195423032144
 30
0.0
 40
0.25
  0
CIRCLE
  5
18B
330
6F
100
AcDbEntity
  8
8-0
  6
Continuous
 62
     4
100
AcDbCircle
 10
1143.639005088615
 20
2348.195423032144
 30
0.0
 40
0.1875
  0
CIRCLE
  5
18C
330
6F
100
AcDbEntity
  8
8-0
  6
Continuous
 62
     4
100
AcDbCircle
 10
1143.639005088615
 20
2348.195423032144
 30
0.0
 40
0.125
  0
CIRCLE
  5
18D
330
6F
100
AcDbEntity
  8
8-0
  6
Continuous
 62
     4
100
AcDbCircle
 10
1143.639005088615
 20
2348.195423032144
 30
0.0
 40
0.0625
  0
ARC
  5
18E
330
6F
100
AcDbEntity
  8
8-0
 62
     4
100
AcDbCircle
 10
1143.639005088615
 20
2348.190423032144
 30
0.0
 40
2.5
100
AcDbArc
 50
180.1145914065301
 51
0.1145914059449637
  0
LINE
  5
18F
330
6F
100
AcDbEntity
  8
8-0
 62
     4
100
AcDbLine
 10
1148.639005088615
 20
2348.195423032195
 30
0.0
 11
1153.639005088615
 21
2348.195423032246
 31
0.0
  0
LINE
  5
190
330
6F
100
AcDbEntity
  8
8-0
  6
Continuous
 62
     4
100
AcDbLine
 10
1126.139005
 20
2283.813308
 30
0.0
 11
1126.139005
 21
2348.195423
 31
0.0
  0
LINE
  5
191
330
6F
100
AcDbEntity
  8
8-0
  6
Continuous
 62
     4
100
AcDbLine
 10
1086.139005
 20
2287.837671
 30
0.0
 11
1086.139005
 21
2348.195423
 31
0.0
  0
LINE
  5
192
330
6F
100
AcDbEntity
  8
8-0
  6
Continuous
 62
     4
100
AcDbLine
 10
1116.139005
 20
2348.195423
 30
0.0
 11
1096.139005
 21
2348.195423
 31
0.0
  0
LINE
  5
193
330
6F
100
AcDbEntity
  8
8-0
  6
Continuous
 62
     4
100
AcDbLine
 10
1106.139005
 20
2348.195423
 30
0.0
 11
1082.41812
 21
2378.543606
 31
0.0
  0
LINE
  5
194
330
6F
100
AcDbEntity
  8
8-0
  6
Continuous
 62
     4
100
AcDbLine
 10
1082.41812
 20
2378.543606
 30
0.0
 11
1020.133856
 21
2378.543606
 31
0.0
  0
TEXT
  5
195
330
6F
100
AcDbEntity
  8
8-0
 62
     4
100
AcDbText
 10
1031.698
 20
2379.164
 30
0.0
 40
36.288
  1
40
100
AcDbText
  0
CIRCLE
  5
196
330
6F
100
AcDbEntity
  8
8-0
  6
Continuous
 62
     4
100
AcDbCircle
 10
1126.139005088615
 20
2348.195423032144
 30
0.0
 40
0.25
  0
CIRCLE
  5
197
330
6F
100
AcDbEntity
  8
8-0
  6
Continuous
 62
     4
100
AcDbCircle
 10
1126.139005088615
 20
2348.195423032144
 30
0.0
 40
0.1875
  0
CIRCLE
  5
198
330
6F
100
AcDbEntity
  8
8-0
  6
Continuous
 62
     4
100
AcDbCircle
 10
1126.139005088615
 20
2348.195423032144
 30
0.0
 40
0.125
  0
CIRCLE
  5
199
330
6F
100
AcDbEntity
  8
8-0
  6
Continuous
 62
     4
100
AcDbCircle
 10
1126.139005088615
 20
2348.195423032144
 30
0.0
 40
0.0625
  0
ARC
  5
19A
330
6F
100
AcDbEntity
  8
8-0
 62
     4
100
AcDbCircle
 10
1126.139005088615
 20
2348.200423032144
 30
0.0
 40
2.5
100
AcDbArc
 50
0.1145914065300158
 51
180.114591405945
  0
LINE
  5
19B
330
6F
100
AcDbEntity
  8
8-0
 62
     4
100
AcDbLine
 10
1121.139005088615
 20
2348.195423032144
 30
0.0
 11
1116.139005088615
 21
2348.195423032144
 31
0.0
  0
CIRCLE
  5
19C
330
6F
100
AcDbEntity
  8
8-0
  6
Continuous
 62
     4
100
AcDbCircle
 10
1086.139005088615
 20
2348.195423032144
 30
0.0
 40
0.25
  0
CIRCLE
  5
19D
330
6F
100
AcDbEntity
  8
8-0
  6
Continuous
 62
     4
100
AcDbCircle
 10
1086.139005088615
 20
2348.195423032144
 30
0.0
 40
0.1875
  0
CIRCLE
  5
19E
330
6F
100
AcDbEntity
  8
8-0
  6
Continuous
 62
     4
100
AcDbCircle
 10
1086.139005088615
 20
2348.195423032144
 30
0.0
 40
0.125
  0
CIRCLE
  5
19F
330
6F
100
AcDbEntity
  8
8-0
  6
Continuous
 62
     4
100
AcDbCircle
 10
1086.139005088615
 20
2348.195423032144
 30
0.0
 40
0.0625
  0
ARC
  5
1A0
330
6F
100
AcDbEntity
  8
8-0
 62
     4
100
AcDbCircle
 10
1086.139005088615
 20
2348.190423032144
 30
0.0
 40
2.5
100
AcDbArc
 50
180.1145914065301
 51
0.1145914059449637
  0
LINE
  5
1A1
330
6F
100
AcDbEntity
  8
8-0
 62
     4
100
AcDbLine
 10
1091.139005088615
 20
2348.195423032195
 30
0.0
 11
1096.139005088615
 21
2348.195423032246
 31
0.0
  0
LINE
  5
1A2
330
6F
100
AcDbEntity
  8
2-0
  6
DASHED2
 62
     7
100
AcDbLine
 10
557.6390049999999
 20
827.3473729999999
 30
0.0
 11
1126.139005
 21
827.3473729999999
 31
0.0
  0
CIRCLE
  5
1A3
330
6F
100
AcDbEntity
  8
2-0
  6
CENTER
 62
     7
100
AcDbCircle
 10
1138.144580270816
 20
818.205077032951
 30
0.0
 40
35.65880700000001
  0
TEXT
  5
1A4
330
6F
100
AcDbEntity
  8
2-0
 62
     7
100
AcDbText
 10
1190.251
 20
752.1360000000001
 30
0.0
 40
25.92
  1
A
100
AcDbText
  0
CIRCLE
  5
1A5
330
6F
100
AcDbEntity
  8
2-0
  6
CENTER
 62
     7
100
AcDbCircle
 10
550.2338542399059
 20
818.205077032951
 30
0.0
 40
35.65880700000001
  0
TEXT
  5
1A6
330
6F
100
AcDbEntity
  8
2-0
 62
     7
100
AcDbText
 10
602.34
 20
752.1360000000001
 30
0.0
 40
25.92
  1
A
100
AcDbText
  0
LINE
  5
1A7
330
6F
100
AcDbEntity
  8
2-0
  6
Continuous
 62
     7
100
AcDbLine
 10
1780.891838
 20
1409.847373
 30
0.0
 11
2125.891838
 21
1409.847373
 31
0.0
  0
TEXT
  5
1A8
330
6F
100
AcDbEntity
  8
D-0
 62
     5
100
AcDbText
 10
3223.578
 20
766.5449999999999
 30
0.0
 40
20.736
  1
火山性ガラス質複層板 6t（化粧仕上）
100
AcDbText
  0
LINE
  5
1A9
330
6F
100
AcDbEntity
  8
2-0
  6
Continuous
 62
     7
100
AcDbLine
 10
3139.940864679863
 20
868.6705403309378
 30
0.0
 11
3201.965593618699
 21
758.15510881631
 31
0.0
  0
LINE
  5
1AA
330
6F
100
AcDbEntity
  8
2-0
  6
Continuous
 62
     7
100
AcDbLine
 10
3201.965593618699
 20
758.15510881631
 30
0.0
 11
3690.509965913071
 21
758.15510881631
 31
0.0
  0
LINE
  5
1AB
330
6F
100
AcDbEntity
  8
2-0
  6
Continuous
 62
     7
100
AcDbLine
 10
3235.82631
 20
1151.416279
 30
0.0
 11
3320.82631
 21
1151.416279
 31
0.0
  0
LINE
  5
1AC
330
6F
100
AcDbEntity
  8
2-0
  6
Continuous
 62
     7
100
AcDbLine
 10
2967.947217
 20
857.403859
 30
0.0
 11
3320.82631
 21
857.403859
 31
0.0
  0
LINE
  5
1AD
330
6F
100
AcDbEntity
  8
2-0
  6
Continuous
 62
     7
100
AcDbLine
 10
2967.947217
 20
887.4038589999999
 30
0.0
 11
3275.82631
 21
887.4038589999999
 31
0.0
  0
LINE
  5
1AE
330
6F
100
AcDbEntity
  8
2-0
  6
Continuous
 62
     7
100
AcDbLine
 10
2967.947217
 20
944.903859
 30
0.0
 11
2967.947217
 21
857.403859
 31
0.0
  0
LINE
  5
1AF
330
6F
100
AcDbEntity
  8
2-0
  6
Continuous
 62
     7
100
AcDbLine
 10
3251.975791
 20
887.4038589999999
 30
0.0
 11
3251.975791
 21
1151.416279
 31
0.0
  0
LINE
  5
1B0
330
6F
100
AcDbEntity
  8
2-0
  6
Continuous
 62
     7
100
AcDbLine
 10
3235.82631
 20
887.4038589999999
 30
0.0
 11
3235.82631
 21
1151.416279
 31
0.0
  0
LINE
  5
1B1
330
6F
100
AcDbEntity
  8
2-0
  6
Continuous
 62
     7
100
AcDbLine
 10
3248.32631
 20
887.4038589999999
 30
0.0
 11
3248.32631
 21
1151.416279
 31
0.0
  0
TEXT
  5
1B2
330
6F
100
AcDbEntity
  8
D-0
 62
     5
100
AcDbText
 10
2901.269
 20
1009.905
 30
0.0
 40
20.736
  1
パーチクルボード
100
AcDbText
  0
LINE
  5
1B3
330
6F
100
AcDbEntity
  8
2-0
  6
Continuous
 62
     7
100
AcDbLine
 10
3182.688737062673
 20
911.268717456336
 30
0.0
 11
3124.455832129466
 21
1002.026828984329
 31
0.0
  0
LINE
  5
1B4
330
6F
100
AcDbEntity
  8
2-0
  6
Continuous
 62
     7
100
AcDbLine
 10
3124.455832129466
 20
1002.026828984329
 30
0.0
 11
2894.34219576583
 21
1002.026828984329
 31
0.0
  0
LINE
  5
1B5
330
6F
100
AcDbEntity
  8
2-0
  6
Continuous
 62
     7
100
AcDbLine
 10
2967.947217
 20
932.403859
 30
0.0
 11
3235.82631
 21
932.403859
 31
0.0
  0
LINE
  5
1B6
330
6F
100
AcDbEntity
  8
2-0
  6
Continuous
 62
     7
100
AcDbLine
 10
2967.947217
 20
944.903859
 30
0.0
 11
3235.82631
 21
944.903859
 31
0.0
  0
LINE
  5
1B7
330
6F
100
AcDbEntity
  8
2-0
  6
Continuous
 62
     7
100
AcDbLine
 10
3275.82631
 20
857.403859
 30
0.0
 11
3275.82631
 21
1151.416279
 31
0.0
  0
LINE
  5
1B8
330
6F
100
AcDbEntity
  8
2-0
  6
Continuous
 62
     7
100
AcDbLine
 10
3320.82631
 20
857.403859
 30
0.0
 11
3320.82631
 21
1151.416279
 31
0.0
  0
TEXT
  5
1B9
330
6F
100
AcDbEntity
  8
D-0
 62
     5
100
AcDbText
 10
3239.332
 20
718.791
 30
0.0
 40
20.736
  1
(不燃認定品)
100
AcDbText
  0
LINE
  5
1BA
330
6F
100
AcDbEntity
  8
2-0
  6
Continuous
 62
     7
100
AcDbLine
 10
3271.975791
 20
887.4038589999999
 30
0.0
 11
3271.975791
 21
1151.416279
 31
0.0
  0
LINE
  5
1BB
330
6F
100
AcDbEntity
  8
2-0
  6
Continuous
 62
     7
100
AcDbLine
 10
3266.975791
 20
887.4038589999999
 30
0.0
 11
3266.975791
 21
1151.416279
 31
0.0
  0
LINE
  5
1BC
330
6F
100
AcDbEntity
  8
2-0
  6
Continuous
 62
     7
100
AcDbLine
 10
3261.975791
 20
887.4038589999999
 30
0.0
 11
3261.975791
 21
1151.416279
 31
0.0
  0
LINE
  5
1BD
330
6F
100
AcDbEntity
  8
2-0
  6
Continuous
 62
     7
100
AcDbLine
 10
3256.975791
 20
887.4038589999999
 30
0.0
 11
3256.975791
 21
1151.416279
 31
0.0
  0
LINE
  5
1BE
330
6F
100
AcDbEntity
  8
2-0
  6
Continuous
 62
     7
100
AcDbLine
 10
3258.765446746585
 20
1022.374871811334
 30
0.0
 11
3200.532541813379
 21
1114.042074248418
 31
0.0
  0
LINE
  5
1BF
330
6F
100
AcDbEntity
  8
2-0
  6
Continuous
 62
     7
100
AcDbLine
 10
3200.532541813379
 20
1114.042074248418
 30
0.0
 11
3024.85072363156
 21
1114.042074248418
 31
0.0
  0
TEXT
  5
1C0
330
6F
100
AcDbEntity
  8
D-0
 62
     5
100
AcDbText
 10
3028.545
 20
1121.012
 30
0.0
 40
20.736
  1
ラワンベニヤ
100
AcDbText
  0
LINE
  5
1C1
330
6F
100
AcDbEntity
  8
2-0
  6
Continuous
 62
     7
100
AcDbLine
 10
3306.257564371533
 20
1026.023217063378
 30
0.0
 11
3368.282293310369
 21
915.507785548746
 31
0.0
  0
LINE
  5
1C2
330
6F
100
AcDbEntity
  8
2-0
  6
Continuous
 62
     7
100
AcDbLine
 10
3368.282293310369
 20
915.507785548746
 30
0.0
 11
3856.826665604741
 21
915.507785548746
 31
0.0
  0
TEXT
  5
1C3
330
6F
100
AcDbEntity
  8
D-0
 62
     5
100
AcDbText
 10
3389.895
 20
923.8979999999999
 30
0.0
 40
20.736
  1
火山性ガラス質複層板 9t（化粧仕上）
100
AcDbText
  0
TEXT
  5
1C4
330
6F
100
AcDbEntity
  8
D-0
 62
     5
100
AcDbText
 10
3405.649
 20
876.1439999999998
 30
0.0
 40
20.736
  1
(不燃認定品)
100
AcDbText
  0
TEXT
  5
1C5
330
6F
100
AcDbEntity
  8
D-0
 62
     5
100
AcDbText
 10
3216.468
 20
623.7819999999999
 30
0.0
 40
25.92
  1
Ａ部 詳細図
100
AcDbText
  0
LINE
  5
1C6
330
6F
100
AcDbEntity
  8
2-0
  6
Continuous
 62
     7
100
AcDbLine
 10
3137.382612
 20
664.1780409999999
 30
0.0
 11
3470.163141
 21
664.1780409999999
 31
0.0
  0
LINE
  5
1C7
330
6F
100
AcDbEntity
  8
2-0
  6
Continuous
 62
     7
100
AcDbLine
 10
3137.382612
 20
614.1780409999999
 30
0.0
 11
3470.163141
 21
614.1780409999999
 31
0.0
  0
LINE
  5
1C8
330
6F
100
AcDbEntity
  8
2-0
  6
Continuous
 62
     7
100
AcDbLine
 10
3137.382612
 20
664.1780409999999
 30
0.0
 11
3137.382612
 21
614.1780409999999
 31
0.0
  0
LINE
  5
1C9
330
6F
100
AcDbEntity
  8
2-0
  6
Continuous
 62
     7
100
AcDbLine
 10
3470.163141
 20
664.1780409999999
 30
0.0
 11
3470.163141
 21
614.1780409999999
 31
0.0
  0
LINE
  5
1CA
330
6F
100
AcDbEntity
  8
2-0
  6
Continuous
 62
     7
100
AcDbLine
 10
2713.686965
 20
1369.964438
 30
0.0
 11
2713.686965
 21
639.1780409999999
 31
0.0
  0
LINE
  5
1CB
330
6F
100
AcDbEntity
  8
2-0
  6
Continuous
 62
     7
100
AcDbLine
 10
2713.686965
 20
1369.964438
 30
0.0
 11
3921.647347
 21
1369.964438
 31
0.0
  0
LINE
  5
1CC
330
6F
100
AcDbEntity
  8
2-0
  6
Continuous
 62
     7
100
AcDbLine
 10
2713.686965
 20
639.1780409999999
 30
0.0
 11
3137.382612
 21
639.1780409999999
 31
0.0
  0
LINE
  5
1CD
330
6F
100
AcDbEntity
  8
2-0
  6
Continuous
 62
     7
100
AcDbLine
 10
3921.647347
 20
1369.964438
 30
0.0
 11
3921.647347
 21
639.1780409999999
 31
0.0
  0
LINE
  5
1CE
330
6F
100
AcDbEntity
  8
2-0
  6
Continuous
 62
     7
100
AcDbLine
 10
3470.163141
 20
639.1780409999999
 30
0.0
 11
3921.647347
 21
639.1780409999999
 31
0.0
  0
LINE
  5
1CF
330
6F
100
AcDbEntity
  8
2-0
  6
Continuous
 62
     4
100
AcDbLine
 10
2977.980908
 20
887.4038589999999
 30
0.0
 11
2882.712823
 21
887.4038589999999
 31
0.0
  0
LINE
  5
1D0
330
6F
100
AcDbEntity
  8
2-0
  6
Continuous
 62
     4
100
AcDbLine
 10
2977.853391
 20
857.403859
 30
0.0
 11
2882.712823
 21
857.403859
 31
0.0
  0
LINE
  5
1D1
330
6F
100
AcDbEntity
  8
2-0
  6
Continuous
 62
     4
100
AcDbLine
 10
2882.712823
 20
897.4038590000001
 30
0.0
 11
2882.712823
 21
907.403859
 31
0.0
  0
LINE
  5
1D2
330
6F
100
AcDbEntity
  8
2-0
  6
Continuous
 62
     4
100
AcDbLine
 10
2882.712823
 20
847.4038590000001
 30
0.0
 11
2882.712823
 21
837.4038589999999
 31
0.0
  0
TEXT
  5
1D3
330
6F
100
AcDbEntity
  8
2-0
 62
     4
100
AcDbText
 10
2879.413
 20
864.404
 30
0.0
 40
25.92
  1
6
 50
90.0
100
AcDbText
  0
LINE
  5
1D4
330
6F
100
AcDbEntity
  8
2-0
  6
Continuous
 62
     4
100
AcDbLine
 10
2882.712823
 20
887.4038589999999
 30
0.0
 11
2882.712823
 21
857.403859
 31
0.0
  0
CIRCLE
  5
1D5
330
6F
100
AcDbEntity
  8
2-0
  6
Continuous
 62
     4
100
AcDbCircle
 10
2882.712822517666
 20
887.4038592267559
 30
0.0
 40
0.25
  0
CIRCLE
  5
1D6
330
6F
100
AcDbEntity
  8
2-0
  6
Continuous
 62
     4
100
AcDbCircle
 10
2882.712822517666
 20
887.4038592267559
 30
0.0
 40
0.1875
  0
CIRCLE
  5
1D7
330
6F
100
AcDbEntity
  8
2-0
  6
Continuous
 62
     4
100
AcDbCircle
 10
2882.712822517666
 20
887.4038592267559
 30
0.0
 40
0.125
  0
CIRCLE
  5
1D8
330
6F
100
AcDbEntity
  8
2-0
  6
Continuous
 62
     4
100
AcDbCircle
 10
2882.712822517666
 20
887.4038592267559
 30
0.0
 40
0.0625
  0
ARC
  5
1D9
330
6F
100
AcDbEntity
  8
2-0
 62
     4
100
AcDbCircle
 10
2882.717822517666
 20
887.403859226757
 30
0.0
 40
2.5
100
AcDbArc
 50
270.1145914065301
 51
90.11459140594496
  0
LINE
  5
1DA
330
6F
100
AcDbEntity
  8
2-0
 62
     4
100
AcDbLine
 10
2882.71282251759
 20
892.403859226756
 30
0.0
 11
2882.712822517513
 21
897.4038592267559
 31
0.0
  0
CIRCLE
  5
1DB
330
6F
100
AcDbEntity
  8
2-0
  6
Continuous
 62
     4
100
AcDbCircle
 10
2882.712822517666
 20
857.4038592267561
 30
0.0
 40
0.25
  0
CIRCLE
  5
1DC
330
6F
100
AcDbEntity
  8
2-0
  6
Continuous
 62
     4
100
AcDbCircle
 10
2882.712822517666
 20
857.4038592267561
 30
0.0
 40
0.1875
  0
CIRCLE
  5
1DD
330
6F
100
AcDbEntity
  8
2-0
  6
Continuous
 62
     4
100
AcDbCircle
 10
2882.712822517666
 20
857.4038592267561
 30
0.0
 40
0.125
  0
CIRCLE
  5
1DE
330
6F
100
AcDbEntity
  8
2-0
  6
Continuous
 62
     4
100
AcDbCircle
 10
2882.712822517666
 20
857.4038592267561
 30
0.0
 40
0.0625
  0
ARC
  5
1DF
330
6F
100
AcDbEntity
  8
2-0
 62
     4
100
AcDbCircle
 10
2882.707822517666
 20
857.4038592267561
 30
0.0
 40
2.5
100
AcDbArc
 50
90.11459140653
 51
270.114591405945
  0
LINE
  5
1E0
330
6F
100
AcDbEntity
  8
2-0
 62
     4
100
AcDbLine
 10
2882.712822517692
 20
852.403859226756
 30
0.0
 11
2882.712822517718
 21
847.4038592267559
 31
0.0
  0
LINE
  5
1E1
330
6F
100
AcDbEntity
  8
2-0
  6
Continuous
 62
     4
100
AcDbLine
 10
2977.980908
 20
887.4038589999999
 30
0.0
 11
2882.712823
 21
887.4038589999999
 31
0.0
  0
LINE
  5
1E2
330
6F
100
AcDbEntity
  8
2-0
  6
Continuous
 62
     4
100
AcDbLine
 10
2977.789632
 20
932.403859
 30
0.0
 11
2882.712823
 21
932.403859
 31
0.0
  0
LINE
  5
1E3
330
6F
100
AcDbEntity
  8
2-0
  6
Continuous
 62
     4
100
AcDbLine
 10
2882.712823
 20
897.4038590000001
 30
0.0
 11
2882.712823
 21
922.4038590000001
 31
0.0
  0
TEXT
  5
1E4
330
6F
100
AcDbEntity
  8
2-0
 62
     4
100
AcDbText
 10
2879.413
 20
901.904
 30
0.0
 40
25.92
  1
9
 50
90.0
100
AcDbText
  0
CIRCLE
  5
1E5
330
6F
100
AcDbEntity
  8
2-0
  6
Continuous
 62
     4
100
AcDbCircle
 10
2882.712822517666
 20
887.4038592267559
 30
0.0
 40
0.25
  0
CIRCLE
  5
1E6
330
6F
100
AcDbEntity
  8
2-0
  6
Continuous
 62
     4
100
AcDbCircle
 10
2882.712822517666
 20
887.4038592267559
 30
0.0
 40
0.1875
  0
CIRCLE
  5
1E7
330
6F
100
AcDbEntity
  8
2-0
  6
Continuous
 62
     4
100
AcDbCircle
 10
2882.712822517666
 20
887.4038592267559
 30
0.0
 40
0.125
  0
CIRCLE
  5
1E8
330
6F
100
AcDbEntity
  8
2-0
  6
Continuous
 62
     4
100
AcDbCircle
 10
2882.712822517666
 20
887.4038592267559
 30
0.0
 40
0.0625
  0
ARC
  5
1E9
330
6F
100
AcDbEntity
  8
2-0
 62
     4
100
AcDbCircle
 10
2882.717822517666
 20
887.403859226757
 30
0.0
 40
2.5
100
AcDbArc
 50
270.1145914065301
 51
90.11459140594496
  0
LINE
  5
1EA
330
6F
100
AcDbEntity
  8
2-0
 62
     4
100
AcDbLine
 10
2882.71282251759
 20
892.403859226756
 30
0.0
 11
2882.712822517513
 21
897.4038592267559
 31
0.0
  0
CIRCLE
  5
1EB
330
6F
100
AcDbEntity
  8
2-0
  6
Continuous
 62
     4
100
AcDbCircle
 10
2882.712822517666
 20
932.4038592267561
 30
0.0
 40
0.25
  0
CIRCLE
  5
1EC
330
6F
100
AcDbEntity
  8
2-0
  6
Continuous
 62
     4
100
AcDbCircle
 10
2882.712822517666
 20
932.4038592267561
 30
0.0
 40
0.1875
  0
CIRCLE
  5
1ED
330
6F
100
AcDbEntity
  8
2-0
  6
Continuous
 62
     4
100
AcDbCircle
 10
2882.712822517666
 20
932.4038592267561
 30
0.0
 40
0.125
  0
CIRCLE
  5
1EE
330
6F
100
AcDbEntity
  8
2-0
  6
Continuous
 62
     4
100
AcDbCircle
 10
2882.712822517666
 20
932.4038592267561
 30
0.0
 40
0.0625
  0
ARC
  5
1EF
330
6F
100
AcDbEntity
  8
2-0
 62
     4
100
AcDbCircle
 10
2882.707822517666
 20
932.4038592267561
 30
0.0
 40
2.5
100
AcDbArc
 50
90.11459140653
 51
270.114591405945
  0
LINE
  5
1F0
330
6F
100
AcDbEntity
  8
2-0
 62
     4
100
AcDbLine
 10
2882.712822517692
 20
927.403859226756
 30
0.0
 11
2882.712822517718
 21
922.4038592267559
 31
0.0
  0
LINE
  5
1F1
330
6F
100
AcDbEntity
  8
2-0
  6
Continuous
 62
     4
100
AcDbLine
 10
2977.842764
 20
944.903859
 30
0.0
 11
2882.712823
 21
944.903859
 31
0.0
  0
LINE
  5
1F2
330
6F
100
AcDbEntity
  8
2-0
  6
Continuous
 62
     4
100
AcDbLine
 10
2977.789632
 20
932.403859
 30
0.0
 11
2882.712823
 21
932.403859
 31
0.0
  0
LINE
  5
1F3
330
6F
100
AcDbEntity
  8
2-0
  6
Continuous
 62
     4
100
AcDbLine
 10
2882.712823
 20
954.903859
 30
0.0
 11
2882.712823
 21
964.9038589999999
 31
0.0
  0
LINE
  5
1F4
330
6F
100
AcDbEntity
  8
2-0
  6
Continuous
 62
     4
100
AcDbLine
 10
2882.712823
 20
922.4038590000001
 30
0.0
 11
2882.712823
 21
912.4038589999999
 31
0.0
  0
TEXT
  5
1F5
330
6F
100
AcDbEntity
  8
2-0
 62
     4
100
AcDbText
 10
2881.199
 20
959.4549999999999
 30
0.0
 40
25.92
  1
2.5
 50
90.0
100
AcDbText
  0
LINE
  5
1F6
330
6F
100
AcDbEntity
  8
2-0
  6
Continuous
 62
     4
100
AcDbLine
 10
2882.712823
 20
944.903859
 30
0.0
 11
2882.712823
 21
932.403859
 31
0.0
  0
CIRCLE
  5
1F7
330
6F
100
AcDbEntity
  8
2-0
  6
Continuous
 62
     4
100
AcDbCircle
 10
2882.712822517666
 20
944.9038592267561
 30
0.0
 40
0.25
  0
CIRCLE
  5
1F8
330
6F
100
AcDbEntity
  8
2-0
  6
Continuous
 62
     4
100
AcDbCircle
 10
2882.712822517666
 20
944.9038592267561
 30
0.0
 40
0.1875
  0
CIRCLE
  5
1F9
330
6F
100
AcDbEntity
  8
2-0
  6
Continuous
 62
     4
100
AcDbCircle
 10
2882.712822517666
 20
944.9038592267561
 30
0.0
 40
0.125
  0
CIRCLE
  5
1FA
330
6F
100
AcDbEntity
  8
2-0
  6
Continuous
 62
     4
100
AcDbCircle
 10
2882.712822517666
 20
944.9038592267561
 30
0.0
 40
0.0625
  0
ARC
  5
1FB
330
6F
100
AcDbEntity
  8
2-0
 62
     4
100
AcDbCircle
 10
2882.717822517666
 20
944.9038592267561
 30
0.0
 40
2.5
100
AcDbArc
 50
270.1145914065301
 51
90.11459140594496
  0
LINE
  5
1FC
330
6F
100
AcDbEntity
  8
2-0
 62
     4
100
AcDbLine
 10
2882.71282251759
 20
949.9038592267559
 30
0.0
 11
2882.712822517513
 21
954.903859226756
 31
0.0
  0
CIRCLE
  5
1FD
330
6F
100
AcDbEntity
  8
2-0
  6
Continuous
 62
     4
100
AcDbCircle
 10
2882.712822517666
 20
932.4038592267561
 30
0.0
 40
0.25
  0
CIRCLE
  5
1FE
330
6F
100
AcDbEntity
  8
2-0
  6
Continuous
 62
     4
100
AcDbCircle
 10
2882.712822517666
 20
932.4038592267561
 30
0.0
 40
0.1875
  0
CIRCLE
  5
1FF
330
6F
100
AcDbEntity
  8
2-0
  6
Continuous
 62
     4
100
AcDbCircle
 10
2882.712822517666
 20
932.4038592267561
 30
0.0
 40
0.125
  0
CIRCLE
  5
200
330
6F
100
AcDbEntity
  8
2-0
  6
Continuous
 62
     4
100
AcDbCircle
 10
2882.712822517666
 20
932.4038592267561
 30
0.0
 40
0.0625
  0
ARC
  5
201
330
6F
100
AcDbEntity
  8
2-0
 62
     4
100
AcDbCircle
 10
2882.707822517666
 20
932.4038592267561
 30
0.0
 40
2.5
100
AcDbArc
 50
90.11459140653
 51
270.114591405945
  0
LINE
  5
202
330
6F
100
AcDbEntity
  8
2-0
 62
     4
100
AcDbLine
 10
2882.712822517692
 20
927.403859226756
 30
0.0
 11
2882.712822517718
 21
922.4038592267559
 31
0.0
  0
LINE
  5
203
330
6F
100
AcDbEntity
  8
2-0
  6
Continuous
 62
     4
100
AcDbLine
 10
2956.068939
 20
944.903859
 30
0.0
 11
2832.712823
 21
944.903859
 31
0.0
  0
LINE
  5
204
330
6F
100
AcDbEntity
  8
2-0
  6
Continuous
 62
     4
100
AcDbLine
 10
2955.697014
 20
857.403859
 30
0.0
 11
2832.712823
 21
857.403859
 31
0.0
  0
LINE
  5
205
330
6F
100
AcDbEntity
  8
2-0
  6
Continuous
 62
     4
100
AcDbLine
 10
2832.712823
 20
934.9038590000001
 30
0.0
 11
2832.712823
 21
867.403859
 31
0.0
  0
TEXT
  5
206
330
6F
100
AcDbEntity
  8
2-0
 62
     4
100
AcDbText
 10
2829.413
 20
869.1539999999999
 30
0.0
 40
25.92
  1
17.5
 50
90.0
100
AcDbText
  0
CIRCLE
  5
207
330
6F
100
AcDbEntity
  8
2-0
  6
Continuous
 62
     4
100
AcDbCircle
 10
2832.712822517665
 20
944.9038592267529
 30
0.0
 40
0.25
  0
CIRCLE
  5
208
330
6F
100
AcDbEntity
  8
2-0
  6
Continuous
 62
     4
100
AcDbCircle
 10
2832.712822517665
 20
944.9038592267529
 30
0.0
 40
0.1875
  0
CIRCLE
  5
209
330
6F
100
AcDbEntity
  8
2-0
  6
Continuous
 62
     4
100
AcDbCircle
 10
2832.712822517665
 20
944.9038592267529
 30
0.0
 40
0.125
  0
CIRCLE
  5
20A
330
6F
100
AcDbEntity
  8
2-0
  6
Continuous
 62
     4
100
AcDbCircle
 10
2832.712822517665
 20
944.9038592267529
 30
0.0
 40
0.0625
  0
ARC
  5
20B
330
6F
100
AcDbEntity
  8
2-0
 62
     4
100
AcDbCircle
 10
2832.707822517665
 20
944.9038592267529
 30
0.0
 40
2.5
100
AcDbArc
 50
90.11459140653
 51
270.114591405945
  0
LINE
  5
20C
330
6F
100
AcDbEntity
  8
2-0
 62
     4
100
AcDbLine
 10
2832.71282251769
 20
939.903859226753
 30
0.0
 11
2832.712822517716
 21
934.9038592267529
 31
0.0
  0
CIRCLE
  5
20D
330
6F
100
AcDbEntity
  8
2-0
  6
Continuous
 62
     4
100
AcDbCircle
 10
2832.712822517665
 20
857.4038592267561
 30
0.0
 40
0.25
  0
CIRCLE
  5
20E
330
6F
100
AcDbEntity
  8
2-0
  6
Continuous
 62
     4
100
AcDbCircle
 10
2832.712822517665
 20
857.4038592267561
 30
0.0
 40
0.1875
  0
CIRCLE
  5
20F
330
6F
100
AcDbEntity
  8
2-0
  6
Continuous
 62
     4
100
AcDbCircle
 10
2832.712822517665
 20
857.4038592267561
 30
0.0
 40
0.125
  0
CIRCLE
  5
210
330
6F
100
AcDbEntity
  8
2-0
  6
Continuous
 62
     4
100
AcDbCircle
 10
2832.712822517665
 20
857.4038592267561
 30
0.0
 40
0.0625
  0
ARC
  5
211
330
6F
100
AcDbEntity
  8
2-0
 62
     4
100
AcDbCircle
 10
2832.717822517665
 20
857.4038592267561
 30
0.0
 40
2.5
100
AcDbArc
 50
270.1145914065301
 51
90.11459140594496
  0
LINE
  5
212
330
6F
100
AcDbEntity
  8
2-0
 62
     4
100
AcDbLine
 10
2832.712822517588
 20
862.4038592267559
 30
0.0
 11
2832.712822517512
 21
867.403859226756
 31
0.0
  0
LINE
  5
213
330
6F
100
AcDbEntity
  8
2-0
  6
Continuous
 62
     4
100
AcDbLine
 10
3233.32631
 20
1159.570924
 30
0.0
 11
3233.32631
 21
1282.92704
 31
0.0
  0
LINE
  5
214
330
6F
100
AcDbEntity
  8
2-0
  6
Continuous
 62
     4
100
AcDbLine
 10
3320.82631
 20
1159.942849
 30
0.0
 11
3320.82631
 21
1282.92704
 31
0.0
  0
LINE
  5
215
330
6F
100
AcDbEntity
  8
2-0
  6
Continuous
 62
     4
100
AcDbLine
 10
3243.32631
 20
1282.92704
 30
0.0
 11
3310.82631
 21
1282.92704
 31
0.0
  0
TEXT
  5
216
330
6F
100
AcDbEntity
  8
2-0
 62
     4
100
AcDbText
 10
3247.092
 20
1286.227
 30
0.0
 40
25.92
  1
17.5
100
AcDbText
  0
CIRCLE
  5
217
330
6F
100
AcDbEntity
  8
2-0
  6
Continuous
 62
     4
100
AcDbCircle
 10
3233.32631042498
 20
1282.927039736983
 30
0.0
 40
0.25
  0
CIRCLE
  5
218
330
6F
100
AcDbEntity
  8
2-0
  6
Continuous
 62
     4
100
AcDbCircle
 10
3233.32631042498
 20
1282.927039736983
 30
0.0
 40
0.1875
  0
CIRCLE
  5
219
330
6F
100
AcDbEntity
  8
2-0
  6
Continuous
 62
     4
100
AcDbCircle
 10
3233.32631042498
 20
1282.927039736983
 30
0.0
 40
0.125
  0
CIRCLE
  5
21A
330
6F
100
AcDbEntity
  8
2-0
  6
Continuous
 62
     4
100
AcDbCircle
 10
3233.32631042498
 20
1282.927039736983
 30
0.0
 40
0.0625
  0
ARC
  5
21B
330
6F
100
AcDbEntity
  8
2-0
 62
     4
100
AcDbCircle
 10
3233.32631042498
 20
1282.922039736983
 30
0.0
 40
2.5
100
AcDbArc
 50
180.1145914065301
 51
0.1145914059449637
  0
LINE
  5
21C
330
6F
100
AcDbEntity
  8
2-0
 62
     4
100
AcDbLine
 10
3238.32631042498
 20
1282.927039737034
 30
0.0
 11
3243.32631042498
 21
1282.927039737085
 31
0.0
  0
CIRCLE
  5
21D
330
6F
100
AcDbEntity
  8
2-0
  6
Continuous
 62
     4
100
AcDbCircle
 10
3320.826310424977
 20
1282.927039736983
 30
0.0
 40
0.25
  0
CIRCLE
  5
21E
330
6F
100
AcDbEntity
  8
2-0
  6
Continuous
 62
     4
100
AcDbCircle
 10
3320.826310424977
 20
1282.927039736983
 30
0.0
 40
0.1875
  0
CIRCLE
  5
21F
330
6F
100
AcDbEntity
  8
2-0
  6
Continuous
 62
     4
100
AcDbCircle
 10
3320.826310424977
 20
1282.927039736983
 30
0.0
 40
0.125
  0
CIRCLE
  5
220
330
6F
100
AcDbEntity
  8
2-0
  6
Continuous
 62
     4
100
AcDbCircle
 10
3320.826310424977
 20
1282.927039736983
 30
0.0
 40
0.0625
  0
ARC
  5
221
330
6F
100
AcDbEntity
  8
2-0
 62
     4
100
AcDbCircle
 10
3320.826310424977
 20
1282.932039736983
 30
0.0
 40
2.5
100
AcDbArc
 50
0.1145914065300158
 51
180.114591405945
  0
LINE
  5
222
330
6F
100
AcDbEntity
  8
2-0
 62
     4
100
AcDbLine
 10
3315.826310424976
 20
1282.927039736983
 30
0.0
 11
3310.826310424977
 21
1282.927039736983
 31
0.0
  0
LINE
  5
223
330
6F
100
AcDbEntity
  8
2-0
  6
Continuous
 62
     4
100
AcDbLine
 10
3233.32631
 20
1137.797098
 30
0.0
 11
3233.32631
 21
1232.92704
 31
0.0
  0
LINE
  5
224
330
6F
100
AcDbEntity
  8
2-0
  6
Continuous
 62
     4
100
AcDbLine
 10
3245.82631
 20
1137.85023
 30
0.0
 11
3245.82631
 21
1232.92704
 31
0.0
  0
LINE
  5
225
330
6F
100
AcDbEntity
  8
2-0
  6
Continuous
 62
     4
100
AcDbLine
 10
3223.32631
 20
1232.92704
 30
0.0
 11
3213.32631
 21
1232.92704
 31
0.0
  0
LINE
  5
226
330
6F
100
AcDbEntity
  8
2-0
  6
Continuous
 62
     4
100
AcDbLine
 10
3255.82631
 20
1232.92704
 30
0.0
 11
3265.82631
 21
1232.92704
 31
0.0
  0
TEXT
  5
227
330
6F
100
AcDbEntity
  8
2-0
 62
     4
100
AcDbText
 10
3169.652
 20
1236.227
 30
0.0
 40
25.92
  1
2.5
100
AcDbText
  0
LINE
  5
228
330
6F
100
AcDbEntity
  8
2-0
  6
Continuous
 62
     4
100
AcDbLine
 10
3233.32631
 20
1232.92704
 30
0.0
 11
3245.82631
 21
1232.92704
 31
0.0
  0
CIRCLE
  5
229
330
6F
100
AcDbEntity
  8
2-0
  6
Continuous
 62
     4
100
AcDbCircle
 10
3233.326310424977
 20
1232.927039736983
 30
0.0
 40
0.25
  0
CIRCLE
  5
22A
330
6F
100
AcDbEntity
  8
2-0
  6
Continuous
 62
     4
100
AcDbCircle
 10
3233.326310424977
 20
1232.927039736983
 30
0.0
 40
0.1875
  0
CIRCLE
  5
22B
330
6F
100
AcDbEntity
  8
2-0
  6
Continuous
 62
     4
100
AcDbCircle
 10
3233.326310424977
 20
1232.927039736983
 30
0.0
 40
0.125
  0
CIRCLE
  5
22C
330
6F
100
AcDbEntity
  8
2-0
  6
Continuous
 62
     4
100
AcDbCircle
 10
3233.326310424977
 20
1232.927039736983
 30
0.0
 40
0.0625
  0
ARC
  5
22D
330
6F
100
AcDbEntity
  8
2-0
 62
     4
100
AcDbCircle
 10
3233.326310424977
 20
1232.932039736983
 30
0.0
 40
2.5
100
AcDbArc
 50
0.1145914065300158
 51
180.114591405945
  0
LINE
  5
22E
330
6F
100
AcDbEntity
  8
2-0
 62
     4
100
AcDbLine
 10
3228.326310424976
 20
1232.927039736983
 30
0.0
 11
3223.326310424976
 21
1232.927039736983
 31
0.0
  0
CIRCLE
  5
22F
330
6F
100
AcDbEntity
  8
2-0
  6
Continuous
 62
     4
100
AcDbCircle
 10
3245.826310424977
 20
1232.927039736983
 30
0.0
 40
0.25
  0
CIRCLE
  5
230
330
6F
100
AcDbEntity
  8
2-0
  6
Continuous
 62
     4
100
AcDbCircle
 10
3245.826310424977
 20
1232.927039736983
 30
0.0
 40
0.1875
  0
CIRCLE
  5
231
330
6F
100
AcDbEntity
  8
2-0
  6
Continuous
 62
     4
100
AcDbCircle
 10
3245.826310424977
 20
1232.927039736983
 30
0.0
 40
0.125
  0
CIRCLE
  5
232
330
6F
100
AcDbEntity
  8
2-0
  6
Continuous
 62
     4
100
AcDbCircle
 10
3245.826310424977
 20
1232.927039736983
 30
0.0
 40
0.0625
  0
ARC
  5
233
330
6F
100
AcDbEntity
  8
2-0
 62
     4
100
AcDbCircle
 10
3245.826310424977
 20
1232.922039736983
 30
0.0
 40
2.5
100
AcDbArc
 50
180.1145914065301
 51
0.1145914059449637
  0
LINE
  5
234
330
6F
100
AcDbEntity
  8
2-0
 62
     4
100
AcDbLine
 10
3250.826310424976
 20
1232.927039737034
 30
0.0
 11
3255.826310424976
 21
1232.927039737085
 31
0.0
  0
LINE
  5
235
330
6F
100
AcDbEntity
  8
2-0
  6
Continuous
 62
     4
100
AcDbLine
 10
3275.82631
 20
1137.658955
 30
0.0
 11
3275.82631
 21
1232.92704
 31
0.0
  0
LINE
  5
236
330
6F
100
AcDbEntity
  8
2-0
  6
Continuous
 62
     4
100
AcDbLine
 10
3245.82631
 20
1137.85023
 30
0.0
 11
3245.82631
 21
1232.92704
 31
0.0
  0
LINE
  5
237
330
6F
100
AcDbEntity
  8
2-0
  6
Continuous
 62
     4
100
AcDbLine
 10
3285.82631
 20
1232.92704
 30
0.0
 11
3295.82631
 21
1232.92704
 31
0.0
  0
LINE
  5
238
330
6F
100
AcDbEntity
  8
2-0
  6
Continuous
 62
     4
100
AcDbLine
 10
3235.82631
 20
1232.92704
 30
0.0
 11
3225.82631
 21
1232.92704
 31
0.0
  0
TEXT
  5
239
330
6F
100
AcDbEntity
  8
2-0
 62
     4
100
AcDbText
 10
3254.842
 20
1236.227
 30
0.0
 40
25.92
  1
6
100
AcDbText
  0
LINE
  5
23A
330
6F
100
AcDbEntity
  8
2-0
  6
Continuous
 62
     4
100
AcDbLine
 10
3275.82631
 20
1232.92704
 30
0.0
 11
3245.82631
 21
1232.92704
 31
0.0
  0
CIRCLE
  5
23B
330
6F
100
AcDbEntity
  8
2-0
  6
Continuous
 62
     4
100
AcDbCircle
 10
3275.826310424977
 20
1232.927039736983
 30
0.0
 40
0.25
  0
CIRCLE
  5
23C
330
6F
100
AcDbEntity
  8
2-0
  6
Continuous
 62
     4
100
AcDbCircle
 10
3275.826310424977
 20
1232.927039736983
 30
0.0
 40
0.1875
  0
CIRCLE
  5
23D
330
6F
100
AcDbEntity
  8
2-0
  6
Continuous
 62
     4
100
AcDbCircle
 10
3275.826310424977
 20
1232.927039736983
 30
0.0
 40
0.125
  0
CIRCLE
  5
23E
330
6F
100
AcDbEntity
  8
2-0
  6
Continuous
 62
     4
100
AcDbCircle
 10
3275.826310424977
 20
1232.927039736983
 30
0.0
 40
0.0625
  0
ARC
  5
23F
330
6F
100
AcDbEntity
  8
2-0
 62
     4
100
AcDbCircle
 10
3275.826310424977
 20
1232.922039736983
 30
0.0
 40
2.5
100
AcDbArc
 50
180.1145914065301
 51
0.1145914059449637
  0
LINE
  5
240
330
6F
100
AcDbEntity
  8
2-0
 62
     4
100
AcDbLine
 10
3280.826310424976
 20
1232.927039737034
 30
0.0
 11
3285.826310424976
 21
1232.927039737085
 31
0.0
  0
CIRCLE
  5
241
330
6F
100
AcDbEntity
  8
2-0
  6
Continuous
 62
     4
100
AcDbCircle
 10
3245.826310424977
 20
1232.927039736983
 30
0.0
 40
0.25
  0
CIRCLE
  5
242
330
6F
100
AcDbEntity
  8
2-0
  6
Continuous
 62
     4
100
AcDbCircle
 10
3245.826310424977
 20
1232.927039736983
 30
0.0
 40
0.1875
  0
CIRCLE
  5
243
330
6F
100
AcDbEntity
  8
2-0
  6
Continuous
 62
     4
100
AcDbCircle
 10
3245.826310424977
 20
1232.927039736983
 30
0.0
 40
0.125
  0
CIRCLE
  5
244
330
6F
100
AcDbEntity
  8
2-0
  6
Continuous
 62
     4
100
AcDbCircle
 10
3245.826310424977
 20
1232.927039736983
 30
0.0
 40
0.0625
  0
ARC
  5
245
330
6F
100
AcDbEntity
  8
2-0
 62
     4
100
AcDbCircle
 10
3245.826310424977
 20
1232.932039736983
 30
0.0
 40
2.5
100
AcDbArc
 50
0.1145914065300158
 51
180.114591405945
  0
LINE
  5
246
330
6F
100
AcDbEntity
  8
2-0
 62
     4
100
AcDbLine
 10
3240.826310424977
 20
1232.927039736983
 30
0.0
 11
3235.826310424977
 21
1232.927039736983
 31
0.0
  0
LINE
  5
247
330
6F
100
AcDbEntity
  8
2-0
  6
Continuous
 62
     4
100
AcDbLine
 10
3275.82631
 20
1137.658955
 30
0.0
 11
3275.82631
 21
1232.92704
 31
0.0
  0
LINE
  5
248
330
6F
100
AcDbEntity
  8
2-0
  6
Continuous
 62
     4
100
AcDbLine
 10
3320.82631
 20
1137.786472
 30
0.0
 11
3320.82631
 21
1232.92704
 31
0.0
  0
LINE
  5
249
330
6F
100
AcDbEntity
  8
2-0
  6
Continuous
 62
     4
100
AcDbLine
 10
3285.82631
 20
1232.92704
 30
0.0
 11
3310.82631
 21
1232.92704
 31
0.0
  0
TEXT
  5
24A
330
6F
100
AcDbEntity
  8
2-0
 62
     4
100
AcDbText
 10
3292.342
 20
1236.227
 30
0.0
 40
25.92
  1
9
100
AcDbText
  0
CIRCLE
  5
24B
330
6F
100
AcDbEntity
  8
2-0
  6
Continuous
 62
     4
100
AcDbCircle
 10
3275.826310424977
 20
1232.927039736983
 30
0.0
 40
0.25
  0
CIRCLE
  5
24C
330
6F
100
AcDbEntity
  8
2-0
  6
Continuous
 62
     4
100
AcDbCircle
 10
3275.826310424977
 20
1232.927039736983
 30
0.0
 40
0.1875
  0
CIRCLE
  5
24D
330
6F
100
AcDbEntity
  8
2-0
  6
Continuous
 62
     4
100
AcDbCircle
 10
3275.826310424977
 20
1232.927039736983
 30
0.0
 40
0.125
  0
CIRCLE
  5
24E
330
6F
100
AcDbEntity
  8
2-0
  6
Continuous
 62
     4
100
AcDbCircle
 10
3275.826310424977
 20
1232.927039736983
 30
0.0
 40
0.0625
  0
ARC
  5
24F
330
6F
100
AcDbEntity
  8
2-0
 62
     4
100
AcDbCircle
 10
3275.826310424977
 20
1232.922039736983
 30
0.0
 40
2.5
100
AcDbArc
 50
180.1145914065301
 51
0.1145914059449637
  0
LINE
  5
250
330
6F
100
AcDbEntity
  8
2-0
 62
     4
100
AcDbLine
 10
3280.826310424976
 20
1232.927039737034
 30
0.0
 11
3285.826310424976
 21
1232.927039737085
 31
0.0
  0
CIRCLE
  5
251
330
6F
100
AcDbEntity
  8
2-0
  6
Continuous
 62
     4
100
AcDbCircle
 10
3320.826310424977
 20
1232.927039736983
 30
0.0
 40
0.25
  0
CIRCLE
  5
252
330
6F
100
AcDbEntity
  8
2-0
  6
Continuous
 62
     4
100
AcDbCircle
 10
3320.826310424977
 20
1232.927039736983
 30
0.0
 40
0.1875
  0
CIRCLE
  5
253
330
6F
100
AcDbEntity
  8
2-0
  6
Continuous
 62
     4
100
AcDbCircle
 10
3320.826310424977
 20
1232.927039736983
 30
0.0
 40
0.125
  0
CIRCLE
  5
254
330
6F
100
AcDbEntity
  8
2-0
  6
Continuous
 62
     4
100
AcDbCircle
 10
3320.826310424977
 20
1232.927039736983
 30
0.0
 40
0.0625
  0
ARC
  5
255
330
6F
100
AcDbEntity
  8
2-0
 62
     4
100
AcDbCircle
 10
3320.826310424977
 20
1232.932039736983
 30
0.0
 40
2.5
100
AcDbArc
 50
0.1145914065300158
 51
180.114591405945
  0
LINE
  5
256
330
6F
100
AcDbEntity
  8
2-0
 62
     4
100
AcDbLine
 10
3315.826310424976
 20
1232.927039736983
 30
0.0
 11
3310.826310424977
 21
1232.927039736983
 31
0.0
  0
LINE
  5
257
330
6F
100
AcDbEntity
  8
2-0
  6
Continuous
 62
     7
100
AcDbLine
 10
3139.940865
 20
868.6705399999999
 30
0.0
 11
3155.173787000001
 21
852.9645139999999
 31
0.0
  0
LINE
  5
258
330
6F
100
AcDbEntity
  8
2-0
  6
Continuous
 62
     7
100
AcDbLine
 10
3139.940865
 20
868.6705399999999
 30
0.0
 11
3145.412111000001
 21
847.4859549999999
 31
0.0
  0
LINE
  5
259
330
6F
100
AcDbEntity
  8
2-0
  6
Continuous
 62
     7
100
AcDbLine
 10
3182.688737
 20
911.268717
 30
0.0
 11
3178.211629
 21
927.605452
 31
0.0
  0
LINE
  5
25A
330
6F
100
AcDbEntity
  8
2-0
  6
Continuous
 62
     7
100
AcDbLine
 10
3182.688737
 20
911.268717
 30
0.0
 11
3169.704083
 21
922.1467760000001
 31
0.0
  0
LINE
  5
25B
330
6F
100
AcDbEntity
  8
2-0
  6
Continuous
 62
     7
100
AcDbLine
 10
3258.765447
 20
1022.374872
 30
0.0
 11
3253.651315000001
 21
1041.896133
 31
0.0
  0
LINE
  5
25C
330
6F
100
AcDbEntity
  8
2-0
  6
Continuous
 62
     7
100
AcDbLine
 10
3258.765447
 20
1022.374872
 30
0.0
 11
3243.267683
 21
1035.299781
 31
0.0
  0
LINE
  5
25D
330
6F
100
AcDbEntity
  8
2-0
  6
Continuous
 62
     7
100
AcDbLine
 10
3306.257564
 20
1026.023217
 30
0.0
 11
3319.955570000001
 21
1011.141735
 31
0.0
  0
LINE
  5
25E
330
6F
100
AcDbEntity
  8
2-0
  6
Continuous
 62
     7
100
AcDbLine
 10
3306.257564
 20
1026.023217
 30
0.0
 11
3311.824575
 21
1006.578365
 31
0.0
  0
TEXT
  5
25F
330
6F
100
AcDbEntity
  8
D-0
 62
     5
100
AcDbText
 10
2716.774000000001
 20
1480.391
 30
0.0
 40
25.92
  1
ご注意
100
AcDbText
  0
TEXT
  5
260
330
6F
100
AcDbEntity
  8
D-0
 62
     5
100
AcDbText
 10
2782.648
 20
1416.284
 30
0.0
 40
25.92
  1
〇　底板6ｍｍ、側板9ｍｍの不燃加工となっております。
100
AcDbText
  0
LINE
  5
261
330
6F
100
AcDbEntity
  8
8-0
  6
Continuous
 62
     4
100
AcDbLine
 10
1163.639005
 20
1409.847373
 30
0.0
 11
1293.639005
 21
1409.847373
 31
0.0
  0
LINE
  5
262
330
6F
100
AcDbEntity
  8
8-0
  6
Continuous
 62
     4
100
AcDbLine
 10
1163.639005
 20
809.847373
 30
0.0
 11
1293.639005
 21
809.847373
 31
0.0
  0
TEXT
  5
263
330
6F
100
AcDbEntity
  8
8-0
 62
     4
100
AcDbText
 10
1293.019
 20
1076.247
 30
0.0
 40
36.288
  1
600
 50
90.0
100
AcDbText
  0
LINE
  5
264
330
6F
100
AcDbEntity
  8
8-0
  6
Continuous
 62
     4
100
AcDbLine
 10
1293.639005088615
 20
809.847372663836
 30
0.0
 11
1293.639005088615
 21
1409.847372663836
 31
0.0
  0
CIRCLE
  5
265
330
6F
100
AcDbEntity
  8
8-0
  6
Continuous
 62
     4
100
AcDbCircle
 10
1293.639005088615
 20
809.847372663836
 30
0.0
 40
0.25
  0
CIRCLE
  5
266
330
6F
100
AcDbEntity
  8
8-0
  6
Continuous
 62
     4
100
AcDbCircle
 10
1293.639005088615
 20
809.847372663836
 30
0.0
 40
0.1875
  0
CIRCLE
  5
267
330
6F
100
AcDbEntity
  8
8-0
  6
Continuous
 62
     4
100
AcDbCircle
 10
1293.639005088615
 20
809.847372663836
 30
0.0
 40
0.125
  0
CIRCLE
  5
268
330
6F
100
AcDbEntity
  8
8-0
  6
Continuous
 62
     4
100
AcDbCircle
 10
1293.639005088615
 20
809.847372663836
 30
0.0
 40
0.0625
  0
CIRCLE
  5
269
330
6F
100
AcDbEntity
  8
8-0
  6
Continuous
 62
     4
100
AcDbCircle
 10
1293.639005088615
 20
1409.847372663836
 30
0.0
 40
0.25
  0
CIRCLE
  5
26A
330
6F
100
AcDbEntity
  8
8-0
  6
Continuous
 62
     4
100
AcDbCircle
 10
1293.639005088615
 20
1409.847372663836
 30
0.0
 40
0.1875
  0
CIRCLE
  5
26B
330
6F
100
AcDbEntity
  8
8-0
  6
Continuous
 62
     4
100
AcDbCircle
 10
1293.639005088615
 20
1409.847372663836
 30
0.0
 40
0.125
  0
CIRCLE
  5
26C
330
6F
100
AcDbEntity
  8
8-0
  6
Continuous
 62
     4
100
AcDbCircle
 10
1293.639005088615
 20
1409.847372663836
 30
0.0
 40
0.0625
  0
LINE
  5
26D
330
6F
100
AcDbEntity
  8
2-0
  6
DASHED2
 62
     7
100
AcDbLine
 10
1126.139005
 20
1936.14981
 30
0.0
 11
558.639005
 21
1936.14981
 31
0.0
  0
LINE
  5
26E
330
6F
100
AcDbEntity
  8
8-0
  6
Continuous
 62
     4
100
AcDbLine
 10
523.6390049999999
 20
1409.847373
 30
0.0
 11
258.152626
 21
1409.847373
 31
0.0
  0
LINE
  5
26F
330
6F
100
AcDbEntity
  8
8-0
  6
Continuous
 62
     4
100
AcDbLine
 10
526.639005
 20
784.8473729999999
 30
0.0
 11
258.152626
 21
784.8473729999999
 31
0.0
  0
TEXT
  5
270
330
6F
100
AcDbEntity
  8
8-0
 62
     4
100
AcDbText
 10
257.533
 20
1063.747
 30
0.0
 40
36.288
  1
625
 50
90.0
100
AcDbText
  0
LINE
  5
271
330
6F
100
AcDbEntity
  8
8-0
  6
Continuous
 62
     4
100
AcDbLine
 10
258.152625860417
 20
784.847372663836
 30
0.0
 11
258.152625860417
 21
1409.847372663836
 31
0.0
  0
CIRCLE
  5
272
330
6F
100
AcDbEntity
  8
8-0
  6
Continuous
 62
     4
100
AcDbCircle
 10
258.152625860417
 20
784.847372663836
 30
0.0
 40
0.25
  0
CIRCLE
  5
273
330
6F
100
AcDbEntity
  8
8-0
  6
Continuous
 62
     4
100
AcDbCircle
 10
258.152625860417
 20
784.847372663836
 30
0.0
 40
0.1875
  0
CIRCLE
  5
274
330
6F
100
AcDbEntity
  8
8-0
  6
Continuous
 62
     4
100
AcDbCircle
 10
258.152625860417
 20
784.847372663836
 30
0.0
 40
0.125
  0
CIRCLE
  5
275
330
6F
100
AcDbEntity
  8
8-0
  6
Continuous
 62
     4
100
AcDbCircle
 10
258.152625860417
 20
784.847372663836
 30
0.0
 40
0.0625
  0
CIRCLE
  5
276
330
6F
100
AcDbEntity
  8
8-0
  6
Continuous
 62
     4
100
AcDbCircle
 10
258.152625860417
 20
1409.847372663836
 30
0.0
 40
0.25
  0
CIRCLE
  5
277
330
6F
100
AcDbEntity
  8
8-0
  6
Continuous
 62
     4
100
AcDbCircle
 10
258.152625860417
 20
1409.847372663836
 30
0.0
 40
0.1875
  0
CIRCLE
  5
278
330
6F
100
AcDbEntity
  8
8-0
  6
Continuous
 62
     4
100
AcDbCircle
 10
258.152625860417
 20
1409.847372663836
 30
0.0
 40
0.125
  0
CIRCLE
  5
279
330
6F
100
AcDbEntity
  8
8-0
  6
Continuous
 62
     4
100
AcDbCircle
 10
258.152625860417
 20
1409.847372663836
 30
0.0
 40
0.0625
  0
LINE
  5
27A
330
6F
100
AcDbEntity
  8
2-0
  6
Continuous
 62
     7
100
AcDbLine
 10
1780.891838
 20
809.847373
 30
0.0
 11
2125.891838
 21
809.847373
 31
0.0
  0
LINE
  5
27B
330
6F
100
AcDbEntity
  8
2-0
  6
Continuous
 62
     7
100
AcDbLine
 10
1780.891838
 20
809.847373
 30
0.0
 11
2125.891838
 21
809.847373
 31
0.0
  0
LINE
  5
27C
330
6F
100
AcDbEntity
  8
2-0
  6
Continuous
 62
     7
100
AcDbLine
 10
1780.891838
 20
809.847373
 30
0.0
 11
1780.891838
 21
1409.847373
 31
0.0
  0
LINE
  5
27D
330
6F
100
AcDbEntity
  8
2-0
  6
Continuous
 62
     7
100
AcDbLine
 10
2142.891838
 20
784.8473729999999
 30
0.0
 11
2142.891838
 21
1404.847373
 31
0.0
  0
LINE
  5
27E
330
6F
100
AcDbEntity
  8
2-0
  6
Continuous
 62
     7
100
AcDbLine
 10
2127.891838
 20
784.8473729999999
 30
0.0
 11
2127.891838
 21
1404.847373
 31
0.0
  0
LINE
  5
27F
330
6F
100
AcDbEntity
  8
2-0
  6
Continuous
 62
     7
100
AcDbLine
 10
2125.891838
 20
809.847373
 30
0.0
 11
2125.891838
 21
1409.847373
 31
0.0
  0
LINE
  5
280
330
6F
100
AcDbEntity
  8
2-0
  6
Continuous
 62
     7
100
AcDbLine
 10
2127.891838
 20
1404.847373
 30
0.0
 11
2142.891838
 21
1404.847373
 31
0.0
  0
LINE
  5
281
330
6F
100
AcDbEntity
  8
2-0
  6
Continuous
 62
     7
100
AcDbLine
 10
1780.891838
 20
1394.847373
 30
0.0
 11
2125.891838
 21
1394.847373
 31
0.0
  0
LINE
  5
282
330
6F
100
AcDbEntity
  8
2-0
  6
Continuous
 62
     7
100
AcDbLine
 10
1800.891838
 20
827.3473729999999
 30
0.0
 11
1800.891838
 21
1394.847373
 31
0.0
  0
LINE
  5
283
330
6F
100
AcDbEntity
  8
2-0
  6
Continuous
 62
     7
100
AcDbLine
 10
1803.591838
 20
827.3473729999999
 30
0.0
 11
1803.591838
 21
1394.847373
 31
0.0
  0
LINE
  5
284
330
6F
100
AcDbEntity
  8
2-0
  6
Continuous
 62
     7
100
AcDbLine
 10
1780.891838
 20
827.3473729999999
 30
0.0
 11
2125.891838
 21
827.3473729999999
 31
0.0
  0
LINE
  5
285
330
6F
100
AcDbEntity
  8
2-0
  6
Continuous
 62
     7
100
AcDbLine
 10
1780.891838
 20
862.3473729999998
 30
0.0
 11
1800.891838
 21
862.3473729999998
 31
0.0
  0
LINE
  5
286
330
6F
100
AcDbEntity
  8
2-0
  6
Continuous
 62
     7
100
AcDbLine
 10
1780.891838
 20
1354.847373
 30
0.0
 11
1800.891838
 21
1354.847373
 31
0.0
  0
LINE
  5
287
330
6F
100
AcDbEntity
  8
2-0
  6
DASHED2
 62
     7
100
AcDbLine
 10
1800.891838
 20
1394.847373
 30
0.0
 11
1780.891838
 21
1354.847373
 31
0.0
  0
LINE
  5
288
330
6F
100
AcDbEntity
  8
2-0
  6
DASHED2
 62
     7
100
AcDbLine
 10
1780.891838
 20
827.3473729999999
 30
0.0
 11
1800.891838
 21
862.3473729999998
 31
0.0
  0
LINE
  5
289
330
6F
100
AcDbEntity
  8
2-0
  6
Continuous
 62
     7
100
AcDbLine
 10
2127.891838
 20
784.8473729999999
 30
0.0
 11
2142.891838
 21
784.8473729999999
 31
0.0
  0
LINE
  5
28A
330
6F
100
AcDbEntity
  8
8-0
  6
Continuous
 62
     4
100
AcDbLine
 10
1743.282688
 20
809.847373
 30
0.0
 11
1628.322011
 21
809.847373
 31
0.0
  0
LINE
  5
28B
330
6F
100
AcDbEntity
  8
8-0
  6
Continuous
 62
     4
100
AcDbLine
 10
1743.236455
 20
827.3473729999999
 30
0.0
 11
1628.322011
 21
827.3473729999999
 31
0.0
  0
LINE
  5
28C
330
6F
100
AcDbEntity
  8
8-0
  6
Continuous
 62
     4
100
AcDbLine
 10
1628.322011
 20
799.8473729999999
 30
0.0
 11
1628.322011
 21
789.847373
 31
0.0
  0
LINE
  5
28D
330
6F
100
AcDbEntity
  8
8-0
  6
Continuous
 62
     4
100
AcDbLine
 10
1628.322011
 20
837.3473729999998
 30
0.0
 11
1628.322011
 21
847.347373
 31
0.0
  0
LINE
  5
28E
330
6F
100
AcDbEntity
  8
8-0
  6
Continuous
 62
     4
100
AcDbLine
 10
1628.322011
 20
818.5973729999998
 30
0.0
 11
1598.050903
 21
799.129513
 31
0.0
  0
LINE
  5
28F
330
6F
100
AcDbEntity
  8
8-0
  6
Continuous
 62
     4
100
AcDbLine
 10
1598.050903
 20
799.129513
 30
0.0
 11
1598.050903
 21
695.271645
 31
0.0
  0
TEXT
  5
290
330
6F
100
AcDbEntity
  8
8-0
 62
     4
100
AcDbText
 10
1597.431
 20
702.401
 30
0.0
 40
36.288
  1
17.5
 50
90.0
100
AcDbText
  0
LINE
  5
291
330
6F
100
AcDbEntity
  8
8-0
  6
Continuous
 62
     4
100
AcDbLine
 10
1628.322011
 20
809.847373
 30
0.0
 11
1628.322011
 21
827.3473729999999
 31
0.0
  0
LINE
  5
292
330
6F
100
AcDbEntity
  8
8-0
  6
Continuous
 62
     4
100
AcDbLine
 10
1628.322011
 20
809.847373
 30
0.0
 11
1628.322011
 21
827.3473729999999
 31
0.0
  0
CIRCLE
  5
293
330
6F
100
AcDbEntity
  8
8-0
  6
Continuous
 62
     4
100
AcDbCircle
 10
1628.322011483895
 20
809.847372663836
 30
0.0
 40
0.25
  0
CIRCLE
  5
294
330
6F
100
AcDbEntity
  8
8-0
  6
Continuous
 62
     4
100
AcDbCircle
 10
1628.322011483895
 20
809.847372663836
 30
0.0
 40
0.1875
  0
CIRCLE
  5
295
330
6F
100
AcDbEntity
  8
8-0
  6
Continuous
 62
     4
100
AcDbCircle
 10
1628.322011483895
 20
809.847372663836
 30
0.0
 40
0.125
  0
CIRCLE
  5
296
330
6F
100
AcDbEntity
  8
8-0
  6
Continuous
 62
     4
100
AcDbCircle
 10
1628.322011483895
 20
809.847372663836
 30
0.0
 40
0.0625
  0
ARC
  5
297
330
6F
100
AcDbEntity
  8
8-0
 62
     4
100
AcDbCircle
 10
1628.317011483895
 20
809.847372663836
 30
0.0
 40
2.5
100
AcDbArc
 50
90.11459140653
 51
270.114591405945
  0
LINE
  5
298
330
6F
100
AcDbEntity
  8
8-0
 62
     4
100
AcDbLine
 10
1628.322011483921
 20
804.8473726638359
 30
0.0
 11
1628.322011483946
 21
799.847372663836
 31
0.0
  0
CIRCLE
  5
299
330
6F
100
AcDbEntity
  8
8-0
  6
Continuous
 62
     4
100
AcDbCircle
 10
1628.322011483895
 20
827.347372663835
 30
0.0
 40
0.25
  0
CIRCLE
  5
29A
330
6F
100
AcDbEntity
  8
8-0
  6
Continuous
 62
     4
100
AcDbCircle
 10
1628.322011483895
 20
827.347372663835
 30
0.0
 40
0.1875
  0
CIRCLE
  5
29B
330
6F
100
AcDbEntity
  8
8-0
  6
Continuous
 62
     4
100
AcDbCircle
 10
1628.322011483895
 20
827.347372663835
 30
0.0
 40
0.125
  0
CIRCLE
  5
29C
330
6F
100
AcDbEntity
  8
8-0
  6
Continuous
 62
     4
100
AcDbCircle
 10
1628.322011483895
 20
827.347372663835
 30
0.0
 40
0.0625
  0
ARC
  5
29D
330
6F
100
AcDbEntity
  8
8-0
 62
     4
100
AcDbCircle
 10
1628.327011483895
 20
827.3473726638361
 30
0.0
 40
2.5
100
AcDbArc
 50
270.1145914065301
 51
90.11459140594496
  0
LINE
  5
29E
330
6F
100
AcDbEntity
  8
8-0
 62
     4
100
AcDbLine
 10
1628.322011483818
 20
832.3473726638351
 30
0.0
 11
1628.322011483742
 21
837.347372663835
 31
0.0
  0
LINE
  5
29F
330
6F
100
AcDbEntity
  8
8-0
  6
Continuous
 62
     4
100
AcDbLine
 10
1743.32892
 20
862.3473729999998
 30
0.0
 11
1628.322011
 21
862.3473729999998
 31
0.0
  0
LINE
  5
2A0
330
6F
100
AcDbEntity
  8
8-0
  6
Continuous
 62
     4
100
AcDbLine
 10
1743.236455
 20
827.3473729999999
 30
0.0
 11
1628.322011
 21
827.3473729999999
 31
0.0
  0
TEXT
  5
2A1
330
6F
100
AcDbEntity
  8
8-0
 62
     4
100
AcDbText
 10
1595.202
 20
862.6289999999999
 30
0.0
 40
36.288
  1
35
 50
90.0
100
AcDbText
  0
LINE
  5
2A2
330
6F
100
AcDbEntity
  8
8-0
  6
Continuous
 62
     4
100
AcDbLine
 10
1628.322011483895
 20
827.347372663835
 30
0.0
 11
1628.322011483895
 21
862.347372663835
 31
0.0
  0
CIRCLE
  5
2A3
330
6F
100
AcDbEntity
  8
8-0
  6
Continuous
 62
     4
100
AcDbCircle
 10
1628.322011483895
 20
827.347372663835
 30
0.0
 40
0.25
  0
CIRCLE
  5
2A4
330
6F
100
AcDbEntity
  8
8-0
  6
Continuous
 62
     4
100
AcDbCircle
 10
1628.322011483895
 20
827.347372663835
 30
0.0
 40
0.1875
  0
CIRCLE
  5
2A5
330
6F
100
AcDbEntity
  8
8-0
  6
Continuous
 62
     4
100
AcDbCircle
 10
1628.322011483895
 20
827.347372663835
 30
0.0
 40
0.125
  0
CIRCLE
  5
2A6
330
6F
100
AcDbEntity
  8
8-0
  6
Continuous
 62
     4
100
AcDbCircle
 10
1628.322011483895
 20
827.347372663835
 30
0.0
 40
0.0625
  0
CIRCLE
  5
2A7
330
6F
100
AcDbEntity
  8
8-0
  6
Continuous
 62
     4
100
AcDbCircle
 10
1628.322011483895
 20
862.347372663835
 30
0.0
 40
0.25
  0
CIRCLE
  5
2A8
330
6F
100
AcDbEntity
  8
8-0
  6
Continuous
 62
     4
100
AcDbCircle
 10
1628.322011483895
 20
862.347372663835
 30
0.0
 40
0.1875
  0
CIRCLE
  5
2A9
330
6F
100
AcDbEntity
  8
8-0
  6
Continuous
 62
     4
100
AcDbCircle
 10
1628.322011483895
 20
862.347372663835
 30
0.0
 40
0.125
  0
CIRCLE
  5
2AA
330
6F
100
AcDbEntity
  8
8-0
  6
Continuous
 62
     4
100
AcDbCircle
 10
1628.322011483895
 20
862.347372663835
 30
0.0
 40
0.0625
  0
LINE
  5
2AB
330
6F
100
AcDbEntity
  8
8-0
  6
Continuous
 62
     4
100
AcDbLine
 10
1743.282688
 20
1409.847373
 30
0.0
 11
1628.322011
 21
1409.847373
 31
0.0
  0
LINE
  5
2AC
330
6F
100
AcDbEntity
  8
8-0
  6
Continuous
 62
     4
100
AcDbLine
 10
1743.236455
 20
1394.847373
 30
0.0
 11
1628.322011
 21
1394.847373
 31
0.0
  0
LINE
  5
2AD
330
6F
100
AcDbEntity
  8
8-0
  6
Continuous
 62
     4
100
AcDbLine
 10
1628.322011
 20
1419.847373
 30
0.0
 11
1628.322011
 21
1429.847373
 31
0.0
  0
LINE
  5
2AE
330
6F
100
AcDbEntity
  8
8-0
  6
Continuous
 62
     4
100
AcDbLine
 10
1628.322011
 20
1384.847373
 30
0.0
 11
1628.322011
 21
1374.847373
 31
0.0
  0
LINE
  5
2AF
330
6F
100
AcDbEntity
  8
8-0
  6
Continuous
 62
     4
100
AcDbLine
 10
1628.322011
 20
1402.347373
 30
0.0
 11
1598.050903
 21
1420.565232
 31
0.0
  0
LINE
  5
2B0
330
6F
100
AcDbEntity
  8
8-0
  6
Continuous
 62
     4
100
AcDbLine
 10
1598.050903
 20
1420.565232
 30
0.0
 11
1598.050903
 21
1478.940867
 31
0.0
  0
TEXT
  5
2B1
330
6F
100
AcDbEntity
  8
8-0
 62
     4
100
AcDbText
 10
1597.431
 20
1427.353
 30
0.0
 40
36.288
  1
15
 50
90.0
100
AcDbText
  0
LINE
  5
2B2
330
6F
100
AcDbEntity
  8
8-0
  6
Continuous
 62
     4
100
AcDbLine
 10
1628.322011
 20
1409.847373
 30
0.0
 11
1628.322011
 21
1394.847373
 31
0.0
  0
LINE
  5
2B3
330
6F
100
AcDbEntity
  8
8-0
  6
Continuous
 62
     4
100
AcDbLine
 10
1628.322011
 20
1409.847373
 30
0.0
 11
1628.322011
 21
1394.847373
 31
0.0
  0
CIRCLE
  5
2B4
330
6F
100
AcDbEntity
  8
8-0
  6
Continuous
 62
     4
100
AcDbCircle
 10
1628.322011483895
 20
1409.847372663836
 30
0.0
 40
0.25
  0
CIRCLE
  5
2B5
330
6F
100
AcDbEntity
  8
8-0
  6
Continuous
 62
     4
100
AcDbCircle
 10
1628.322011483895
 20
1409.847372663836
 30
0.0
 40
0.1875
  0
CIRCLE
  5
2B6
330
6F
100
AcDbEntity
  8
8-0
  6
Continuous
 62
     4
100
AcDbCircle
 10
1628.322011483895
 20
1409.847372663836
 30
0.0
 40
0.125
  0
CIRCLE
  5
2B7
330
6F
100
AcDbEntity
  8
8-0
  6
Continuous
 62
     4
100
AcDbCircle
 10
1628.322011483895
 20
1409.847372663836
 30
0.0
 40
0.0625
  0
ARC
  5
2B8
330
6F
100
AcDbEntity
  8
8-0
 62
     4
100
AcDbCircle
 10
1628.327011483895
 20
1409.847372663836
 30
0.0
 40
2.5
100
AcDbArc
 50
270.1145914065301
 51
90.11459140594496
  0
LINE
  5
2B9
330
6F
100
AcDbEntity
  8
8-0
 62
     4
100
AcDbLine
 10
1628.322011483818
 20
1414.847372663836
 30
0.0
 11
1628.322011483742
 21
1419.847372663836
 31
0.0
  0
CIRCLE
  5
2BA
330
6F
100
AcDbEntity
  8
8-0
  6
Continuous
 62
     4
100
AcDbCircle
 10
1628.322011483895
 20
1394.847372663836
 30
0.0
 40
0.25
  0
CIRCLE
  5
2BB
330
6F
100
AcDbEntity
  8
8-0
  6
Continuous
 62
     4
100
AcDbCircle
 10
1628.322011483895
 20
1394.847372663836
 30
0.0
 40
0.1875
  0
CIRCLE
  5
2BC
330
6F
100
AcDbEntity
  8
8-0
  6
Continuous
 62
     4
100
AcDbCircle
 10
1628.322011483895
 20
1394.847372663836
 30
0.0
 40
0.125
  0
CIRCLE
  5
2BD
330
6F
100
AcDbEntity
  8
8-0
  6
Continuous
 62
     4
100
AcDbCircle
 10
1628.322011483895
 20
1394.847372663836
 30
0.0
 40
0.0625
  0
ARC
  5
2BE
330
6F
100
AcDbEntity
  8
8-0
 62
     4
100
AcDbCircle
 10
1628.317011483895
 20
1394.847372663836
 30
0.0
 40
2.5
100
AcDbArc
 50
90.11459140653
 51
270.114591405945
  0
LINE
  5
2BF
330
6F
100
AcDbEntity
  8
8-0
 62
     4
100
AcDbLine
 10
1628.322011483921
 20
1389.847372663836
 30
0.0
 11
1628.322011483946
 21
1384.847372663836
 31
0.0
  0
LINE
  5
2C0
330
6F
100
AcDbEntity
  8
8-0
  6
Continuous
 62
     4
100
AcDbLine
 10
1743.32892
 20
1394.847373
 30
0.0
 11
1628.322011
 21
1394.847373
 31
0.0
  0
LINE
  5
2C1
330
6F
100
AcDbEntity
  8
8-0
  6
Continuous
 62
     4
100
AcDbLine
 10
1742.301523
 20
1354.847373
 30
0.0
 11
1628.322011
 21
1354.847373
 31
0.0
  0
LINE
  5
2C2
330
6F
100
AcDbEntity
  8
8-0
  6
Continuous
 62
     4
100
AcDbLine
 10
1628.322011
 20
1384.847373
 30
0.0
 11
1628.322011
 21
1364.847373
 31
0.0
  0
LINE
  5
2C3
330
6F
100
AcDbEntity
  8
8-0
  6
Continuous
 62
     4
100
AcDbLine
 10
1628.322011
 20
1374.847373
 30
0.0
 11
1598.262537
 21
1353.772545
 31
0.0
  0
LINE
  5
2C4
330
6F
100
AcDbEntity
  8
8-0
  6
Continuous
 62
     4
100
AcDbLine
 10
1598.262537
 20
1353.772545
 30
0.0
 11
1598.262537
 21
1291.488281
 31
0.0
  0
TEXT
  5
2C5
330
6F
100
AcDbEntity
  8
8-0
 62
     4
100
AcDbText
 10
1597.643
 20
1300.23
 30
0.0
 40
36.288
  1
40
 50
90.0
100
AcDbText
  0
CIRCLE
  5
2C6
330
6F
100
AcDbEntity
  8
8-0
  6
Continuous
 62
     4
100
AcDbCircle
 10
1628.322011483895
 20
1394.847372663835
 30
0.0
 40
0.25
  0
CIRCLE
  5
2C7
330
6F
100
AcDbEntity
  8
8-0
  6
Continuous
 62
     4
100
AcDbCircle
 10
1628.322011483895
 20
1394.847372663835
 30
0.0
 40
0.1875
  0
CIRCLE
  5
2C8
330
6F
100
AcDbEntity
  8
8-0
  6
Continuous
 62
     4
100
AcDbCircle
 10
1628.322011483895
 20
1394.847372663835
 30
0.0
 40
0.125
  0
CIRCLE
  5
2C9
330
6F
100
AcDbEntity
  8
8-0
  6
Continuous
 62
     4
100
AcDbCircle
 10
1628.322011483895
 20
1394.847372663835
 30
0.0
 40
0.0625
  0
ARC
  5
2CA
330
6F
100
AcDbEntity
  8
8-0
 62
     4
100
AcDbCircle
 10
1628.317011483895
 20
1394.847372663835
 30
0.0
 40
2.5
100
AcDbArc
 50
90.11459140653
 51
270.114591405945
  0
LINE
  5
2CB
330
6F
100
AcDbEntity
  8
8-0
 62
     4
100
AcDbLine
 10
1628.322011483921
 20
1389.847372663835
 30
0.0
 11
1628.322011483946
 21
1384.847372663835
 31
0.0
  0
CIRCLE
  5
2CC
330
6F
100
AcDbEntity
  8
8-0
  6
Continuous
 62
     4
100
AcDbCircle
 10
1628.322011483895
 20
1354.847372663835
 30
0.0
 40
0.25
  0
CIRCLE
  5
2CD
330
6F
100
AcDbEntity
  8
8-0
  6
Continuous
 62
     4
100
AcDbCircle
 10
1628.322011483895
 20
1354.847372663835
 30
0.0
 40
0.1875
  0
CIRCLE
  5
2CE
330
6F
100
AcDbEntity
  8
8-0
  6
Continuous
 62
     4
100
AcDbCircle
 10
1628.322011483895
 20
1354.847372663835
 30
0.0
 40
0.125
  0
CIRCLE
  5
2CF
330
6F
100
AcDbEntity
  8
8-0
  6
Continuous
 62
     4
100
AcDbCircle
 10
1628.322011483895
 20
1354.847372663835
 30
0.0
 40
0.0625
  0
ARC
  5
2D0
330
6F
100
AcDbEntity
  8
8-0
 62
     4
100
AcDbCircle
 10
1628.327011483895
 20
1354.847372663835
 30
0.0
 40
2.5
100
AcDbArc
 50
270.1145914065301
 51
90.11459140594496
  0
LINE
  5
2D1
330
6F
100
AcDbEntity
  8
8-0
 62
     4
100
AcDbLine
 10
1628.322011483818
 20
1359.847372663835
 30
0.0
 11
1628.322011483742
 21
1364.847372663835
 31
0.0
  0
LINE
  5
2D2
330
6F
100
AcDbEntity
  8
8-0
  6
Continuous
 62
     4
100
AcDbLine
 10
2125.891838
 20
742.394942
 30
0.0
 11
2125.891838
 21
675.8450179999999
 31
0.0
  0
LINE
  5
2D3
330
6F
100
AcDbEntity
  8
8-0
  6
Continuous
 62
     4
100
AcDbLine
 10
1780.891838
 20
740.9284949999999
 30
0.0
 11
1780.891838
 21
675.8450179999999
 31
0.0
  0
TEXT
  5
2D4
330
6F
100
AcDbEntity
  8
8-0
 62
     4
100
AcDbText
 10
1922.614
 20
676.465
 30
0.0
 40
36.288
  1
345
100
AcDbText
  0
LINE
  5
2D5
330
6F
100
AcDbEntity
  8
8-0
  6
Continuous
 62
     4
100
AcDbLine
 10
1780.891838316067
 20
675.845017717035
 30
0.0
 11
2125.891838316068
 21
675.845017717035
 31
0.0
  0
CIRCLE
  5
2D6
330
6F
100
AcDbEntity
  8
8-0
  6
Continuous
 62
     4
100
AcDbCircle
 10
1780.891838316067
 20
675.845017717035
 30
0.0
 40
0.25
  0
CIRCLE
  5
2D7
330
6F
100
AcDbEntity
  8
8-0
  6
Continuous
 62
     4
100
AcDbCircle
 10
1780.891838316067
 20
675.845017717035
 30
0.0
 40
0.1875
  0
CIRCLE
  5
2D8
330
6F
100
AcDbEntity
  8
8-0
  6
Continuous
 62
     4
100
AcDbCircle
 10
1780.891838316067
 20
675.845017717035
 30
0.0
 40
0.125
  0
CIRCLE
  5
2D9
330
6F
100
AcDbEntity
  8
8-0
  6
Continuous
 62
     4
100
AcDbCircle
 10
1780.891838316067
 20
675.845017717035
 30
0.0
 40
0.0625
  0
CIRCLE
  5
2DA
330
6F
100
AcDbEntity
  8
8-0
  6
Continuous
 62
     4
100
AcDbCircle
 10
2125.891838316068
 20
675.845017717035
 30
0.0
 40
0.25
  0
CIRCLE
  5
2DB
330
6F
100
AcDbEntity
  8
8-0
  6
Continuous
 62
     4
100
AcDbCircle
 10
2125.891838316068
 20
675.845017717035
 30
0.0
 40
0.1875
  0
CIRCLE
  5
2DC
330
6F
100
AcDbEntity
  8
8-0
  6
Continuous
 62
     4
100
AcDbCircle
 10
2125.891838316068
 20
675.845017717035
 30
0.0
 40
0.125
  0
CIRCLE
  5
2DD
330
6F
100
AcDbEntity
  8
8-0
  6
Continuous
 62
     4
100
AcDbCircle
 10
2125.891838316068
 20
675.845017717035
 30
0.0
 40
0.0625
  0
LINE
  5
2DE
330
6F
100
AcDbEntity
  8
8-0
  6
Continuous
 62
     4
100
AcDbLine
 10
2142.891838
 20
692.496955
 30
0.0
 11
2142.891838
 21
575.8450179999999
 31
0.0
  0
LINE
  5
2DF
330
6F
100
AcDbEntity
  8
8-0
  6
Continuous
 62
     4
100
AcDbLine
 10
1780.891838
 20
690.945497
 30
0.0
 11
1780.891838
 21
575.8450179999999
 31
0.0
  0
TEXT
  5
2E0
330
6F
100
AcDbEntity
  8
8-0
 62
     4
100
AcDbText
 10
1931.114
 20
576.465
 30
0.0
 40
36.288
  1
362
100
AcDbText
  0
LINE
  5
2E1
330
6F
100
AcDbEntity
  8
8-0
  6
Continuous
 62
     4
100
AcDbLine
 10
1780.891838316067
 20
575.845017717035
 30
0.0
 11
2142.891838316068
 21
575.845017717035
 31
0.0
  0
CIRCLE
  5
2E2
330
6F
100
AcDbEntity
  8
8-0
  6
Continuous
 62
     4
100
AcDbCircle
 10
1780.891838316067
 20
575.845017717035
 30
0.0
 40
0.25
  0
CIRCLE
  5
2E3
330
6F
100
AcDbEntity
  8
8-0
  6
Continuous
 62
     4
100
AcDbCircle
 10
1780.891838316067
 20
575.845017717035
 30
0.0
 40
0.1875
  0
CIRCLE
  5
2E4
330
6F
100
AcDbEntity
  8
8-0
  6
Continuous
 62
     4
100
AcDbCircle
 10
1780.891838316067
 20
575.845017717035
 30
0.0
 40
0.125
  0
CIRCLE
  5
2E5
330
6F
100
AcDbEntity
  8
8-0
  6
Continuous
 62
     4
100
AcDbCircle
 10
1780.891838316067
 20
575.845017717035
 30
0.0
 40
0.0625
  0
CIRCLE
  5
2E6
330
6F
100
AcDbEntity
  8
8-0
  6
Continuous
 62
     4
100
AcDbCircle
 10
2142.891838316068
 20
575.845017717035
 30
0.0
 40
0.25
  0
CIRCLE
  5
2E7
330
6F
100
AcDbEntity
  8
8-0
  6
Continuous
 62
     4
100
AcDbCircle
 10
2142.891838316068
 20
575.845017717035
 30
0.0
 40
0.1875
  0
CIRCLE
  5
2E8
330
6F
100
AcDbEntity
  8
8-0
  6
Continuous
 62
     4
100
AcDbCircle
 10
2142.891838316068
 20
575.845017717035
 30
0.0
 40
0.125
  0
CIRCLE
  5
2E9
330
6F
100
AcDbEntity
  8
8-0
  6
Continuous
 62
     4
100
AcDbCircle
 10
2142.891838316068
 20
575.845017717035
 30
0.0
 40
0.0625
  0
LINE
  5
2EA
330
6F
100
AcDbEntity
  8
8-0
  6
Continuous
 62
     4
100
AcDbLine
 10
2125.891838
 20
742.394942
 30
0.0
 11
2125.891838
 21
675.8450179999999
 31
0.0
  0
LINE
  5
2EB
330
6F
100
AcDbEntity
  8
8-0
  6
Continuous
 62
     4
100
AcDbLine
 10
2127.891838
 20
742.386441
 30
0.0
 11
2127.891838
 21
675.8450179999999
 31
0.0
  0
LINE
  5
2EC
330
6F
100
AcDbEntity
  8
8-0
  6
Continuous
 62
     4
100
AcDbLine
 10
2115.891838
 20
675.8450179999999
 30
0.0
 11
2105.891838
 21
675.8450179999999
 31
0.0
  0
LINE
  5
2ED
330
6F
100
AcDbEntity
  8
8-0
  6
Continuous
 62
     4
100
AcDbLine
 10
2137.891838
 20
675.8450179999999
 30
0.0
 11
2147.891838
 21
675.8450179999999
 31
0.0
  0
LINE
  5
2EE
330
6F
100
AcDbEntity
  8
8-0
  6
Continuous
 62
     4
100
AcDbLine
 10
2126.891838
 20
675.8450179999999
 30
0.0
 11
2100.704658
 21
621.545018
 31
0.0
  0
LINE
  5
2EF
330
6F
100
AcDbEntity
  8
8-0
  6
Continuous
 62
     4
100
AcDbLine
 10
2100.704658
 20
621.545018
 30
0.0
 11
2062.582831
 21
621.545018
 31
0.0
  0
TEXT
  5
2F0
330
6F
100
AcDbEntity
  8
8-0
 62
     4
100
AcDbText
 10
2073.266
 20
622.1649999999999
 30
0.0
 40
36.288
  1
2
100
AcDbText
  0
LINE
  5
2F1
330
6F
100
AcDbEntity
  8
8-0
  6
Continuous
 62
     4
100
AcDbLine
 10
2125.891838
 20
675.8450179999999
 30
0.0
 11
2127.891838
 21
675.8450179999999
 31
0.0
  0
LINE
  5
2F2
330
6F
100
AcDbEntity
  8
8-0
  6
Continuous
 62
     4
100
AcDbLine
 10
2125.891838
 20
675.8450179999999
 30
0.0
 11
2127.891838
 21
675.8450179999999
 31
0.0
  0
CIRCLE
  5
2F3
330
6F
100
AcDbEntity
  8
8-0
  6
Continuous
 62
     4
100
AcDbCircle
 10
2125.891838316068
 20
675.845017717035
 30
0.0
 40
0.25
  0
CIRCLE
  5
2F4
330
6F
100
AcDbEntity
  8
8-0
  6
Continuous
 62
     4
100
AcDbCircle
 10
2125.891838316068
 20
675.845017717035
 30
0.0
 40
0.1875
  0
CIRCLE
  5
2F5
330
6F
100
AcDbEntity
  8
8-0
  6
Continuous
 62
     4
100
AcDbCircle
 10
2125.891838316068
 20
675.845017717035
 30
0.0
 40
0.125
  0
CIRCLE
  5
2F6
330
6F
100
AcDbEntity
  8
8-0
  6
Continuous
 62
     4
100
AcDbCircle
 10
2125.891838316068
 20
675.845017717035
 30
0.0
 40
0.0625
  0
ARC
  5
2F7
330
6F
100
AcDbEntity
  8
8-0
 62
     4
100
AcDbCircle
 10
2125.891838316068
 20
675.850017717035
 30
0.0
 40
2.5
100
AcDbArc
 50
0.1145914065300158
 51
180.114591405945
  0
LINE
  5
2F8
330
6F
100
AcDbEntity
  8
8-0
 62
     4
100
AcDbLine
 10
2120.891838316068
 20
675.845017717035
 30
0.0
 11
2115.891838316068
 21
675.845017717035
 31
0.0
  0
CIRCLE
  5
2F9
330
6F
100
AcDbEntity
  8
8-0
  6
Continuous
 62
     4
100
AcDbCircle
 10
2127.891838316068
 20
675.845017717035
 30
0.0
 40
0.25
  0
CIRCLE
  5
2FA
330
6F
100
AcDbEntity
  8
8-0
  6
Continuous
 62
     4
100
AcDbCircle
 10
2127.891838316068
 20
675.845017717035
 30
0.0
 40
0.1875
  0
CIRCLE
  5
2FB
330
6F
100
AcDbEntity
  8
8-0
  6
Continuous
 62
     4
100
AcDbCircle
 10
2127.891838316068
 20
675.845017717035
 30
0.0
 40
0.125
  0
CIRCLE
  5
2FC
330
6F
100
AcDbEntity
  8
8-0
  6
Continuous
 62
     4
100
AcDbCircle
 10
2127.891838316068
 20
675.845017717035
 30
0.0
 40
0.0625
  0
ARC
  5
2FD
330
6F
100
AcDbEntity
  8
8-0
 62
     4
100
AcDbCircle
 10
2127.891838316068
 20
675.840017717035
 30
0.0
 40
2.5
100
AcDbArc
 50
180.1145914065301
 51
0.1145914059449637
  0
LINE
  5
2FE
330
6F
100
AcDbEntity
  8
8-0
 62
     4
100
AcDbLine
 10
2132.891838316068
 20
675.845017717086
 30
0.0
 11
2137.891838316068
 21
675.8450177171369
 31
0.0
  0
LINE
  5
2FF
330
6F
100
AcDbEntity
  8
8-0
  6
Continuous
 62
     4
100
AcDbLine
 10
2142.891838
 20
742.4629509999999
 30
0.0
 11
2142.891838
 21
675.8450179999999
 31
0.0
  0
LINE
  5
300
330
6F
100
AcDbEntity
  8
8-0
  6
Continuous
 62
     4
100
AcDbLine
 10
2127.891838
 20
742.386441
 30
0.0
 11
2127.891838
 21
675.8450179999999
 31
0.0
  0
LINE
  5
301
330
6F
100
AcDbEntity
  8
8-0
  6
Continuous
 62
     4
100
AcDbLine
 10
2152.891838
 20
675.8450179999999
 30
0.0
 11
2162.891838
 21
675.8450179999999
 31
0.0
  0
LINE
  5
302
330
6F
100
AcDbEntity
  8
8-0
  6
Continuous
 62
     4
100
AcDbLine
 10
2117.891838
 20
675.8450179999999
 30
0.0
 11
2107.891838
 21
675.8450179999999
 31
0.0
  0
LINE
  5
303
330
6F
100
AcDbEntity
  8
8-0
  6
Continuous
 62
     4
100
AcDbLine
 10
2135.391838
 20
675.8450179999999
 30
0.0
 11
2162.041337
 21
621.545018
 31
0.0
  0
LINE
  5
304
330
6F
100
AcDbEntity
  8
8-0
  6
Continuous
 62
     4
100
AcDbLine
 10
2162.041337
 20
621.545018
 30
0.0
 11
2220.416972
 21
621.545018
 31
0.0
  0
TEXT
  5
305
330
6F
100
AcDbEntity
  8
8-0
 62
     4
100
AcDbText
 10
2171.652
 20
622.1649999999999
 30
0.0
 40
36.288
  1
15
100
AcDbText
  0
LINE
  5
306
330
6F
100
AcDbEntity
  8
8-0
  6
Continuous
 62
     4
100
AcDbLine
 10
2142.891838
 20
675.8450179999999
 30
0.0
 11
2127.891838
 21
675.8450179999999
 31
0.0
  0
LINE
  5
307
330
6F
100
AcDbEntity
  8
8-0
  6
Continuous
 62
     4
100
AcDbLine
 10
2142.891838
 20
675.8450179999999
 30
0.0
 11
2127.891838
 21
675.8450179999999
 31
0.0
  0
CIRCLE
  5
308
330
6F
100
AcDbEntity
  8
8-0
  6
Continuous
 62
     4
100
AcDbCircle
 10
2142.891838316068
 20
675.845017717035
 30
0.0
 40
0.25
  0
CIRCLE
  5
309
330
6F
100
AcDbEntity
  8
8-0
  6
Continuous
 62
     4
100
AcDbCircle
 10
2142.891838316068
 20
675.845017717035
 30
0.0
 40
0.1875
  0
CIRCLE
  5
30A
330
6F
100
AcDbEntity
  8
8-0
  6
Continuous
 62
     4
100
AcDbCircle
 10
2142.891838316068
 20
675.845017717035
 30
0.0
 40
0.125
  0
CIRCLE
  5
30B
330
6F
100
AcDbEntity
  8
8-0
  6
Continuous
 62
     4
100
AcDbCircle
 10
2142.891838316068
 20
675.845017717035
 30
0.0
 40
0.0625
  0
ARC
  5
30C
330
6F
100
AcDbEntity
  8
8-0
 62
     4
100
AcDbCircle
 10
2142.891838316068
 20
675.840017717035
 30
0.0
 40
2.5
100
AcDbArc
 50
180.1145914065301
 51
0.1145914059449637
  0
LINE
  5
30D
330
6F
100
AcDbEntity
  8
8-0
 62
     4
100
AcDbLine
 10
2147.891838316068
 20
675.845017717086
 30
0.0
 11
2152.891838316068
 21
675.8450177171369
 31
0.0
  0
CIRCLE
  5
30E
330
6F
100
AcDbEntity
  8
8-0
  6
Continuous
 62
     4
100
AcDbCircle
 10
2127.891838316068
 20
675.845017717035
 30
0.0
 40
0.25
  0
CIRCLE
  5
30F
330
6F
100
AcDbEntity
  8
8-0
  6
Continuous
 62
     4
100
AcDbCircle
 10
2127.891838316068
 20
675.845017717035
 30
0.0
 40
0.1875
  0
CIRCLE
  5
310
330
6F
100
AcDbEntity
  8
8-0
  6
Continuous
 62
     4
100
AcDbCircle
 10
2127.891838316068
 20
675.845017717035
 30
0.0
 40
0.125
  0
CIRCLE
  5
311
330
6F
100
AcDbEntity
  8
8-0
  6
Continuous
 62
     4
100
AcDbCircle
 10
2127.891838316068
 20
675.845017717035
 30
0.0
 40
0.0625
  0
ARC
  5
312
330
6F
100
AcDbEntity
  8
8-0
 62
     4
100
AcDbCircle
 10
2127.891838316068
 20
675.850017717035
 30
0.0
 40
2.5
100
AcDbArc
 50
0.1145914065300158
 51
180.114591405945
  0
LINE
  5
313
330
6F
100
AcDbEntity
  8
8-0
 62
     4
100
AcDbLine
 10
2122.891838316068
 20
675.845017717035
 30
0.0
 11
2117.891838316068
 21
675.845017717035
 31
0.0
  0
LINE
  5
314
330
6F
100
AcDbEntity
  8
8-0
  6
Continuous
 62
     4
100
AcDbLine
 10
1643.282688
 20
809.847373
 30
0.0
 11
1528.322011
 21
809.847373
 31
0.0
  0
LINE
  5
315
330
6F
100
AcDbEntity
  8
8-0
  6
Continuous
 62
     4
100
AcDbLine
 10
1557.271788
 20
1109.847373
 30
0.0
 11
1528.322011
 21
1109.847373
 31
0.0
  0
TEXT
  5
316
330
6F
100
AcDbEntity
  8
8-0
 62
     4
100
AcDbText
 10
1527.702
 20
926.247
 30
0.0
 40
36.288
  1
300
 50
90.0
100
AcDbText
  0
LINE
  5
317
330
6F
100
AcDbEntity
  8
8-0
  6
Continuous
 62
     4
100
AcDbLine
 10
1528.322011483895
 20
1109.847372663836
 30
0.0
 11
1528.322011483895
 21
809.847372663836
 31
0.0
  0
CIRCLE
  5
318
330
6F
100
AcDbEntity
  8
8-0
  6
Continuous
 62
     4
100
AcDbCircle
 10
1528.322011483895
 20
1109.847372663836
 30
0.0
 40
0.25
  0
CIRCLE
  5
319
330
6F
100
AcDbEntity
  8
8-0
  6
Continuous
 62
     4
100
AcDbCircle
 10
1528.322011483895
 20
1109.847372663836
 30
0.0
 40
0.1875
  0
CIRCLE
  5
31A
330
6F
100
AcDbEntity
  8
8-0
  6
Continuous
 62
     4
100
AcDbCircle
 10
1528.322011483895
 20
1109.847372663836
 30
0.0
 40
0.125
  0
CIRCLE
  5
31B
330
6F
100
AcDbEntity
  8
8-0
  6
Continuous
 62
     4
100
AcDbCircle
 10
1528.322011483895
 20
1109.847372663836
 30
0.0
 40
0.0625
  0
CIRCLE
  5
31C
330
6F
100
AcDbEntity
  8
8-0
  6
Continuous
 62
     4
100
AcDbCircle
 10
1528.322011483895
 20
809.847372663836
 30
0.0
 40
0.25
  0
CIRCLE
  5
31D
330
6F
100
AcDbEntity
  8
8-0
  6
Continuous
 62
     4
100
AcDbCircle
 10
1528.322011483895
 20
809.847372663836
 30
0.0
 40
0.1875
  0
CIRCLE
  5
31E
330
6F
100
AcDbEntity
  8
8-0
  6
Continuous
 62
     4
100
AcDbCircle
 10
1528.322011483895
 20
809.847372663836
 30
0.0
 40
0.125
  0
CIRCLE
  5
31F
330
6F
100
AcDbEntity
  8
8-0
  6
Continuous
 62
     4
100
AcDbCircle
 10
1528.322011483895
 20
809.847372663836
 30
0.0
 40
0.0625
  0
LINE
  5
320
330
6F
100
AcDbEntity
  8
8-0
  6
Continuous
 62
     4
100
AcDbLine
 10
2187.431393
 20
1404.847373
 30
0.0
 11
2302.392069
 21
1404.847373
 31
0.0
  0
LINE
  5
321
330
6F
100
AcDbEntity
  8
8-0
  6
Continuous
 62
     4
100
AcDbLine
 10
2162.891838
 20
784.8473729999999
 30
0.0
 11
2302.392069
 21
784.8473729999999
 31
0.0
  0
TEXT
  5
322
330
6F
100
AcDbEntity
  8
8-0
 62
     4
100
AcDbText
 10
2301.772
 20
1061.247
 30
0.0
 40
36.288
  1
620
 50
90.0
100
AcDbText
  0
LINE
  5
323
330
6F
100
AcDbEntity
  8
8-0
  6
Continuous
 62
     4
100
AcDbLine
 10
2302.392068693455
 20
784.847372663836
 30
0.0
 11
2302.392068693455
 21
1404.847372663836
 31
0.0
  0
CIRCLE
  5
324
330
6F
100
AcDbEntity
  8
8-0
  6
Continuous
 62
     4
100
AcDbCircle
 10
2302.392068693455
 20
784.847372663836
 30
0.0
 40
0.25
  0
CIRCLE
  5
325
330
6F
100
AcDbEntity
  8
8-0
  6
Continuous
 62
     4
100
AcDbCircle
 10
2302.392068693455
 20
784.847372663836
 30
0.0
 40
0.1875
  0
CIRCLE
  5
326
330
6F
100
AcDbEntity
  8
8-0
  6
Continuous
 62
     4
100
AcDbCircle
 10
2302.392068693455
 20
784.847372663836
 30
0.0
 40
0.125
  0
CIRCLE
  5
327
330
6F
100
AcDbEntity
  8
8-0
  6
Continuous
 62
     4
100
AcDbCircle
 10
2302.392068693455
 20
784.847372663836
 30
0.0
 40
0.0625
  0
CIRCLE
  5
328
330
6F
100
AcDbEntity
  8
8-0
  6
Continuous
 62
     4
100
AcDbCircle
 10
2302.392068693455
 20
1404.847372663836
 30
0.0
 40
0.25
  0
CIRCLE
  5
329
330
6F
100
AcDbEntity
  8
8-0
  6
Continuous
 62
     4
100
AcDbCircle
 10
2302.392068693455
 20
1404.847372663836
 30
0.0
 40
0.1875
  0
CIRCLE
  5
32A
330
6F
100
AcDbEntity
  8
8-0
  6
Continuous
 62
     4
100
AcDbCircle
 10
2302.392068693455
 20
1404.847372663836
 30
0.0
 40
0.125
  0
CIRCLE
  5
32B
330
6F
100
AcDbEntity
  8
8-0
  6
Continuous
 62
     4
100
AcDbCircle
 10
2302.392068693455
 20
1404.847372663836
 30
0.0
 40
0.0625
  0
LINE
  5
32C
330
6F
100
AcDbEntity
  8
8-0
  6
Continuous
 62
     4
100
AcDbLine
 10
2187.431393
 20
1404.847373
 30
0.0
 11
2302.392069
 21
1404.847373
 31
0.0
  0
LINE
  5
32D
330
6F
100
AcDbEntity
  8
8-0
  6
Continuous
 62
     4
100
AcDbLine
 10
2187.434875
 20
1409.847373
 30
0.0
 11
2302.392069
 21
1409.847373
 31
0.0
  0
TEXT
  5
32E
330
6F
100
AcDbEntity
  8
8-0
 62
     4
100
AcDbText
 10
2369.272
 20
1435.458
 30
0.0
 40
36.288
  1
5
 50
90.0
100
AcDbText
  0
LINE
  5
32F
330
6F
100
AcDbEntity
  8
8-0
  6
Continuous
 62
     4
100
AcDbLine
 10
2302.392068693455
 20
1409.847372663836
 30
0.0
 11
2302.392068693455
 21
1404.847372663836
 31
0.0
  0
CIRCLE
  5
330
330
6F
100
AcDbEntity
  8
8-0
  6
Continuous
 62
     4
100
AcDbCircle
 10
2302.392068693455
 20
1409.847372663836
 30
0.0
 40
0.25
  0
CIRCLE
  5
331
330
6F
100
AcDbEntity
  8
8-0
  6
Continuous
 62
     4
100
AcDbCircle
 10
2302.392068693455
 20
1409.847372663836
 30
0.0
 40
0.1875
  0
CIRCLE
  5
332
330
6F
100
AcDbEntity
  8
8-0
  6
Continuous
 62
     4
100
AcDbCircle
 10
2302.392068693455
 20
1409.847372663836
 30
0.0
 40
0.125
  0
CIRCLE
  5
333
330
6F
100
AcDbEntity
  8
8-0
  6
Continuous
 62
     4
100
AcDbCircle
 10
2302.392068693455
 20
1409.847372663836
 30
0.0
 40
0.0625
  0
CIRCLE
  5
334
330
6F
100
AcDbEntity
  8
8-0
  6
Continuous
 62
     4
100
AcDbCircle
 10
2302.392068693455
 20
1404.847372663836
 30
0.0
 40
0.25
  0
CIRCLE
  5
335
330
6F
100
AcDbEntity
  8
8-0
  6
Continuous
 62
     4
100
AcDbCircle
 10
2302.392068693455
 20
1404.847372663836
 30
0.0
 40
0.1875
  0
CIRCLE
  5
336
330
6F
100
AcDbEntity
  8
8-0
  6
Continuous
 62
     4
100
AcDbCircle
 10
2302.392068693455
 20
1404.847372663836
 30
0.0
 40
0.125
  0
CIRCLE
  5
337
330
6F
100
AcDbEntity
  8
8-0
  6
Continuous
 62
     4
100
AcDbCircle
 10
2302.392068693455
 20
1404.847372663836
 30
0.0
 40
0.0625
  0
LINE
  5
338
330
6F
100
AcDbEntity
  8
8-0
  6
Continuous
 62
     4
100
AcDbLine
 10
2125.891838
 20
1452.299804
 30
0.0
 11
2125.891838
 21
1518.849728
 31
0.0
  0
LINE
  5
339
330
6F
100
AcDbEntity
  8
8-0
  6
Continuous
 62
     4
100
AcDbLine
 10
1780.891838
 20
1453.76625
 30
0.0
 11
1780.891838
 21
1518.849728
 31
0.0
  0
TEXT
  5
33A
330
6F
100
AcDbEntity
  8
8-0
 62
     4
100
AcDbText
 10
1922.614
 20
1519.47
 30
0.0
 40
36.288
  1
345
100
AcDbText
  0
LINE
  5
33B
330
6F
100
AcDbEntity
  8
8-0
  6
Continuous
 62
     4
100
AcDbLine
 10
1780.891838316067
 20
1518.849727610636
 30
0.0
 11
2125.891838316068
 21
1518.849727610636
 31
0.0
  0
CIRCLE
  5
33C
330
6F
100
AcDbEntity
  8
8-0
  6
Continuous
 62
     4
100
AcDbCircle
 10
1780.891838316067
 20
1518.849727610636
 30
0.0
 40
0.25
  0
CIRCLE
  5
33D
330
6F
100
AcDbEntity
  8
8-0
  6
Continuous
 62
     4
100
AcDbCircle
 10
1780.891838316067
 20
1518.849727610636
 30
0.0
 40
0.1875
  0
CIRCLE
  5
33E
330
6F
100
AcDbEntity
  8
8-0
  6
Continuous
 62
     4
100
AcDbCircle
 10
1780.891838316067
 20
1518.849727610636
 30
0.0
 40
0.125
  0
CIRCLE
  5
33F
330
6F
100
AcDbEntity
  8
8-0
  6
Continuous
 62
     4
100
AcDbCircle
 10
1780.891838316067
 20
1518.849727610636
 30
0.0
 40
0.0625
  0
CIRCLE
  5
340
330
6F
100
AcDbEntity
  8
8-0
  6
Continuous
 62
     4
100
AcDbCircle
 10
2125.891838316068
 20
1518.849727610636
 30
0.0
 40
0.25
  0
CIRCLE
  5
341
330
6F
100
AcDbEntity
  8
8-0
  6
Continuous
 62
     4
100
AcDbCircle
 10
2125.891838316068
 20
1518.849727610636
 30
0.0
 40
0.1875
  0
CIRCLE
  5
342
330
6F
100
AcDbEntity
  8
8-0
  6
Continuous
 62
     4
100
AcDbCircle
 10
2125.891838316068
 20
1518.849727610636
 30
0.0
 40
0.125
  0
CIRCLE
  5
343
330
6F
100
AcDbEntity
  8
8-0
  6
Continuous
 62
     4
100
AcDbCircle
 10
2125.891838316068
 20
1518.849727610636
 30
0.0
 40
0.0625
  0
LINE
  5
344
330
6F
100
AcDbEntity
  8
9-0
  6
CENTER
 62
     6
100
AcDbLine
 10
1864.113195
 20
1109.847373
 30
0.0
 11
1532.410161
 21
1109.847373
 31
0.0
  0
CIRCLE
  5
345
330
6F
100
AcDbEntity
  8
2-0
  6
Continuous
 62
     7
100
AcDbCircle
 10
1821.091838
 20
1109.747373
 30
0.0
 40
2.5
  0
ARC
  5
346
330
6F
100
AcDbEntity
  8
2-0
  6
Continuous
 62
     7
100
AcDbCircle
 10
2080.904338
 20
1115.747373
 30
0.0
 40
7.6875
100
AcDbArc
 50
282.68
 51
77.31999999999999
  0
LINE
  5
347
330
6F
100
AcDbEntity
  8
2-0
  6
Continuous
 62
     7
100
AcDbLine
 10
1804.591838
 20
1123.247373
 30
0.0
 11
2082.591838
 21
1123.247373
 31
0.0
  0
CIRCLE
  5
348
330
6F
100
AcDbEntity
  8
2-0
  6
Continuous
 62
     7
100
AcDbCircle
 10
2060.091838
 20
1109.747373
 30
0.0
 40
2.5
  0
ARC
  5
349
330
6F
100
AcDbEntity
  8
2-0
  6
Continuous
 62
     7
100
AcDbCircle
 10
1804.591838
 20
1109.247373
 30
0.0
 40
1.0
100
AcDbArc
 50
180.0
 51
270.0
  0
ARC
  5
34A
330
6F
100
AcDbEntity
  8
2-0
  6
Continuous
 62
     7
100
AcDbCircle
 10
1804.591838
 20
1122.247373
 30
0.0
 40
1.0
100
AcDbArc
 50
90.0
 51
180.0
  0
LINE
  5
34B
330
6F
100
AcDbEntity
  8
2-0
  6
Continuous
 62
     7
100
AcDbLine
 10
1804.591838
 20
1108.247373
 30
0.0
 11
1811.591838
 21
1108.247373
 31
0.0
  0
LINE
  5
34C
330
6F
100
AcDbEntity
  8
2-0
  6
Continuous
 62
     7
100
AcDbLine
 10
1814.591838
 20
1112.247373
 30
0.0
 11
1827.591838
 21
1112.247373
 31
0.0
  0
ARC
  5
34D
330
6F
100
AcDbEntity
  8
2-0
  6
Continuous
 62
     7
100
AcDbCircle
 10
1814.591838
 20
1110.247373
 30
0.0
 40
2.0
100
AcDbArc
 50
90.0
 51
180.0
  0
ARC
  5
34E
330
6F
100
AcDbEntity
  8
2-0
  6
Continuous
 62
     7
100
AcDbCircle
 10
1827.591838
 20
1110.247373
 30
0.0
 40
2.0
100
AcDbArc
 50
0.0
 51
90.0
  0
LINE
  5
34F
330
6F
100
AcDbEntity
  8
2-0
  6
Continuous
 62
     7
100
AcDbLine
 10
1830.591838
 20
1108.247373
 30
0.0
 11
1840.591838
 21
1108.247373
 31
0.0
  0
ARC
  5
350
330
6F
100
AcDbEntity
  8
2-0
  6
Continuous
 62
     7
100
AcDbCircle
 10
1830.591838
 20
1109.247373
 30
0.0
 40
1.0
100
AcDbArc
 50
180.0
 51
270.0
  0
ARC
  5
351
330
6F
100
AcDbEntity
  8
2-0
  6
Continuous
 62
     7
100
AcDbCircle
 10
1840.591838
 20
1109.247373
 30
0.0
 40
1.0
100
AcDbArc
 50
270.0
 51
0.0
  0
LINE
  5
352
330
6F
100
AcDbEntity
  8
2-0
  6
Continuous
 62
     7
100
AcDbLine
 10
2038.591838
 20
1110.747373
 30
0.0
 11
1841.591838
 21
1110.747373
 31
0.0
  0
LINE
  5
353
330
6F
100
AcDbEntity
  8
2-0
  6
Continuous
 62
     7
100
AcDbLine
 10
2040.591838
 20
1108.247373
 30
0.0
 11
2050.591838
 21
1108.247373
 31
0.0
  0
ARC
  5
354
330
6F
100
AcDbEntity
  8
2-0
  6
Continuous
 62
     7
100
AcDbCircle
 10
2040.591838
 20
1109.247373
 30
0.0
 40
1.0
100
AcDbArc
 50
180.0
 51
270.0
  0
LINE
  5
355
330
6F
100
AcDbEntity
  8
2-0
  6
Continuous
 62
     7
100
AcDbLine
 10
2039.591838
 20
1109.747373
 30
0.0
 11
2039.591838
 21
1109.247373
 31
0.0
  0
ARC
  5
356
330
6F
100
AcDbEntity
  8
2-0
  6
Continuous
 62
     7
100
AcDbCircle
 10
2038.591838
 20
1109.747373
 30
0.0
 40
1.0
100
AcDbArc
 50
0.0
 51
90.0
  0
LINE
  5
357
330
6F
100
AcDbEntity
  8
2-0
  6
Continuous
 62
     7
100
AcDbLine
 10
2051.591838
 20
1109.247373
 30
0.0
 11
2051.591838
 21
1110.247373
 31
0.0
  0
ARC
  5
358
330
6F
100
AcDbEntity
  8
2-0
  6
Continuous
 62
     7
100
AcDbCircle
 10
2050.591838
 20
1109.247373
 30
0.0
 40
1.0
100
AcDbArc
 50
270.0
 51
0.0
  0
LINE
  5
359
330
6F
100
AcDbEntity
  8
2-0
  6
Continuous
 62
     7
100
AcDbLine
 10
2053.591838
 20
1112.247373
 30
0.0
 11
2066.591838
 21
1112.247373
 31
0.0
  0
ARC
  5
35A
330
6F
100
AcDbEntity
  8
2-0
  6
Continuous
 62
     7
100
AcDbCircle
 10
2053.591838
 20
1110.247373
 30
0.0
 40
2.0
100
AcDbArc
 50
90.0
 51
180.0
  0
LINE
  5
35B
330
6F
100
AcDbEntity
  8
2-0
  6
Continuous
 62
     7
100
AcDbLine
 10
2068.591838
 20
1110.247373
 30
0.0
 11
2068.591838
 21
1109.247373
 31
0.0
  0
ARC
  5
35C
330
6F
100
AcDbEntity
  8
2-0
  6
Continuous
 62
     7
100
AcDbCircle
 10
2066.591838
 20
1110.247373
 30
0.0
 40
2.0
100
AcDbArc
 50
0.0
 51
90.0
  0
LINE
  5
35D
330
6F
100
AcDbEntity
  8
2-0
  6
Continuous
 62
     7
100
AcDbLine
 10
2069.591838
 20
1108.247373
 30
0.0
 11
2082.591838
 21
1108.247373
 31
0.0
  0
ARC
  5
35E
330
6F
100
AcDbEntity
  8
2-0
  6
Continuous
 62
     7
100
AcDbCircle
 10
2069.591838
 20
1109.247373
 30
0.0
 40
1.0
100
AcDbArc
 50
180.0
 51
270.0
  0
ARC
  5
35F
330
6F
100
AcDbEntity
  8
2-0
  6
Continuous
 62
     7
100
AcDbCircle
 10
1811.591838
 20
1109.247373
 30
0.0
 40
1.0
100
AcDbArc
 50
270.0
 51
0.0
  0
LINE
  5
360
330
6F
100
AcDbEntity
  8
8-0
  6
Continuous
 62
     4
100
AcDbLine
 10
1803.591838
 20
1089.247373
 30
0.0
 11
1803.591838
 21
1024.309
 31
0.0
  0
LINE
  5
361
330
6F
100
AcDbEntity
  8
8-0
  6
Continuous
 62
     4
100
AcDbLine
 10
2088.591838
 20
1095.747373
 30
0.0
 11
2088.591838
 21
1024.309
 31
0.0
  0
TEXT
  5
362
330
6F
100
AcDbEntity
  8
8-0
 62
     4
100
AcDbText
 10
1915.314
 20
1024.929
 30
0.0
 40
36.288
  1
285
100
AcDbText
  0
LINE
  5
363
330
6F
100
AcDbEntity
  8
8-0
  6
Continuous
 62
     4
100
AcDbLine
 10
2088.591838316066
 20
1024.308999979529
 30
0.0
 11
1803.591838316068
 21
1024.308999979529
 31
0.0
  0
CIRCLE
  5
364
330
6F
100
AcDbEntity
  8
8-0
  6
Continuous
 62
     4
100
AcDbCircle
 10
2088.591838316066
 20
1024.308999979529
 30
0.0
 40
0.25
  0
CIRCLE
  5
365
330
6F
100
AcDbEntity
  8
8-0
  6
Continuous
 62
     4
100
AcDbCircle
 10
2088.591838316066
 20
1024.308999979529
 30
0.0
 40
0.1875
  0
CIRCLE
  5
366
330
6F
100
AcDbEntity
  8
8-0
  6
Continuous
 62
     4
100
AcDbCircle
 10
2088.591838316066
 20
1024.308999979529
 30
0.0
 40
0.125
  0
CIRCLE
  5
367
330
6F
100
AcDbEntity
  8
8-0
  6
Continuous
 62
     4
100
AcDbCircle
 10
2088.591838316066
 20
1024.308999979529
 30
0.0
 40
0.0625
  0
CIRCLE
  5
368
330
6F
100
AcDbEntity
  8
8-0
  6
Continuous
 62
     4
100
AcDbCircle
 10
1803.591838316068
 20
1024.308999979529
 30
0.0
 40
0.25
  0
CIRCLE
  5
369
330
6F
100
AcDbEntity
  8
8-0
  6
Continuous
 62
     4
100
AcDbCircle
 10
1803.591838316068
 20
1024.308999979529
 30
0.0
 40
0.1875
  0
CIRCLE
  5
36A
330
6F
100
AcDbEntity
  8
8-0
  6
Continuous
 62
     4
100
AcDbCircle
 10
1803.591838316068
 20
1024.308999979529
 30
0.0
 40
0.125
  0
CIRCLE
  5
36B
330
6F
100
AcDbEntity
  8
8-0
  6
Continuous
 62
     4
100
AcDbCircle
 10
1803.591838316068
 20
1024.308999979529
 30
0.0
 40
0.0625
  0
LINE
  5
36C
330
6F
100
AcDbEntity
  8
2-0
  6
Continuous
 62
     7
100
AcDbLine
 10
1829.591838
 20
1110.247373
 30
0.0
 11
1829.591838
 21
1109.247373
 31
0.0
  0
LINE
  5
36D
330
6F
100
AcDbEntity
  8
2-0
  6
Continuous
 62
     7
100
AcDbLine
 10
1812.591838
 20
1110.247373
 30
0.0
 11
1812.591838
 21
1109.247373
 31
0.0
  0
LINE
  5
36E
330
6F
100
AcDbEntity
  8
8-0
  6
Continuous
 62
     4
100
AcDbLine
 10
2125.891838
 20
767.394942
 30
0.0
 11
2125.891838
 21
675.8450179999999
 31
0.0
  0
LINE
  5
36F
330
6F
100
AcDbEntity
  8
8-0
  6
Continuous
 62
     4
100
AcDbLine
 10
1780.891838
 20
765.9284949999999
 30
0.0
 11
1780.891838
 21
675.8450179999999
 31
0.0
  0
TEXT
  5
370
330
6F
100
AcDbEntity
  8
8-0
 62
     4
100
AcDbText
 10
1922.614
 20
676.465
 30
0.0
 40
36.288
  1
345
100
AcDbText
  0
LINE
  5
371
330
6F
100
AcDbEntity
  8
8-0
  6
Continuous
 62
     4
100
AcDbLine
 10
1780.891838316067
 20
675.845017717035
 30
0.0
 11
2125.891838316068
 21
675.845017717035
 31
0.0
  0
CIRCLE
  5
372
330
6F
100
AcDbEntity
  8
8-0
  6
Continuous
 62
     4
100
AcDbCircle
 10
1780.891838316067
 20
675.845017717035
 30
0.0
 40
0.25
  0
CIRCLE
  5
373
330
6F
100
AcDbEntity
  8
8-0
  6
Continuous
 62
     4
100
AcDbCircle
 10
1780.891838316067
 20
675.845017717035
 30
0.0
 40
0.1875
  0
CIRCLE
  5
374
330
6F
100
AcDbEntity
  8
8-0
  6
Continuous
 62
     4
100
AcDbCircle
 10
1780.891838316067
 20
675.845017717035
 30
0.0
 40
0.125
  0
CIRCLE
  5
375
330
6F
100
AcDbEntity
  8
8-0
  6
Continuous
 62
     4
100
AcDbCircle
 10
1780.891838316067
 20
675.845017717035
 30
0.0
 40
0.0625
  0
CIRCLE
  5
376
330
6F
100
AcDbEntity
  8
8-0
  6
Continuous
 62
     4
100
AcDbCircle
 10
2125.891838316068
 20
675.845017717035
 30
0.0
 40
0.25
  0
CIRCLE
  5
377
330
6F
100
AcDbEntity
  8
8-0
  6
Continuous
 62
     4
100
AcDbCircle
 10
2125.891838316068
 20
675.845017717035
 30
0.0
 40
0.1875
  0
CIRCLE
  5
378
330
6F
100
AcDbEntity
  8
8-0
  6
Continuous
 62
     4
100
AcDbCircle
 10
2125.891838316068
 20
675.845017717035
 30
0.0
 40
0.125
  0
CIRCLE
  5
379
330
6F
100
AcDbEntity
  8
8-0
  6
Continuous
 62
     4
100
AcDbCircle
 10
2125.891838316068
 20
675.845017717035
 30
0.0
 40
0.0625
  0
LINE
  5
37A
330
6F
100
AcDbEntity
  8
8-0
  6
Continuous
 62
     4
100
AcDbLine
 10
2125.891838
 20
767.394942
 30
0.0
 11
2125.891838
 21
675.8450179999999
 31
0.0
  0
LINE
  5
37B
330
6F
100
AcDbEntity
  8
8-0
  6
Continuous
 62
     4
100
AcDbLine
 10
2127.891838
 20
767.386441
 30
0.0
 11
2127.891838
 21
675.8450179999999
 31
0.0
  0
LINE
  5
37C
330
6F
100
AcDbEntity
  8
8-0
  6
Continuous
 62
     4
100
AcDbLine
 10
2115.891838
 20
675.8450179999999
 30
0.0
 11
2105.891838
 21
675.8450179999999
 31
0.0
  0
LINE
  5
37D
330
6F
100
AcDbEntity
  8
8-0
  6
Continuous
 62
     4
100
AcDbLine
 10
2137.891838
 20
675.8450179999999
 30
0.0
 11
2147.891838
 21
675.8450179999999
 31
0.0
  0
LINE
  5
37E
330
6F
100
AcDbEntity
  8
8-0
  6
Continuous
 62
     4
100
AcDbLine
 10
2126.891838
 20
675.8450179999999
 30
0.0
 11
2100.704658
 21
621.545018
 31
0.0
  0
LINE
  5
37F
330
6F
100
AcDbEntity
  8
8-0
  6
Continuous
 62
     4
100
AcDbLine
 10
2100.704658
 20
621.545018
 30
0.0
 11
2062.582831
 21
621.545018
 31
0.0
  0
TEXT
  5
380
330
6F
100
AcDbEntity
  8
8-0
 62
     4
100
AcDbText
 10
2073.266
 20
622.1649999999999
 30
0.0
 40
36.288
  1
2
100
AcDbText
  0
LINE
  5
381
330
6F
100
AcDbEntity
  8
8-0
  6
Continuous
 62
     4
100
AcDbLine
 10
2125.891838
 20
675.8450179999999
 30
0.0
 11
2127.891838
 21
675.8450179999999
 31
0.0
  0
LINE
  5
382
330
6F
100
AcDbEntity
  8
8-0
  6
Continuous
 62
     4
100
AcDbLine
 10
2125.891838
 20
675.8450179999999
 30
0.0
 11
2127.891838
 21
675.8450179999999
 31
0.0
  0
CIRCLE
  5
383
330
6F
100
AcDbEntity
  8
8-0
  6
Continuous
 62
     4
100
AcDbCircle
 10
2125.891838316068
 20
675.845017717035
 30
0.0
 40
0.25
  0
CIRCLE
  5
384
330
6F
100
AcDbEntity
  8
8-0
  6
Continuous
 62
     4
100
AcDbCircle
 10
2125.891838316068
 20
675.845017717035
 30
0.0
 40
0.1875
  0
CIRCLE
  5
385
330
6F
100
AcDbEntity
  8
8-0
  6
Continuous
 62
     4
100
AcDbCircle
 10
2125.891838316068
 20
675.845017717035
 30
0.0
 40
0.125
  0
CIRCLE
  5
386
330
6F
100
AcDbEntity
  8
8-0
  6
Continuous
 62
     4
100
AcDbCircle
 10
2125.891838316068
 20
675.845017717035
 30
0.0
 40
0.0625
  0
ARC
  5
387
330
6F
100
AcDbEntity
  8
8-0
 62
     4
100
AcDbCircle
 10
2125.891838316068
 20
675.850017717035
 30
0.0
 40
2.5
100
AcDbArc
 50
0.1145914065300158
 51
180.114591405945
  0
LINE
  5
388
330
6F
100
AcDbEntity
  8
8-0
 62
     4
100
AcDbLine
 10
2120.891838316068
 20
675.845017717035
 30
0.0
 11
2115.891838316068
 21
675.845017717035
 31
0.0
  0
CIRCLE
  5
389
330
6F
100
AcDbEntity
  8
8-0
  6
Continuous
 62
     4
100
AcDbCircle
 10
2127.891838316068
 20
675.845017717035
 30
0.0
 40
0.25
  0
CIRCLE
  5
38A
330
6F
100
AcDbEntity
  8
8-0
  6
Continuous
 62
     4
100
AcDbCircle
 10
2127.891838316068
 20
675.845017717035
 30
0.0
 40
0.1875
  0
CIRCLE
  5
38B
330
6F
100
AcDbEntity
  8
8-0
  6
Continuous
 62
     4
100
AcDbCircle
 10
2127.891838316068
 20
675.845017717035
 30
0.0
 40
0.125
  0
CIRCLE
  5
38C
330
6F
100
AcDbEntity
  8
8-0
  6
Continuous
 62
     4
100
AcDbCircle
 10
2127.891838316068
 20
675.845017717035
 30
0.0
 40
0.0625
  0
ARC
  5
38D
330
6F
100
AcDbEntity
  8
8-0
 62
     4
100
AcDbCircle
 10
2127.891838316068
 20
675.840017717035
 30
0.0
 40
2.5
100
AcDbArc
 50
180.1145914065301
 51
0.1145914059449637
  0
LINE
  5
38E
330
6F
100
AcDbEntity
  8
8-0
 62
     4
100
AcDbLine
 10
2132.891838316068
 20
675.845017717086
 30
0.0
 11
2137.891838316068
 21
675.8450177171369
 31
0.0
  0
LINE
  5
38F
330
6F
100
AcDbEntity
  8
8-0
  6
Continuous
 62
     4
100
AcDbLine
 10
2125.891838
 20
767.394942
 30
0.0
 11
2125.891838
 21
675.8450179999999
 31
0.0
  0
LINE
  5
390
330
6F
100
AcDbEntity
  8
8-0
  6
Continuous
 62
     4
100
AcDbLine
 10
2127.891838
 20
767.386441
 30
0.0
 11
2127.891838
 21
675.8450179999999
 31
0.0
  0
LINE
  5
391
330
6F
100
AcDbEntity
  8
8-0
  6
Continuous
 62
     4
100
AcDbLine
 10
2115.891838
 20
675.8450179999999
 30
0.0
 11
2105.891838
 21
675.8450179999999
 31
0.0
  0
LINE
  5
392
330
6F
100
AcDbEntity
  8
8-0
  6
Continuous
 62
     4
100
AcDbLine
 10
2137.891838
 20
675.8450179999999
 30
0.0
 11
2147.891838
 21
675.8450179999999
 31
0.0
  0
LINE
  5
393
330
6F
100
AcDbEntity
  8
8-0
  6
Continuous
 62
     4
100
AcDbLine
 10
2126.891838
 20
675.8450179999999
 30
0.0
 11
2100.704658
 21
621.545018
 31
0.0
  0
LINE
  5
394
330
6F
100
AcDbEntity
  8
8-0
  6
Continuous
 62
     4
100
AcDbLine
 10
2100.704658
 20
621.545018
 30
0.0
 11
2062.582831
 21
621.545018
 31
0.0
  0
TEXT
  5
395
330
6F
100
AcDbEntity
  8
8-0
 62
     4
100
AcDbText
 10
2073.266
 20
622.1649999999999
 30
0.0
 40
36.288
  1
2
100
AcDbText
  0
LINE
  5
396
330
6F
100
AcDbEntity
  8
8-0
  6
Continuous
 62
     4
100
AcDbLine
 10
2125.891838
 20
675.8450179999999
 30
0.0
 11
2127.891838
 21
675.8450179999999
 31
0.0
  0
LINE
  5
397
330
6F
100
AcDbEntity
  8
8-0
  6
Continuous
 62
     4
100
AcDbLine
 10
2125.891838
 20
675.8450179999999
 30
0.0
 11
2127.891838
 21
675.8450179999999
 31
0.0
  0
CIRCLE
  5
398
330
6F
100
AcDbEntity
  8
8-0
  6
Continuous
 62
     4
100
AcDbCircle
 10
2125.891838316068
 20
675.845017717035
 30
0.0
 40
0.25
  0
CIRCLE
  5
399
330
6F
100
AcDbEntity
  8
8-0
  6
Continuous
 62
     4
100
AcDbCircle
 10
2125.891838316068
 20
675.845017717035
 30
0.0
 40
0.1875
  0
CIRCLE
  5
39A
330
6F
100
AcDbEntity
  8
8-0
  6
Continuous
 62
     4
100
AcDbCircle
 10
2125.891838316068
 20
675.845017717035
 30
0.0
 40
0.125
  0
CIRCLE
  5
39B
330
6F
100
AcDbEntity
  8
8-0
  6
Continuous
 62
     4
100
AcDbCircle
 10
2125.891838316068
 20
675.845017717035
 30
0.0
 40
0.0625
  0
ARC
  5
39C
330
6F
100
AcDbEntity
  8
8-0
 62
     4
100
AcDbCircle
 10
2125.891838316068
 20
675.850017717035
 30
0.0
 40
2.5
100
AcDbArc
 50
0.1145914065300158
 51
180.114591405945
  0
LINE
  5
39D
330
6F
100
AcDbEntity
  8
8-0
 62
     4
100
AcDbLine
 10
2120.891838316068
 20
675.845017717035
 30
0.0
 11
2115.891838316068
 21
675.845017717035
 31
0.0
  0
CIRCLE
  5
39E
330
6F
100
AcDbEntity
  8
8-0
  6
Continuous
 62
     4
100
AcDbCircle
 10
2127.891838316068
 20
675.845017717035
 30
0.0
 40
0.25
  0
CIRCLE
  5
39F
330
6F
100
AcDbEntity
  8
8-0
  6
Continuous
 62
     4
100
AcDbCircle
 10
2127.891838316068
 20
675.845017717035
 30
0.0
 40
0.1875
  0
CIRCLE
  5
3A0
330
6F
100
AcDbEntity
  8
8-0
  6
Continuous
 62
     4
100
AcDbCircle
 10
2127.891838316068
 20
675.845017717035
 30
0.0
 40
0.125
  0
CIRCLE
  5
3A1
330
6F
100
AcDbEntity
  8
8-0
  6
Continuous
 62
     4
100
AcDbCircle
 10
2127.891838316068
 20
675.845017717035
 30
0.0
 40
0.0625
  0
ARC
  5
3A2
330
6F
100
AcDbEntity
  8
8-0
 62
     4
100
AcDbCircle
 10
2127.891838316068
 20
675.840017717035
 30
0.0
 40
2.5
100
AcDbArc
 50
180.1145914065301
 51
0.1145914059449637
  0
LINE
  5
3A3
330
6F
100
AcDbEntity
  8
8-0
 62
     4
100
AcDbLine
 10
2132.891838316068
 20
675.845017717086
 30
0.0
 11
2137.891838316068
 21
675.8450177171369
 31
0.0
  0
LINE
  5
3A4
330
6F
100
AcDbEntity
  8
2-0
  6
Continuous
 62
     7
100
AcDbLine
 10
2125.391838
 20
788.746693
 30
0.0
 11
2125.391838
 21
807.7466929999999
 31
0.0
  0
LINE
  5
3A5
330
6F
100
AcDbEntity
  8
1-0
  6
Continuous
 62
     7
100
AcDbLine
 10
2127.891838
 20
788.746693
 30
0.0
 11
2125.391838
 21
788.746693
 31
0.0
  0
LINE
  5
3A6
330
6F
100
AcDbEntity
  8
1-0
  6
Continuous
 62
     7
100
AcDbLine
 10
2127.891838
 20
807.7466929999999
 30
0.0
 11
2125.391838
 21
807.7466929999999
 31
0.0
  0
LINE
  5
3A7
330
6F
100
AcDbEntity
  8
1-0
  6
Continuous
 62
     7
100
AcDbLine
 10
2125.391838
 20
807.7466929999999
 30
0.0
 11
2119.891838
 21
807.7466929999999
 31
0.0
  0
LINE
  5
3A8
330
6F
100
AcDbEntity
  8
1-0
  6
Continuous
 62
     7
100
AcDbLine
 10
2119.391838
 20
807.246693
 30
0.0
 11
2119.391838
 21
799.746693
 31
0.0
  0
LINE
  5
3A9
330
6F
100
AcDbEntity
  8
1-0
  6
Continuous
 62
     7
100
AcDbLine
 10
2122.391838
 20
796.746693
 30
0.0
 11
2125.391838
 21
796.746693
 31
0.0
  0
ARC
  5
3AA
330
6F
100
AcDbEntity
  8
1-0
  6
Continuous
 62
     7
100
AcDbCircle
 10
2122.391838
 20
799.746693
 30
0.0
 40
3.0
100
AcDbArc
 50
180.0
 51
270.0
  0
LINE
  5
3AB
330
6F
100
AcDbEntity
  8
1-0
  6
Continuous
 62
     7
100
AcDbLine
 10
2119.391838
 20
807.246693
 30
0.0
 11
2119.391838
 21
799.746693
 31
0.0
  0
ARC
  5
3AC
330
6F
100
AcDbEntity
  8
1-0
  6
Continuous
 62
     7
100
AcDbCircle
 10
2119.891838
 20
807.246693
 30
0.0
 40
0.5
100
AcDbArc
 50
90.0
 51
180.0
  0
LINE
  5
3AD
330
6F
100
AcDbEntity
  8
1-0
  6
Continuous
 62
     7
100
AcDbLine
 10
2125.391838
 20
798.2466930000001
 30
0.0
 11
2125.391838
 21
807.7466929999999
 31
0.0
  0
ARC
  5
3AE
330
6F
100
AcDbEntity
  8
1-0
  6
Continuous
 62
     7
100
AcDbCircle
 10
2128.654338
 20
802.996693
 30
0.0
 40
5.7625
100
AcDbArc
 50
124.483
 51
235.517
  0
ARC
  5
3AF
330
6F
100
AcDbEntity
  8
1-0
  6
Continuous
 62
     7
100
AcDbCircle
 10
2122.639825
 20
799.8668709999999
 30
0.0
 40
1.451915
100
AcDbArc
 50
68.435
 51
346.548
  0
LINE
  5
3B0
330
6F
100
AcDbEntity
  8
1-0
  6
Continuous
 62
     7
100
AcDbLine
 10
2098.255286
 20
808.3133959999999
 30
0.0
 11
2113.612737
 21
808.3133959999999
 31
0.0
  0
LINE
  5
3B1
330
6F
100
AcDbEntity
  8
1-0
  6
Continuous
 62
     7
100
AcDbLine
 10
2114.255286
 20
798.8133959999999
 30
0.0
 11
2115.106577
 21
808.177593
 31
0.0
  0
ARC
  5
3B2
330
6F
100
AcDbEntity
  8
1-0
  6
Continuous
 62
     7
100
AcDbCircle
 10
2113.612737
 20
808.3133959999999
 30
0.0
 40
1.5
100
AcDbArc
 50
354.806
 51
90.0
  0
LINE
  5
3B3
330
6F
100
AcDbEntity
  8
1-0
  6
Continuous
 62
     7
100
AcDbLine
 10
2112.761447
 20
798.9492
 30
0.0
 11
2113.612737
 21
808.3133959999999
 31
0.0
  0
LINE
  5
3B4
330
6F
100
AcDbEntity
  8
1-0
  6
Continuous
 62
     7
100
AcDbLine
 10
2098.255286
 20
809.813396
 30
0.0
 11
2098.255286
 21
808.3133959999999
 31
0.0
  0
LINE
  5
3B5
330
6F
100
AcDbEntity
  8
1-0
  6
Continuous
 62
     7
100
AcDbLine
 10
2112.761447
 20
798.9492
 30
0.0
 11
2114.255286
 21
798.8133959999999
 31
0.0
  0
ARC
  5
3B6
330
6F
100
AcDbEntity
  8
1-0
  6
Continuous
 62
     7
100
AcDbCircle
 10
2104.359967
 20
811.494998
 30
0.0
 40
5.7625
100
AcDbArc
 50
214.483
 51
325.517
  0
LINE
  5
3B7
330
6F
100
AcDbEntity
  8
1-0
  6
Continuous
 62
     7
100
AcDbLine
 10
2116.099389
 20
794.552846
 30
0.0
 11
2104.890876
 21
792.664128
 31
0.0
  0
ARC
  5
3B8
330
6F
100
AcDbEntity
  8
1-0
  6
Continuous
 62
     7
100
AcDbCircle
 10
2104.807794
 20
793.157177
 30
0.0
 40
0.5
100
AcDbArc
 50
189.565
 51
279.565
  0
LINE
  5
3B9
330
6F
100
AcDbEntity
  8
1-0
  6
Continuous
 62
     7
100
AcDbLine
 10
2104.314745
 20
793.074095
 30
0.0
 11
2103.567003
 21
797.511536
 31
0.0
  0
LINE
  5
3BA
330
6F
100
AcDbEntity
  8
1-0
  6
Continuous
 62
     7
100
AcDbLine
 10
2103.567003
 20
797.511536
 30
0.0
 11
2109.801986
 21
806.2665950000001
 31
0.0
  0
LINE
  5
3BB
330
6F
100
AcDbEntity
  8
1-0
  6
Continuous
 62
     7
100
AcDbLine
 10
2110.705457
 20
806.038116
 30
0.0
 11
2111.654488
 21
798.3893349999999
 31
0.0
  0
ARC
  5
3BC
330
6F
100
AcDbEntity
  8
1-0
  6
Continuous
 62
     7
100
AcDbCircle
 10
2110.209262
 20
805.9765499999999
 30
0.0
 40
0.5
100
AcDbArc
 50
7.073
 51
144.543
  0
LINE
  5
3BD
330
6F
100
AcDbEntity
  8
1-0
  6
Continuous
 62
     7
100
AcDbLine
 10
2112.233765
 20
797.957852
 30
0.0
 11
2119.510735
 21
799.184075
 31
0.0
  0
ARC
  5
3BE
330
6F
100
AcDbEntity
  8
1-0
  6
Continuous
 62
     7
100
AcDbCircle
 10
2112.150683
 20
798.450901
 30
0.0
 40
0.5
100
AcDbArc
 50
187.073
 51
279.565
  0
CIRCLE
  5
3BF
330
6F
100
AcDbEntity
  8
1-0
  6
Continuous
 62
     7
100
AcDbCircle
 10
2108.081666
 20
797.1554359999999
 30
0.0
 40
1.451915
  0
LINE
  5
3C0
330
6F
100
AcDbEntity
  8
1-0
  6
Continuous
 62
     7
100
AcDbLine
 10
2119.787886
 20
798.336661
 30
0.0
 11
2111.777723
 21
786.8981609999999
 31
0.0
  0
LINE
  5
3C1
330
6F
100
AcDbEntity
  8
1-0
  6
Continuous
 62
     7
100
AcDbLine
 10
2122.066812
 20
796.7096549999999
 30
0.0
 11
2114.07127
 21
785.2920339999999
 31
0.0
  0
ARC
  5
3C2
330
6F
100
AcDbEntity
  8
1-0
  6
Continuous
 62
     7
100
AcDbCircle
 10
2113.252146
 20
785.8656509999999
 30
0.0
 40
1.0
100
AcDbArc
 50
234.997
 51
324.997
  0
LINE
  5
3C3
330
6F
100
AcDbEntity
  8
1-0
  6
Continuous
 62
     7
100
AcDbLine
 10
2112.02323
 20
785.5054199999999
 30
0.0
 11
2112.678529
 21
785.0465269999999
 31
0.0
  0
ARC
  5
3C4
330
6F
100
AcDbEntity
  8
1-0
  6
Continuous
 62
     7
100
AcDbCircle
 10
2112.596847
 20
786.324544
 30
0.0
 40
1.0
100
AcDbArc
 50
144.997
 51
234.997
  0
LINE
  5
3C5
330
6F
100
AcDbEntity
  8
1-0
  6
Continuous
 62
     7
100
AcDbLine
 10
2116.592034
 20
793.772989
 30
0.0
 11
2111.777723
 21
786.8981609999999
 31
0.0
  0
ARC
  5
3C6
330
6F
100
AcDbEntity
  8
1-0
  6
Continuous
 62
     7
100
AcDbCircle
 10
2116.182472
 20
794.0597969999999
 30
0.0
 40
0.5
100
AcDbArc
 50
324.997
 51
99.56500000000001
  0
CIRCLE
  5
3C7
330
6F
100
AcDbEntity
  8
2-0
  6
Continuous
 62
     7
100
AcDbCircle
 10
1821.091838
 20
1139.747373
 30
0.0
 40
2.5
  0
CIRCLE
  5
3C8
330
6F
100
AcDbEntity
  8
2-0
  6
Continuous
 62
     7
100
AcDbCircle
 10
2060.091838
 20
1139.747373
 30
0.0
 40
2.5
  0
CIRCLE
  5
3C9
330
6F
100
AcDbEntity
  8
2-0
  6
Continuous
 62
     7
100
AcDbCircle
 10
1821.091838
 20
1079.747373
 30
0.0
 40
2.5
  0
CIRCLE
  5
3CA
330
6F
100
AcDbEntity
  8
2-0
  6
Continuous
 62
     7
100
AcDbCircle
 10
2060.091838
 20
1079.747373
 30
0.0
 40
2.5
  0
LINE
  5
3CB
330
6F
100
AcDbEntity
  8
9-0
  6
CENTER
 62
     6
100
AcDbLine
 10
1630.95532
 20
1139.847373
 30
0.0
 11
1780.891838
 21
1139.847373
 31
0.0
  0
LINE
  5
3CC
330
6F
100
AcDbEntity
  8
9-0
  6
CENTER
 62
     6
100
AcDbLine
 10
1630.95532
 20
1079.847373
 30
0.0
 11
1780.891838
 21
1079.847373
 31
0.0
  0
LINE
  5
3CD
330
6F
100
AcDbEntity
  8
8-0
  6
Continuous
 62
     4
100
AcDbLine
 10
1629.625996
 20
1139.847373
 30
0.0
 11
1629.472428
 21
1139.847373
 31
0.0
  0
LINE
  5
3CE
330
6F
100
AcDbEntity
  8
8-0
  6
Continuous
 62
     4
100
AcDbLine
 10
1629.625996
 20
1109.847373
 30
0.0
 11
1629.472428
 21
1109.847373
 31
0.0
  0
TEXT
  5
3CF
330
6F
100
AcDbEntity
  8
8-0
 62
     4
100
AcDbText
 10
1596.352
 20
1143.073
 30
0.0
 40
36.288
  1
30
 50
90.0
100
AcDbText
  0
LINE
  5
3D0
330
6F
100
AcDbEntity
  8
8-0
  6
Continuous
 62
     4
100
AcDbLine
 10
1629.472427519619
 20
1109.847372663836
 30
0.0
 11
1629.472427519619
 21
1139.847372663835
 31
0.0
  0
CIRCLE
  5
3D1
330
6F
100
AcDbEntity
  8
8-0
  6
Continuous
 62
     4
100
AcDbCircle
 10
1629.472427519619
 20
1109.847372663836
 30
0.0
 40
0.25
  0
CIRCLE
  5
3D2
330
6F
100
AcDbEntity
  8
8-0
  6
Continuous
 62
     4
100
AcDbCircle
 10
1629.472427519619
 20
1109.847372663836
 30
0.0
 40
0.1875
  0
CIRCLE
  5
3D3
330
6F
100
AcDbEntity
  8
8-0
  6
Continuous
 62
     4
100
AcDbCircle
 10
1629.472427519619
 20
1109.847372663836
 30
0.0
 40
0.125
  0
CIRCLE
  5
3D4
330
6F
100
AcDbEntity
  8
8-0
  6
Continuous
 62
     4
100
AcDbCircle
 10
1629.472427519619
 20
1109.847372663836
 30
0.0
 40
0.0625
  0
CIRCLE
  5
3D5
330
6F
100
AcDbEntity
  8
8-0
  6
Continuous
 62
     4
100
AcDbCircle
 10
1629.472427519619
 20
1139.847372663835
 30
0.0
 40
0.25
  0
CIRCLE
  5
3D6
330
6F
100
AcDbEntity
  8
8-0
  6
Continuous
 62
     4
100
AcDbCircle
 10
1629.472427519619
 20
1139.847372663835
 30
0.0
 40
0.1875
  0
CIRCLE
  5
3D7
330
6F
100
AcDbEntity
  8
8-0
  6
Continuous
 62
     4
100
AcDbCircle
 10
1629.472427519619
 20
1139.847372663835
 30
0.0
 40
0.125
  0
CIRCLE
  5
3D8
330
6F
100
AcDbEntity
  8
8-0
  6
Continuous
 62
     4
100
AcDbCircle
 10
1629.472427519619
 20
1139.847372663835
 30
0.0
 40
0.0625
  0
LINE
  5
3D9
330
6F
100
AcDbEntity
  8
8-0
  6
Continuous
 62
     4
100
AcDbLine
 10
1639.341366
 20
1109.847373
 30
0.0
 11
1629.472428
 21
1109.847373
 31
0.0
  0
LINE
  5
3DA
330
6F
100
AcDbEntity
  8
8-0
  6
Continuous
 62
     4
100
AcDbLine
 10
1639.341366
 20
1079.847373
 30
0.0
 11
1629.472428
 21
1079.847373
 31
0.0
  0
LINE
  5
3DB
330
6F
100
AcDbEntity
  8
8-0
  6
Continuous
 62
     4
100
AcDbLine
 10
1629.472428
 20
1119.847373
 30
0.0
 11
1629.472428
 21
1129.847373
 31
0.0
  0
LINE
  5
3DC
330
6F
100
AcDbEntity
  8
8-0
  6
Continuous
 62
     4
100
AcDbLine
 10
1629.472428
 20
1069.847373
 30
0.0
 11
1629.472428
 21
1059.847373
 31
0.0
  0
LINE
  5
3DD
330
6F
100
AcDbEntity
  8
8-0
  6
Continuous
 62
     4
100
AcDbLine
 10
1629.472428
 20
1094.847373
 30
0.0
 11
1598.250245
 21
1084.425046
 31
0.0
  0
LINE
  5
3DE
330
6F
100
AcDbEntity
  8
8-0
  6
Continuous
 62
     4
100
AcDbLine
 10
1598.250245
 20
1084.425046
 30
0.0
 11
1598.250245
 21
1022.673777
 31
0.0
  0
TEXT
  5
3DF
330
6F
100
AcDbEntity
  8
8-0
 62
     4
100
AcDbText
 10
1597.63
 20
1031.149
 30
0.0
 40
36.288
  1
30
 50
90.0
100
AcDbText
  0
LINE
  5
3E0
330
6F
100
AcDbEntity
  8
8-0
  6
Continuous
 62
     4
100
AcDbLine
 10
1629.472428
 20
1109.847373
 30
0.0
 11
1629.472428
 21
1079.847373
 31
0.0
  0
LINE
  5
3E1
330
6F
100
AcDbEntity
  8
8-0
  6
Continuous
 62
     4
100
AcDbLine
 10
1629.472428
 20
1109.847373
 30
0.0
 11
1629.472428
 21
1079.847373
 31
0.0
  0
CIRCLE
  5
3E2
330
6F
100
AcDbEntity
  8
8-0
  6
Continuous
 62
     4
100
AcDbCircle
 10
1629.472427519619
 20
1109.847372663836
 30
0.0
 40
0.25
  0
CIRCLE
  5
3E3
330
6F
100
AcDbEntity
  8
8-0
  6
Continuous
 62
     4
100
AcDbCircle
 10
1629.472427519619
 20
1109.847372663836
 30
0.0
 40
0.1875
  0
CIRCLE
  5
3E4
330
6F
100
AcDbEntity
  8
8-0
  6
Continuous
 62
     4
100
AcDbCircle
 10
1629.472427519619
 20
1109.847372663836
 30
0.0
 40
0.125
  0
CIRCLE
  5
3E5
330
6F
100
AcDbEntity
  8
8-0
  6
Continuous
 62
     4
100
AcDbCircle
 10
1629.472427519619
 20
1109.847372663836
 30
0.0
 40
0.0625
  0
ARC
  5
3E6
330
6F
100
AcDbEntity
  8
8-0
 62
     4
100
AcDbCircle
 10
1629.477427519619
 20
1109.847372663836
 30
0.0
 40
2.5
100
AcDbArc
 50
270.1145914065301
 51
90.11459140594496
  0
LINE
  5
3E7
330
6F
100
AcDbEntity
  8
8-0
 62
     4
100
AcDbLine
 10
1629.472427519542
 20
1114.847372663836
 30
0.0
 11
1629.472427519466
 21
1119.847372663836
 31
0.0
  0
CIRCLE
  5
3E8
330
6F
100
AcDbEntity
  8
8-0
  6
Continuous
 62
     4
100
AcDbCircle
 10
1629.472427519619
 20
1079.847372663835
 30
0.0
 40
0.25
  0
CIRCLE
  5
3E9
330
6F
100
AcDbEntity
  8
8-0
  6
Continuous
 62
     4
100
AcDbCircle
 10
1629.472427519619
 20
1079.847372663835
 30
0.0
 40
0.1875
  0
CIRCLE
  5
3EA
330
6F
100
AcDbEntity
  8
8-0
  6
Continuous
 62
     4
100
AcDbCircle
 10
1629.472427519619
 20
1079.847372663835
 30
0.0
 40
0.125
  0
CIRCLE
  5
3EB
330
6F
100
AcDbEntity
  8
8-0
  6
Continuous
 62
     4
100
AcDbCircle
 10
1629.472427519619
 20
1079.847372663835
 30
0.0
 40
0.0625
  0
ARC
  5
3EC
330
6F
100
AcDbEntity
  8
8-0
 62
     4
100
AcDbCircle
 10
1629.467427519619
 20
1079.847372663835
 30
0.0
 40
2.5
100
AcDbArc
 50
90.11459140653
 51
270.114591405945
  0
LINE
  5
3ED
330
6F
100
AcDbEntity
  8
8-0
 62
     4
100
AcDbLine
 10
1629.472427519645
 20
1074.847372663835
 30
0.0
 11
1629.47242751967
 21
1069.847372663835
 31
0.0
  0
TEXT
  5
3EE
330
6F
100
AcDbEntity
  8
D-0
 62
     5
100
AcDbText
 10
3968.266
 20
48.607
 30
0.0
 40
31.104
  1
2023.12
100
AcDbText
  0
TEXT
  5
3EF
330
6F
100
AcDbEntity
  8
D-0
 62
     5
100
AcDbText
 10
3217.254
 20
2449.248
 30
0.0
 40
25.92
  1
火山性ガラス質複層板
100
AcDbText
  0
TEXT
  5
3F0
330
6F
100
AcDbEntity
  8
D-0
 62
     5
100
AcDbText
 10
3217.254
 20
2499.248
 30
0.0
 40
25.92
  1
火山性ガラス質複層板
100
AcDbText
  0
LINE
  5
3F1
330
6F
100
AcDbEntity
  8
D-0
  6
Continuous
 62
     5
100
AcDbLine
 10
2843.242584
 20
2536.802021
 30
0.0
 11
3867.476977
 21
2536.802021
 31
0.0
  0
TEXT
  5
3F2
330
6F
100
AcDbEntity
  8
D-0
 62
     5
100
AcDbText
 10
3217.254
 20
2199.248
 30
0.0
 40
25.92
  1
耐震レハ゛ーラッチ付
100
AcDbText
  0
LINE
  5
3F3
330
6F
100
AcDbEntity
  8
D-0
  6
Continuous
 62
     5
100
AcDbLine
 10
2843.242584
 20
2186.802021
 30
0.0
 11
3867.476977
 21
2186.802021
 31
0.0
  0
LINE
  5
3F4
330
6F
100
AcDbEntity
  8
D-0
  6
Continuous
 62
     5
100
AcDbLine
 10
2843.242584
 20
2136.802021
 30
0.0
 11
3867.476977
 21
2136.802021
 31
0.0
  0
LINE
  5
3F5
330
6F
100
AcDbEntity
  8
D-0
  6
Continuous
 62
     5
100
AcDbLine
 10
2843.242584
 20
2436.802021
 30
0.0
 11
3867.476977
 21
2436.802021
 31
0.0
  0
TEXT
  5
3F6
330
6F
100
AcDbEntity
  8
D-0
 62
     5
100
AcDbText
 10
3217.254
 20
2399.248
 30
0.0
 40
25.92
  1
プレコート（PB）
100
AcDbText
  0
TEXT
  5
3F7
330
6F
100
AcDbEntity
  8
D-0
 62
     5
100
AcDbText
 10
3217.254
 20
2249.248
 30
0.0
 40
25.92
  1
木口テープ仕上
100
AcDbText
  0
TEXT
  5
3F8
330
6F
100
AcDbEntity
  8
D-0
 62
     5
100
AcDbText
 10
3217.254
 20
2299.248
 30
0.0
 40
25.92
  1
ウレタンコート化粧ボード（PB)
100
AcDbText
  0
TEXT
  5
3F9
330
6F
100
AcDbEntity
  8
D-0
 62
     5
100
AcDbText
 10
3217.254
 20
2599.248
 30
0.0
 40
25.92
  1
ウレタンコート化粧ボード（PB)
100
AcDbText
  0
LINE
  5
3FA
330
6F
100
AcDbEntity
  8
D-0
  6
Continuous
 62
     5
100
AcDbLine
 10
2843.242584
 20
2636.802021
 30
0.0
 11
3867.476977
 21
2636.802021
 31
0.0
  0
LINE
  5
3FB
330
6F
100
AcDbEntity
  8
D-0
  6
Continuous
 62
     5
100
AcDbLine
 10
3035.653536
 20
2636.802021
 30
0.0
 11
3035.653536
 21
2186.802021
 31
0.0
  0
LINE
  5
3FC
330
6F
100
AcDbEntity
  8
D-0
  6
Continuous
 62
     5
100
AcDbLine
 10
3187.125963
 20
2636.802021
 30
0.0
 11
3187.125963
 21
2136.802021
 31
0.0
  0
LINE
  5
3FD
330
6F
100
AcDbEntity
  8
D-0
  6
Continuous
 62
     5
100
AcDbLine
 10
2843.242584
 20
2636.802021
 30
0.0
 11
2843.242584
 21
2136.802021
 31
0.0
  0
TEXT
  5
3FE
330
6F
100
AcDbEntity
  8
D-0
 62
     5
100
AcDbText
 10
2882.834000000001
 20
2149.248
 30
0.0
 40
25.92
  1
丁番
100
AcDbText
  0
TEXT
  5
3FF
330
6F
100
AcDbEntity
  8
D-0
 62
     5
100
AcDbText
 10
2882.834000000001
 20
2399.248
 30
0.0
 40
25.92
  1
扉
100
AcDbText
  0
TEXT
  5
400
330
6F
100
AcDbEntity
  8
D-0
 62
     5
100
AcDbText
 10
3055.592
 20
2299.248
 30
0.0
 40
25.92
  1
裏
100
AcDbText
  0
TEXT
  5
401
330
6F
100
AcDbEntity
  8
D-0
 62
     5
100
AcDbText
 10
3055.592
 20
2199.248
 30
0.0
 40
25.92
  1
ラッチ
100
AcDbText
  0
TEXT
  5
402
330
6F
100
AcDbEntity
  8
D-0
 62
     5
100
AcDbText
 10
3055.592
 20
2249.248
 30
0.0
 40
25.92
  1
木口
100
AcDbText
  0
TEXT
  5
403
330
6F
100
AcDbEntity
  8
D-0
 62
     5
100
AcDbText
 10
3055.592
 20
2449.248
 30
0.0
 40
25.92
  1
地板
100
AcDbText
  0
TEXT
  5
404
330
6F
100
AcDbEntity
  8
D-0
 62
     5
100
AcDbText
 10
3055.592
 20
2399.248
 30
0.0
 40
25.92
  1
表
100
AcDbText
  0
TEXT
  5
405
330
6F
100
AcDbEntity
  8
D-0
 62
     5
100
AcDbText
 10
2882.834000000001
 20
2499.248
 30
0.0
 40
25.92
  1
不燃部
100
AcDbText
  0
TEXT
  5
406
330
6F
100
AcDbEntity
  8
D-0
 62
     5
100
AcDbText
 10
2882.834000000001
 20
2599.248
 30
0.0
 40
25.92
  1
木部本体
100
AcDbText
  0
TEXT
  5
407
330
6F
100
AcDbEntity
  8
D-0
 62
     5
100
AcDbText
 10
3055.592
 20
2599.248
 30
0.0
 40
25.92
  1
側板
100
AcDbText
  0
TEXT
  5
408
330
6F
100
AcDbEntity
  8
D-0
 62
     5
100
AcDbText
 10
3217.254
 20
2549.248
 30
0.0
 40
25.92
  1
クリーンイーゴスMDF
100
AcDbText
  0
TEXT
  5
409
330
6F
100
AcDbEntity
  8
D-0
 62
     5
100
AcDbText
 10
3055.592
 20
2499.248
 30
0.0
 40
25.92
  1
側板
100
AcDbText
  0
TEXT
  5
40A
330
6F
100
AcDbEntity
  8
D-0
 62
     5
100
AcDbText
 10
3055.592
 20
2549.248
 30
0.0
 40
25.92
  1
背板
100
AcDbText
  0
LINE
  5
40B
330
6F
100
AcDbEntity
  8
D-0
  6
Continuous
 62
     5
100
AcDbLine
 10
3867.476977
 20
2636.802021
 30
0.0
 11
3867.476977
 21
2136.802021
 31
0.0
  0
TEXT
  5
40C
330
6F
100
AcDbEntity
  8
D-0
 62
     5
100
AcDbText
 10
3217.254
 20
2349.248
 30
0.0
 40
25.92
  1
（SW）は鏡面仕上げ
100
AcDbText
  0
TEXT
  5
40D
330
6F
100
AcDbEntity
  8
D-0
 62
     5
100
AcDbText
 10
2842.762
 20
2063.797
 30
0.0
 40
25.92
  1
※　弊社製品はすべてF☆☆☆☆に対応しております。
100
AcDbText
  0
TEXT
  5
40E
330
6F
100
AcDbEntity
  8
D-0
 62
     5
100
AcDbText
 10
3218.861
 20
2148.5
 30
0.0
 40
25.92
  1
スライドヒンジ
100
AcDbText
  0
ENDSEC
  0
SECTION
  2
OBJECTS
  0
DICTIONARY
  5
C
330
0
100
AcDbDictionary
281
     1
  3
ACAD_CIP_PREVIOUS_PRODUCT_INFO
350
410
  3
ACAD_COLOR
350
62
  3
ACAD_DETAILVIEWSTYLE
350
69
  3
ACAD_GROUP
350
D
  3
ACAD_LAYOUT
350
61
  3
ACAD_MATERIAL
350
10
  3
ACAD_MLEADERSTYLE
350
65
  3
ACAD_MLINESTYLE
350
5E
  3
ACAD_PLOTSETTINGS
350
60
  3
ACAD_PLOTSTYLENAME
350
E
  3
ACAD_SCALELIST
350
42
  3
ACAD_SECTIONVIEWSTYLE
350
67
  3
ACAD_TABLESTYLE
350
63
  3
ACAD_VISUALSTYLE
350
29
  3
ACDB_RECOMPOSE_DATA
350
435
  3
AcDbVariableDictionary
350
427
  0
DICTIONARY
  5
411
330
54
100
AcDbDictionary
280
     1
281
     1
  3
ADSK_XREC_LAYER_RECONCILED
360
412
  0
DICTIONARY
  5
413
330
7F
100
AcDbDictionary
280
     1
281
     1
  3
ADSK_XREC_LAYER_RECONCILED
360
414
  0
DICTIONARY
  5
415
330
80
100
AcDbDictionary
280
     1
281
     1
  3
ADSK_XREC_LAYER_RECONCILED
360
416
  0
DICTIONARY
  5
417
330
81
100
AcDbDictionary
280
     1
281
     1
  3
ADSK_XREC_LAYER_RECONCILED
360
418
  0
DICTIONARY
  5
419
330
82
100
AcDbDictionary
280
     1
281
     1
  3
ADSK_XREC_LAYER_RECONCILED
360
41A
  0
DICTIONARY
  5
41B
330
83
100
AcDbDictionary
280
     1
281
     1
  3
ADSK_XREC_LAYER_RECONCILED
360
41C
  0
DICTIONARY
  5
41D
330
84
100
AcDbDictionary
280
     1
281
     1
  3
ADSK_XREC_LAYER_RECONCILED
360
41E
  0
DICTIONARY
  5
41F
330
85
100
AcDbDictionary
280
     1
281
     1
  3
ADSK_XREC_LAYER_RECONCILED
360
420
  0
DICTIONARY
  5
421
330
86
100
AcDbDictionary
280
     1
281
     1
  3
ADSK_XREC_LAYER_RECONCILED
360
422
  0
DICTIONARY
  5
423
330
87
100
AcDbDictionary
280
     1
281
     1
  3
ADSK_XREC_LAYER_RECONCILED
360
424
  0
DICTIONARY
  5
425
330
8D
100
AcDbDictionary
280
     1
281
     1
  3
ADSK_XREC_LAYER_RECONCILED
360
426
  0
XRECORD
  5
410
102
{ACAD_REACTORS
330
C
102
}
330
C
100
AcDbXrecord
280
     1
300
ACDLT
300
2020
300

  0
DICTIONARY
  5
62
102
{ACAD_REACTORS
330
C
102
}
330
C
100
AcDbDictionary
281
     1
  0
DICTIONARY
  5
69
102
{ACAD_REACTORS
330
C
102
}
330
C
100
AcDbDictionary
281
     1
  3
Imperial24
350
6A
  0
DICTIONARY
  5
D
102
{ACAD_REACTORS
330
C
102
}
330
C
100
AcDbDictionary
281
     1
  0
DICTIONARY
  5
61
102
{ACAD_REACTORS
330
C
102
}
330
C
100
AcDbDictionary
281
     1
  3
Model
350
72
  3
レイアウト1
350
6E
  0
DICTIONARY
  5
10
102
{ACAD_REACTORS
330
C
102
}
330
C
100
AcDbDictionary
281
     1
  3
ByBlock
350
19
  3
ByLayer
350
11
  3
Global
350
21
  0
DICTIONARY
  5
65
102
{ACAD_REACTORS
330
C
102
}
330
C
100
AcDbDictionary
281
     1
  3
Standard
350
66
  0
DICTIONARY
  5
5E
102
{ACAD_REACTORS
330
C
102
}
330
C
100
AcDbDictionary
281
     1
  3
Standard
350
5F
  0
DICTIONARY
  5
60
102
{ACAD_REACTORS
330
C
102
}
330
C
100
AcDbDictionary
281
     1
  0
ACDBDICTIONARYWDFLT
  5
E
102
{ACAD_REACTORS
330
C
102
}
330
C
100
AcDbDictionary
281
     1
  3
Normal
350
F
100
AcDbDictionaryWithDefault
340
F
  0
DICTIONARY
  5
42
102
{ACAD_REACTORS
330
C
102
}
330
C
100
AcDbDictionary
281
     1
  3
A0
350
43
  3
A1
350
44
  3
A2
350
45
  3
A3
350
46
  3
A4
350
47
  3
A5
350
48
  3
A6
350
49
  3
A7
350
4A
  3
A8
350
4B
  3
A9
350
4C
  3
B0
350
4D
  3
B1
350
4E
  3
B2
350
4F
  3
B3
350
50
  3
B4
350
51
  3
B5
350
52
  3
B6
350
53
  0
DICTIONARY
  5
67
102
{ACAD_REACTORS
330
C
102
}
330
C
100
AcDbDictionary
281
     1
  3
Imperial24
350
68
  0
DICTIONARY
  5
63
102
{ACAD_REACTORS
330
C
102
}
330
C
100
AcDbDictionary
281
     1
  3
Standard
350
64
  0
DICTIONARY
  5
29
102
{ACAD_REACTORS
330
C
102
}
330
C
100
AcDbDictionary
281
     1
  3
2dWireframe
350
2F
  3
Basic
350
2E
  3
Brighten
350
35
  3
ColorChange
350
39
  3
Conceptual
350
32
  3
Dim
350
34
  3
EdgeColorOff
350
41
  3
Facepattern
350
38
  3
Flat
350
2A
  3
FlatWithEdges
350
2B
  3
Gouraud
350
2C
  3
GouraudWithEdges
350
2D
  3
Hidden
350
31
  3
JitterOff
350
3F
  3
Linepattern
350
37
  3
OverhangOff
350
40
  3
Realistic
350
33
  3
Shaded
350
3E
  3
Shaded with edges
350
3D
  3
Shades of Gray
350
3A
  3
Sketchy
350
3B
  3
Thicken
350
36
  3
Wireframe
350
30
  3
X-Ray
350
3C
  0
XRECORD
  5
435
102
{ACAD_REACTORS
330
C
102
}
330
C
100
AcDbXrecord
280
     1
 90
        1
330
64
  0
DICTIONARY
  5
427
102
{ACAD_REACTORS
330
C
102
}
330
C
100
AcDbDictionary
281
     1
  3
CANNOSCALE
350
42D
  3
CMLEADERSTYLE
350
429
  3
CTABLESTYLE
350
428
  3
CVIEWDETAILSTYLE
350
42A
  3
CVIEWSECTIONSTYLE
350
42B
  3
LAYEREVAL
350
42F
  3
LAYERNOTIFY
350
430
  3
LIGHTINGUNITS
350
42E
  3
MSLTSCALE
350
42C
  3
XCLIPFRAME
350
431
  0
XRECORD
  5
412
102
{ACAD_REACTORS
330
411
102
}
330
411
100
AcDbXrecord
280
     1
290
     1
  0
XRECORD
  5
414
102
{ACAD_REACTORS
330
413
102
}
330
413
100
AcDbXrecord
280
     1
290
     1
  0
XRECORD
  5
416
102
{ACAD_REACTORS
330
415
102
}
330
415
100
AcDbXrecord
280
     1
290
     1
  0
XRECORD
  5
418
102
{ACAD_REACTORS
330
417
102
}
330
417
100
AcDbXrecord
280
     1
290
     1
  0
XRECORD
  5
41A
102
{ACAD_REACTORS
330
419
102
}
330
419
100
AcDbXrecord
280
     1
290
     1
  0
XRECORD
  5
41C
102
{ACAD_REACTORS
330
41B
102
}
330
41B
100
AcDbXrecord
280
     1
290
     1
  0
XRECORD
  5
41E
102
{ACAD_REACTORS
330
41D
102
}
330
41D
100
AcDbXrecord
280
     1
290
     1
  0
XRECORD
  5
420
102
{ACAD_REACTORS
330
41F
102
}
330
41F
100
AcDbXrecord
280
     1
290
     1
  0
XRECORD
  5
422
102
{ACAD_REACTORS
330
421
102
}
330
421
100
AcDbXrecord
280
     1
290
     1
  0
XRECORD
  5
424
102
{ACAD_REACTORS
330
423
102
}
330
423
100
AcDbXrecord
280
     1
290
     1
  0
XRECORD
  5
426
102
{ACAD_REACTORS
330
425
102
}
330
425
100
AcDbXrecord
280
     1
290
     1
  0
ACDBDETAILVIEWSTYLE
  5
6A
102
{ACAD_XDICTIONARY
360
469
102
}
102
{ACAD_REACTORS
330
69
102
}
330
69
100
AcDbModelDocViewStyle
 70
     0
  3
Imperial24
290
     0
100
AcDbDetailViewStyle
 70
     0
 71
     0
 90
        3
 71
     1
340
55
 62
   256
 40
0.24
340
0
 62
   256
 40
0.24
300

 40
0.36
280
     3
 71
     2
340
5C
 90
       25
 62
   256
 71
     3
340
55
 62
   256
 40
0.24
 90
        1
 40
0.75
 90
        1
300
%<\AcVar ViewType \f "%tc1">% %<\AcVar ViewDetailId>%\PSCALE %<\AcVar ViewScale \f "%sn">%
 71
     4
340
5C
 90
       25
 62
   256
340
5C
 90
       25
 62
   256
280
     0
  0
LAYOUT
  5
72
102
{ACAD_REACTORS
330
61
102
}
330
61
100
AcDbPlotSettings
  1

  2
DocuCentre-V 4070
  4

  6

 40
0.0
 41
0.0
 42
0.0
 43
0.0
 44
0.0
 45
0.0
 46
0.0
 47
0.0
 48
0.0
 49
0.0
140
0.0
141
0.0
142
1.0
143
1.0
 70
  1712
 72
     0
 73
     0
 74
     0
  7

 75
     0
147
1.0
 76
     0
 77
     2
 78
   300
148
0.0
149
0.0
100
AcDbLayout
  1
Model
 70
     1
 71
     0
 10
0.0
 20
0.0
 11
12.0
 21
9.0
 12
0.0
 22
0.0
 32
0.0
 14
0.0
 24
0.0
 34
0.0
 15
0.0
 25
0.0
 35
0.0
146
0.0
 13
0.0
 23
0.0
 33
0.0
 16
1.0
 26
0.0
 36
0.0
 17
0.0
 27
1.0
 37
0.0
 76
     0
330
6F
331
8C
  0
LAYOUT
  5
6E
102
{ACAD_REACTORS
330
61
102
}
330
61
100
AcDbPlotSettings
  1

  2
DocuCentre-V 4070
  4

  6

 40
0.0
 41
0.0
 42
0.0
 43
0.0
 44
0.0
 45
0.0
 46
0.0
 47
0.0
 48
0.0
 49
0.0
140
0.0
141
0.0
142
1.0
143
1.0
 70
   688
 72
     0
 73
     0
 74
     5
  7

 75
    16
147
1.0
 76
     0
 77
     2
 78
   300
148
0.0
149
0.0
100
AcDbLayout
  1
レイアウト1
 70
     1
 71
     1
 10
0.0
 20
0.0
 11
12.0
 21
9.0
 12
0.0
 22
0.0
 32
0.0
 14
1.000000000000000E+20
 24
1.000000000000000E+20
 34
1.000000000000000E+20
 15
-1.000000000000000E+20
 25
-1.000000000000000E+20
 35
-1.000000000000000E+20
146
0.0
 13
0.0
 23
0.0
 33
0.0
 16
1.0
 26
0.0
 36
0.0
 17
0.0
 27
1.0
 37
0.0
 76
     0
330
6B
  0
MATERIAL
  5
19
102
{ACAD_XDICTIONARY
360
1A
102
}
102
{ACAD_REACTORS
330
10
102
}
330
10
100
AcDbMaterial
  1
ByBlock
 72
     0
 43
0.0208333333333333
 43
0.0
 43
0.0
 43
0.0
 43
0.0
 43
0.0208333333333333
 43
0.0
 43
0.0
 43
0.0
 43
0.0
 43
1.0
 43
0.0
 43
0.0
 43
0.0
 43
0.0
 43
1.0
 77
     0
 47
0.0208333333333333
 47
0.0
 47
0.0
 47
0.0
 47
0.0
 47
0.0208333333333333
 47
0.0
 47
0.0
 47
0.0
 47
0.0
 47
1.0
 47
0.0
 47
0.0
 47
0.0
 47
0.0
 47
1.0
171
     0
 49
0.0208333333333333
 49
0.0
 49
0.0
 49
0.0
 49
0.0
 49
0.0208333333333333
 49
0.0
 49
0.0
 49
0.0
 49
0.0
 49
1.0
 49
0.0
 49
0.0
 49
0.0
 49
0.0
 49
1.0
175
     0
142
0.0208333333333333
142
0.0
142
0.0
142
0.0
142
0.0
142
0.0208333333333333
142
0.0
142
0.0
142
0.0
142
0.0
142
1.0
142
0.0
142
0.0
142
0.0
142
0.0
142
1.0
179
     0
144
0.0208333333333333
144
0.0
144
0.0
144
0.0
144
0.0
144
0.0208333333333333
144
0.0
144
0.0
144
0.0
144
0.0
144
1.0
144
0.0
144
0.0
144
0.0
144
0.0
144
1.0
147
0.0208333333333333
147
0.0
147
0.0
147
0.0
147
0.0
147
0.0208333333333333
147
0.0
147
0.0
147
0.0
147
0.0
147
1.0
147
0.0
147
0.0
147
0.0
147
0.0
147
1.0
  0
MATERIAL
  5
11
102
{ACAD_XDICTIONARY
360
12
102
}
102
{ACAD_REACTORS
330
10
102
}
330
10
100
AcDbMaterial
  1
ByLayer
 72
     0
 43
0.0208333333333333
 43
0.0
 43
0.0
 43
0.0
 43
0.0
 43
0.0208333333333333
 43
0.0
 43
0.0
 43
0.0
 43
0.0
 43
1.0
 43
0.0
 43
0.0
 43
0.0
 43
0.0
 43
1.0
 77
     0
 47
0.0208333333333333
 47
0.0
 47
0.0
 47
0.0
 47
0.0
 47
0.0208333333333333
 47
0.0
 47
0.0
 47
0.0
 47
0.0
 47
1.0
 47
0.0
 47
0.0
 47
0.0
 47
0.0
 47
1.0
171
     0
 49
0.0208333333333333
 49
0.0
 49
0.0
 49
0.0
 49
0.0
 49
0.0208333333333333
 49
0.0
 49
0.0
 49
0.0
 49
0.0
 49
1.0
 49
0.0
 49
0.0
 49
0.0
 49
0.0
 49
1.0
175
     0
142
0.0208333333333333
142
0.0
142
0.0
142
0.0
142
0.0
142
0.0208333333333333
142
0.0
142
0.0
142
0.0
142
0.0
142
1.0
142
0.0
142
0.0
142
0.0
142
0.0
142
1.0
179
     0
144
0.0208333333333333
144
0.0
144
0.0
144
0.0
144
0.0
144
0.0208333333333333
144
0.0
144
0.0
144
0.0
144
0.0
144
1.0
144
0.0
144
0.0
144
0.0
144
0.0
144
1.0
147
0.0208333333333333
147
0.0
147
0.0
147
0.0
147
0.0
147
0.0208333333333333
147
0.0
147
0.0
147
0.0
147
0.0
147
1.0
147
0.0
147
0.0
147
0.0
147
0.0
147
1.0
  0
MATERIAL
  5
21
102
{ACAD_XDICTIONARY
360
22
102
}
102
{ACAD_REACTORS
330
10
102
}
330
10
100
AcDbMaterial
  1
Global
 72
     0
 43
0.0208333333333333
 43
0.0
 43
0.0
 43
0.0
 43
0.0
 43
0.0208333333333333
 43
0.0
 43
0.0
 43
0.0
 43
0.0
 43
1.0
 43
0.0
 43
0.0
 43
0.0
 43
0.0
 43
1.0
 77
     0
 47
0.0208333333333333
 47
0.0
 47
0.0
 47
0.0
 47
0.0
 47
0.0208333333333333
 47
0.0
 47
0.0
 47
0.0
 47
0.0
 47
1.0
 47
0.0
 47
0.0
 47
0.0
 47
0.0
 47
1.0
171
     0
 49
0.0208333333333333
 49
0.0
 49
0.0
 49
0.0
 49
0.0
 49
0.0208333333333333
 49
0.0
 49
0.0
 49
0.0
 49
0.0
 49
1.0
 49
0.0
 49
0.0
 49
0.0
 49
0.0
 49
1.0
175
     0
142
0.0208333333333333
142
0.0
142
0.0
142
0.0
142
0.0
142
0.0208333333333333
142
0.0
142
0.0
142
0.0
142
0.0
142
1.0
142
0.0
142
0.0
142
0.0
142
0.0
142
1.0
179
     0
144
0.0208333333333333
144
0.0
144
0.0
144
0.0
144
0.0
144
0.0208333333333333
144
0.0
144
0.0
144
0.0
144
0.0
144
1.0
144
0.0
144
0.0
144
0.0
144
0.0
144
1.0
147
0.0208333333333333
147
0.0
147
0.0
147
0.0
147
0.0
147
0.0208333333333333
147
0.0
147
0.0
147
0.0
147
0.0
147
1.0
147
0.0
147
0.0
147
0.0
147
0.0
147
1.0
  0
MLEADERSTYLE
  5
66
102
{ACAD_REACTORS
330
65
102
}
330
65
100
AcDbMLeaderStyle
170
     2
171
     1
172
     0
 90
        2
 40
0.0
 41
0.0
173
     1
 91
-1056964608
340
5A
 92
       -2
290
     1
 42
0.09
291
     1
 43
0.36
  3
Standard
 44
0.18
300

342
55
174
     1
178
     6
175
     1
176
     0
 93
-1056964608
 45
0.18
292
     0
297
     0
 46
0.18
 94
-1056964608
 47
1.0
 49
1.0
140
1.0
293
     1
141
0.0
294
     1
177
     0
142
1.0
295
     0
296
     0
143
0.125
1001
ACAD_MLEADERVER
1070
     2
  0
MLINESTYLE
  5
5F
102
{ACAD_REACTORS
330
5E
102
}
330
5E
100
AcDbMlineStyle
  2
STANDARD
 70
     0
  3

 62
   256
 51
90.0
 52
90.0
 71
     2
 49
0.5
 62
   256
  6
BYLAYER
 49
-0.5
 62
   256
  6
BYLAYER
  0
ACDBPLACEHOLDER
  5
F
102
{ACAD_REACTORS
330
E
102
}
330
E
  0
SCALE
  5
43
102
{ACAD_REACTORS
330
42
102
}
330
42
100
AcDbScale
 70
     0
300
1:1
140
1.0
141
1.0
290
     1
  0
SCALE
  5
44
102
{ACAD_REACTORS
330
42
102
}
330
42
100
AcDbScale
 70
     0
300
1/128" = 1'-0"
140
0.0078125
141
12.0
290
     0
  0
SCALE
  5
45
102
{ACAD_REACTORS
330
42
102
}
330
42
100
AcDbScale
 70
     0
300
1/64" = 1'-0"
140
0.015625
141
12.0
290
     0
  0
SCALE
  5
46
102
{ACAD_REACTORS
330
42
102
}
330
42
100
AcDbScale
 70
     0
300
1/32" = 1'-0"
140
0.03125
141
12.0
290
     0
  0
SCALE
  5
47
102
{ACAD_REACTORS
330
42
102
}
330
42
100
AcDbScale
 70
     0
300
1/16" = 1'-0"
140
0.0625
141
12.0
290
     0
  0
SCALE
  5
48
102
{ACAD_REACTORS
330
42
102
}
330
42
100
AcDbScale
 70
     0
300
3/32" = 1'-0"
140
0.09375
141
12.0
290
     0
  0
SCALE
  5
49
102
{ACAD_REACTORS
330
42
102
}
330
42
100
AcDbScale
 70
     0
300
1/8" = 1'-0"
140
0.125
141
12.0
290
     0
  0
SCALE
  5
4A
102
{ACAD_REACTORS
330
42
102
}
330
42
100
AcDbScale
 70
     0
300
3/16" = 1'-0"
140
0.1875
141
12.0
290
     0
  0
SCALE
  5
4B
102
{ACAD_REACTORS
330
42
102
}
330
42
100
AcDbScale
 70
     0
300
1/4" = 1'-0"
140
0.25
141
12.0
290
     0
  0
SCALE
  5
4C
102
{ACAD_REACTORS
330
42
102
}
330
42
100
AcDbScale
 70
     0
300
3/8" = 1'-0"
140
0.375
141
12.0
290
     0
  0
SCALE
  5
4D
102
{ACAD_REACTORS
330
42
102
}
330
42
100
AcDbScale
 70
     0
300
1/2" = 1'-0"
140
0.5
141
12.0
290
     0
  0
SCALE
  5
4E
102
{ACAD_REACTORS
330
42
102
}
330
42
100
AcDbScale
 70
     0
300
3/4" = 1'-0"
140
0.75
141
12.0
290
     0
  0
SCALE
  5
4F
102
{ACAD_REACTORS
330
42
102
}
330
42
100
AcDbScale
 70
     0
300
1" = 1'-0"
140
1.0
141
12.0
290
     0
  0
SCALE
  5
50
102
{ACAD_REACTORS
330
42
102
}
330
42
100
AcDbScale
 70
     0
300
1-1/2" = 1'-0"
140
1.5
141
12.0
290
     0
  0
SCALE
  5
51
102
{ACAD_REACTORS
330
42
102
}
330
42
100
AcDbScale
 70
     0
300
3" = 1'-0"
140
3.0
141
12.0
290
     0
  0
SCALE
  5
52
102
{ACAD_REACTORS
330
42
102
}
330
42
100
AcDbScale
 70
     0
300
6" = 1'-0"
140
6.0
141
12.0
290
     0
  0
SCALE
  5
53
102
{ACAD_REACTORS
330
42
102
}
330
42
100
AcDbScale
 70
     0
300
1'-0" = 1'-0"
140
12.0
141
12.0
290
     0
  0
ACDBSECTIONVIEWSTYLE
  5
68
102
{ACAD_XDICTIONARY
360
467
102
}
102
{ACAD_REACTORS
330
67
102
}
330
67
100
AcDbModelDocViewStyle
 70
     0
  3
Imperial24
290
     0
100
AcDbSectionViewStyle
 70
     0
 71
     0
 90
       78
 71
     1
340
55
 62
   256
 40
0.24
340
0
340
0
 62
   256
 40
0.24
300
I, O, Q, S, X, Z
 40
0.48
 90
        3
 40
0.18
 90
        1
 71
     2
340
5C
 90
       25
 62
   256
340
5C
 90
       50
 62
   256
 40
0.24
 40
0.0
 40
0.24
 71
     3
340
55
 62
   256
 40
0.24
 90
        1
 40
0.75
 90
        1
300
%<\AcVar ViewType \f "%tc1">% %<\AcVar ViewSectionStartId>%-%<\AcVar ViewSectionEndId>%\PSCALE %<\AcVar ViewScale \f "%sn">%
 71
     4
 62
   256
 62
   257
300
ANSI31
 40
1.0
 90
        0
290
     0
290
     0
 90
        6
 40
0.0
 40
1.570796326794896
 40
0.2617993877991494
 40
1.308996938995747
 40
-0.2617993877991494
 40
1.832595714594046
  0
TABLESTYLE
  5
64
102
{ACAD_XDICTIONARY
360
433
102
}
102
{ACAD_REACTORS
330
63
102
}
330
63
100
AcDbTableStyle
  3
Standard
 70
     0
 71
     0
 40
0.06
 41
0.06
280
     0
281
     0
  7
STANDARD
140
0.18
170
     2
 62
     0
 63
     7
283
     0
 90
      512
 91
        0
  1

274
    -2
284
     1
 64
     0
275
    -2
285
     1
 65
     0
276
    -2
286
     1
 66
     0
277
    -2
287
     1
 67
     0
278
    -2
288
     1
 68
     0
279
    -2
289
     1
 69
     0
  7
STANDARD
140
0.25
170
     5
 62
     0
 63
     7
283
     0
 90
      512
 91
        0
  1

274
    -2
284
     1
 64
     0
275
    -2
285
     1
 65
     0
276
    -2
286
     1
 66
     0
277
    -2
287
     1
 67
     0
278
    -2
288
     1
 68
     0
279
    -2
289
     1
 69
     0
  7
STANDARD
140
0.18
170
     5
 62
     0
 63
     7
283
     0
 90
      512
 91
        0
  1

274
    -2
284
     1
 64
     0
275
    -2
285
     1
 65
     0
276
    -2
286
     1
 66
     0
277
    -2
287
     1
 67
     0
278
    -2
288
     1
 68
     0
279
    -2
289
     1
 69
     0
  0
VISUALSTYLE
  5
2F
102
{ACAD_XDICTIONARY
360
440
102
}
102
{ACAD_REACTORS
330
29
102
}
330
29
100
AcDbVisualStyle
  2
2dWireframe
 70
     4
 71
     0
 72
     2
 73
     0
 90
        0
 40
-0.6
 41
-30.0
 62
     5
 63
     7
421
 16777215
 74
     1
 91
        4
 64
     7
 65
   257
 75
     1
175
     1
 42
1.0
 92
        0
 66
   257
 43
1.0
 76
     1
 77
     6
 78
     2
 67
     7
 79
     5
170
     0
171
     0
290
     0
174
     0
 93
        1
 44
0.0
173
     0
291
     0
 45
0.0
1001
ACAD
1000
AcDbSavedByObjectVersion
1070
     0
  0
VISUALSTYLE
  5
2E
102
{ACAD_XDICTIONARY
360
43E
102
}
102
{ACAD_REACTORS
330
29
102
}
330
29
100
AcDbVisualStyle
  2
Basic
 70
     7
 71
     1
 72
     0
 73
     1
 90
        0
 40
-0.6
 41
-30.0
 62
     5
 63
     7
421
 16777215
 74
     0
 91
        4
 64
     7
 65
   257
 75
     1
175
     1
 42
1.0
 92
        8
 66
     7
 43
1.0
 76
     1
 77
     6
 78
     2
 67
     7
 79
     5
170
     0
171
     0
290
     0
174
     0
 93
        1
 44
0.0
173
     0
291
     1
 45
0.0
1001
ACAD
1000
AcDbSavedByObjectVersion
1070
     0
  0
VISUALSTYLE
  5
35
102
{ACAD_XDICTIONARY
360
44C
102
}
102
{ACAD_REACTORS
330
29
102
}
330
29
100
AcDbVisualStyle
  2
Brighten
 70
    12
 71
     2
 72
     2
 73
     0
 90
        0
 40
-0.6
 41
-30.0
 62
     5
 63
     7
421
 16777215
 74
     1
 91
        4
 64
     7
 65
   257
 75
     1
175
     1
 42
1.0
 92
        8
 66
     7
 43
1.0
 76
     1
 77
     6
 78
     2
 67
     7
 79
     5
170
     0
171
     0
290
     0
174
     0
 93
        1
 44
50.0
173
     0
291
     1
 45
0.0
1001
ACAD
1000
AcDbSavedByObjectVersion
1070
     0
  0
VISUALSTYLE
  5
39
102
{ACAD_XDICTIONARY
360
454
102
}
102
{ACAD_REACTORS
330
29
102
}
330
29
100
AcDbVisualStyle
  2
ColorChange
 70
    16
 71
     2
 72
     2
 73
     3
 90
        0
 40
-0.6
 41
-30.0
 62
     5
 63
     8
421
  8421504
 74
     1
 91
        4
 64
     7
 65
   257
 75
     1
175
     1
 42
1.0
 92
        8
 66
     8
424
  8421504
 43
1.0
 76
     1
 77
     6
 78
     2
 67
     7
 79
     5
170
     0
171
     0
290
     0
174
     0
 93
        1
 44
0.0
173
     0
291
     1
 45
0.0
1001
ACAD
1000
AcDbSavedByObjectVersion
1070
     0
  0
VISUALSTYLE
  5
32
102
{ACAD_XDICTIONARY
360
446
102
}
102
{ACAD_REACTORS
330
29
102
}
330
29
100
AcDbVisualStyle
  2
Conceptual
 70
     9
 71
     3
 72
     2
 73
     0
 90
        0
 40
-0.6
 41
-30.0
 62
     5
 63
     7
421
 16777215
 74
     2
 91
        2
 64
     7
 65
   257
 75
     1
175
     1
 42
179.0
 92
        8
 66
     7
 43
1.0
 76
     1
 77
     6
 78
     2
 67
     7
 79
     3
170
     0
171
     0
290
     0
174
     0
 93
        1
 44
0.0
173
     0
291
     0
 45
0.0
1001
ACAD
1000
AcDbSavedByObjectVersion
1070
     0
  0
VISUALSTYLE
  5
34
102
{ACAD_XDICTIONARY
360
44A
102
}
102
{ACAD_REACTORS
330
29
102
}
330
29
100
AcDbVisualStyle
  2
Dim
 70
    11
 71
     2
 72
     2
 73
     0
 90
        0
 40
-0.6
 41
-30.0
 62
     5
 63
     7
421
 16777215
 74
     1
 91
        4
 64
     7
 65
   257
 75
     1
175
     1
 42
1.0
 92
        8
 66
     7
 43
1.0
 76
     1
 77
     6
 78
     2
 67
     7
 79
     5
170
     0
171
     0
290
     0
174
     0
 93
        1
 44
-50.0
173
     0
291
     1
 45
0.0
1001
ACAD
1000
AcDbSavedByObjectVersion
1070
     0
  0
VISUALSTYLE
  5
41
102
{ACAD_XDICTIONARY
360
464
102
}
102
{ACAD_REACTORS
330
29
102
}
330
29
100
AcDbVisualStyle
  2
EdgeColorOff
 70
    22
 71
     2
 72
     2
 73
     0
 90
        0
 40
-0.6
 41
-30.0
 62
     5
 63
     7
421
 16777215
 74
     1
 91
        4
 64
     7
 65
   257
 75
     1
175
     1
 42
1.0
 92
        8
 66
     7
 43
1.0
 76
     1
 77
     6
 78
     2
 67
     7
 79
     5
170
     0
171
     0
290
     0
174
     0
 93
        1
 44
0.0
173
     0
291
     1
 45
0.0
1001
ACAD
1000
AcDbSavedByObjectVersion
1070
     0
  0
VISUALSTYLE
  5
38
102
{ACAD_XDICTIONARY
360
452
102
}
102
{ACAD_REACTORS
330
29
102
}
330
29
100
AcDbVisualStyle
  2
Facepattern
 70
    15
 71
     2
 72
     2
 73
     0
 90
        0
 40
-0.6
 41
-30.0
 62
     5
 63
     7
421
 16777215
 74
     1
 91
        4
 64
     7
 65
   257
 75
     1
175
     1
 42
1.0
 92
        8
 66
     7
 43
1.0
 76
     1
 77
     6
 78
     2
 67
     7
 79
     5
170
     0
171
     0
290
     0
174
     0
 93
        1
 44
0.0
173
     0
291
     1
 45
0.0
1001
ACAD
1000
AcDbSavedByObjectVersion
1070
     0
  0
VISUALSTYLE
  5
2A
102
{ACAD_XDICTIONARY
360
436
102
}
102
{ACAD_REACTORS
330
29
102
}
330
29
100
AcDbVisualStyle
  2
Flat
 70
     0
 71
     2
 72
     1
 73
     1
 90
        2
 40
-0.6
 41
30.0
 62
     5
 63
     7
421
 16777215
 74
     0
 91
        0
 64
     7
 65
   257
 75
     1
175
     1
 42
1.0
 92
        8
 66
     7
 43
1.0
 76
     1
 77
     6
 78
     2
 67
     7
 79
     5
170
     0
171
     0
290
     0
174
     0
 93
       13
 44
0.0
173
     0
291
     1
 45
0.0
1001
ACAD
1000
AcDbSavedByObjectVersion
1070
     0
  0
VISUALSTYLE
  5
2B
102
{ACAD_XDICTIONARY
360
438
102
}
102
{ACAD_REACTORS
330
29
102
}
330
29
100
AcDbVisualStyle
  2
FlatWithEdges
 70
     1
 71
     2
 72
     1
 73
     1
 90
        2
 40
-0.6
 41
30.0
 62
     5
 63
     7
421
 16777215
 74
     1
 91
        0
 64
     7
 65
   257
 75
     1
175
     1
 42
1.0
 92
        0
 66
   257
 43
1.0
 76
     1
 77
     6
 78
     2
 67
     7
 79
     5
170
     0
171
     0
290
     0
174
     0
 93
       13
 44
0.0
173
     0
291
     1
 45
0.0
1001
ACAD
1000
AcDbSavedByObjectVersion
1070
     0
  0
VISUALSTYLE
  5
2C
102
{ACAD_XDICTIONARY
360
43A
102
}
102
{ACAD_REACTORS
330
29
102
}
330
29
100
AcDbVisualStyle
  2
Gouraud
 70
     2
 71
     2
 72
     2
 73
     1
 90
        2
 40
-0.6
 41
30.0
 62
     5
 63
     7
421
 16777215
 74
     0
 91
        0
 64
     7
 65
   257
 75
     1
175
     1
 42
1.0
 92
        0
 66
     7
 43
1.0
 76
     1
 77
     6
 78
     2
 67
     7
 79
     5
170
     0
171
     0
290
     0
174
     0
 93
       13
 44
0.0
173
     0
291
     1
 45
0.0
1001
ACAD
1000
AcDbSavedByObjectVersion
1070
     0
  0
VISUALSTYLE
  5
2D
102
{ACAD_XDICTIONARY
360
43C
102
}
102
{ACAD_REACTORS
330
29
102
}
330
29
100
AcDbVisualStyle
  2
GouraudWithEdges
 70
     3
 71
     2
 72
     2
 73
     1
 90
        2
 40
-0.6
 41
30.0
 62
     5
 63
     7
421
 16777215
 74
     1
 91
        0
 64
     7
 65
   257
 75
     1
175
     1
 42
1.0
 92
        0
 66
   257
 43
1.0
 76
     1
 77
     6
 78
     2
 67
     7
 79
     5
170
     0
171
     0
290
     0
174
     0
 93
       13
 44
0.0
173
     0
291
     1
 45
0.0
1001
ACAD
1000
AcDbSavedByObjectVersion
1070
     0
  0
VISUALSTYLE
  5
31
102
{ACAD_XDICTIONARY
360
444
102
}
102
{ACAD_REACTORS
330
29
102
}
330
29
100
AcDbVisualStyle
  2
Hidden
 70
     6
 71
     1
 72
     2
 73
     2
 90
        0
 40
-0.6
 41
-30.0
 62
     5
 63
     7
421
 16777215
 74
     2
 91
        2
 64
     7
 65
   257
 75
     2
175
     1
 42
40.0
 92
        0
 66
   257
 43
1.0
 76
     1
 77
     6
 78
     2
 67
     7
 79
     3
170
     0
171
     0
290
     0
174
     0
 93
        1
 44
0.0
173
     0
291
     0
 45
0.0
1001
ACAD
1000
AcDbSavedByObjectVersion
1070
     0
  0
VISUALSTYLE
  5
3F
102
{ACAD_XDICTIONARY
360
460
102
}
102
{ACAD_REACTORS
330
29
102
}
330
29
100
AcDbVisualStyle
  2
JitterOff
 70
    20
 71
     2
 72
     2
 73
     0
 90
        0
 40
-0.6
 41
-30.0
 62
     5
 63
     7
421
 16777215
 74
     1
 91
        4
 64
     7
 65
   257
 75
     1
175
     1
 42
1.0
 92
       10
 66
     7
 43
1.0
 76
     1
 77
     6
 78
     2
 67
     7
 79
     5
170
     0
171
     0
290
     0
174
     0
 93
        1
 44
0.0
173
     0
291
     1
 45
0.0
1001
ACAD
1000
AcDbSavedByObjectVersion
1070
     0
  0
VISUALSTYLE
  5
37
102
{ACAD_XDICTIONARY
360
450
102
}
102
{ACAD_REACTORS
330
29
102
}
330
29
100
AcDbVisualStyle
  2
Linepattern
 70
    14
 71
     2
 72
     2
 73
     0
 90
        0
 40
-0.6
 41
-30.0
 62
     5
 63
     7
421
 16777215
 74
     1
 91
        4
 64
     7
 65
   257
 75
     7
175
     7
 42
1.0
 92
        8
 66
     7
 43
1.0
 76
     1
 77
     6
 78
     2
 67
     7
 79
     5
170
     0
171
     0
290
     0
174
     0
 93
        1
 44
0.0
173
     0
291
     1
 45
0.0
1001
ACAD
1000
AcDbSavedByObjectVersion
1070
     0
  0
VISUALSTYLE
  5
40
102
{ACAD_XDICTIONARY
360
462
102
}
102
{ACAD_REACTORS
330
29
102
}
330
29
100
AcDbVisualStyle
  2
OverhangOff
 70
    21
 71
     2
 72
     2
 73
     0
 90
        0
 40
-0.6
 41
-30.0
 62
     5
 63
     7
421
 16777215
 74
     1
 91
        4
 64
     7
 65
   257
 75
     1
175
     1
 42
1.0
 92
        9
 66
     7
 43
1.0
 76
     1
 77
     6
 78
     2
 67
     7
 79
     5
170
     0
171
     0
290
     0
174
     0
 93
        1
 44
0.0
173
     0
291
     1
 45
0.0
1001
ACAD
1000
AcDbSavedByObjectVersion
1070
     0
  0
VISUALSTYLE
  5
33
102
{ACAD_XDICTIONARY
360
448
102
}
102
{ACAD_REACTORS
330
29
102
}
330
29
100
AcDbVisualStyle
  2
Realistic
 70
     8
 71
     2
 72
     3
 73
     0
 90
        2
 40
-0.6
 41
30.0
 62
     5
 63
     7
421
 16777215
 74
     0
 91
        0
 64
     7
 65
   257
 75
     1
175
     1
 42
1.0
 92
        8
 66
   257
 43
1.0
 76
     1
 77
     6
 78
     2
 67
     7
 79
     3
170
     0
171
     0
290
     0
174
     0
 93
       13
 44
0.0
173
     0
291
     0
 45
0.0
1001
ACAD
1000
AcDbSavedByObjectVersion
1070
     0
  0
VISUALSTYLE
  5
3E
102
{ACAD_XDICTIONARY
360
45E
102
}
102
{ACAD_REACTORS
330
29
102
}
330
29
100
AcDbVisualStyle
  2
Shaded
 70
    27
 71
     2
 72
     2
 73
     1
 90
        2
 40
-0.6
 41
30.0
 62
     5
 63
     7
421
 16777215
 74
     0
 91
        4
 64
     7
 65
   257
 75
     1
175
     1
 42
1.0
 92
        8
 66
   257
 43
1.0
 76
     1
 77
     6
 78
     2
 67
     8
425
  7895160
 79
     3
170
     0
171
     0
290
     0
174
     0
 93
        5
 44
0.0
173
     0
291
     0
 45
0.0
1001
ACAD
1000
AcDbSavedByObjectVersion
1070
     0
  0
VISUALSTYLE
  5
3D
102
{ACAD_XDICTIONARY
360
45C
102
}
102
{ACAD_REACTORS
330
29
102
}
330
29
100
AcDbVisualStyle
  2
Shaded with edges
 70
    26
 71
     2
 72
     2
 73
     1
 90
        2
 40
-0.6
 41
30.0
 62
     5
 63
     7
421
 16777215
 74
     1
 91
        2
 64
     7
 65
   257
 75
     2
175
     1
 42
1.0
 92
        8
 66
   257
 43
1.0
 76
     1
 77
     6
 78
     2
 67
     7
 79
     3
170
     0
171
     0
290
     0
174
     0
 93
        5
 44
0.0
173
     0
291
     0
 45
0.0
1001
ACAD
1000
AcDbSavedByObjectVersion
1070
     0
  0
VISUALSTYLE
  5
3A
102
{ACAD_XDICTIONARY
360
456
102
}
102
{ACAD_REACTORS
330
29
102
}
330
29
100
AcDbVisualStyle
  2
Shades of Gray
 70
    23
 71
     2
 72
     2
 73
     3
 90
        0
 40
-0.6
 41
-30.0
 62
     5
 63
     7
421
 16777215
 74
     2
 91
        2
 64
     7
 65
     7
 75
     1
175
     1
 42
40.0
 92
        8
 66
     7
 43
1.0
 76
     1
 77
     6
 78
     2
 67
     7
 79
     3
170
     0
171
     0
290
     0
174
     0
 93
        1
 44
0.0
173
     0
291
     0
 45
0.0
1001
ACAD
1000
AcDbSavedByObjectVersion
1070
     0
  0
VISUALSTYLE
  5
3B
102
{ACAD_XDICTIONARY
360
458
102
}
102
{ACAD_REACTORS
330
29
102
}
330
29
100
AcDbVisualStyle
  2
Sketchy
 70
    24
 71
     1
 72
     2
 73
     2
 90
        0
 40
-0.6
 41
-30.0
 62
     5
 63
     7
421
 16777215
 74
     2
 91
        2
 64
     7
 65
     7
 75
     1
175
     1
 42
40.0
 92
       11
 66
     7
 43
1.0
 76
     1
 77
     6
 78
     2
 67
     7
 79
     6
170
     0
171
     0
290
     0
174
     0
 93
        1
 44
0.0
173
     0
291
     0
 45
0.0
1001
ACAD
1000
AcDbSavedByObjectVersion
1070
     0
  0
VISUALSTYLE
  5
36
102
{ACAD_XDICTIONARY
360
44E
102
}
102
{ACAD_REACTORS
330
29
102
}
330
29
100
AcDbVisualStyle
  2
Thicken
 70
    13
 71
     2
 72
     2
 73
     0
 90
        0
 40
-0.6
 41
-30.0
 62
     5
 63
     7
421
 16777215
 74
     1
 91
        4
 64
     7
 65
   257
 75
     1
175
     1
 42
1.0
 92
       12
 66
     7
 43
1.0
 76
     1
 77
     6
 78
     2
 67
     7
 79
     5
170
     0
171
     0
290
     0
174
     0
 93
        1
 44
0.0
173
     0
291
     1
 45
0.0
1001
ACAD
1000
AcDbSavedByObjectVersion
1070
     0
  0
VISUALSTYLE
  5
30
102
{ACAD_XDICTIONARY
360
442
102
}
102
{ACAD_REACTORS
330
29
102
}
330
29
100
AcDbVisualStyle
  2
Wireframe
 70
     5
 71
     0
 72
     2
 73
     0
 90
        0
 40
-0.6
 41
-30.0
 62
     5
 63
     7
421
 16777215
 74
     1
 91
        4
 64
     7
 65
   257
 75
     1
175
     1
 42
1.0
 92
        0
 66
   257
 43
1.0
 76
     1
 77
     6
 78
     2
 67
     7
 79
     3
170
     0
171
     0
290
     0
174
     0
 93
        1
 44
0.0
173
     0
291
     0
 45
0.0
1001
ACAD
1000
AcDbSavedByObjectVersion
1070
     0
  0
VISUALSTYLE
  5
3C
102
{ACAD_XDICTIONARY
360
45A
102
}
102
{ACAD_REACTORS
330
29
102
}
330
29
100
AcDbVisualStyle
  2
X-Ray
 70
    25
 71
     2
 72
     2
 73
     1
 90
        1
 40
0.5
 41
-30.0
 62
     5
 63
     7
421
 16777215
 74
     1
 91
        0
 64
     7
 65
   257
 75
     1
175
     1
 42
1.0
 92
        8
 66
     7
 43
1.0
 76
     1
 77
     6
 78
     2
 67
     7
 79
     3
170
     0
171
     0
290
     0
174
     0
 93
       13
 44
0.0
173
     0
291
     0
 45
0.0
1001
ACAD
1000
AcDbSavedByObjectVersion
1070
     0
  0
DICTIONARYVAR
  5
42D
102
{ACAD_REACTORS
330
427
102
}
330
427
100
DictionaryVariables
280
     0
  1
1:1
  0
DICTIONARYVAR
  5
429
102
{ACAD_REACTORS
330
427
102
}
330
427
100
DictionaryVariables
280
     0
  1
STANDARD
  0
DICTIONARYVAR
  5
428
102
{ACAD_REACTORS
330
427
102
}
330
427
100
DictionaryVariables
280
     0
  1
STANDARD
  0
DICTIONARYVAR
  5
42A
102
{ACAD_REACTORS
330
427
102
}
330
427
100
DictionaryVariables
280
     0
  1
Imperial24
  0
DICTIONARYVAR
  5
42B
102
{ACAD_REACTORS
330
427
102
}
330
427
100
DictionaryVariables
280
     0
  1
Imperial24
  0
DICTIONARYVAR
  5
42F
102
{ACAD_REACTORS
330
427
102
}
330
427
100
DictionaryVariables
280
     0
  1
1
  0
DICTIONARYVAR
  5
430
102
{ACAD_REACTORS
330
427
102
}
330
427
100
DictionaryVariables
280
     0
  1
15
  0
DICTIONARYVAR
  5
42E
102
{ACAD_REACTORS
330
427
102
}
330
427
100
DictionaryVariables
280
     0
  1
0
  0
DICTIONARYVAR
  5
42C
102
{ACAD_REACTORS
330
427
102
}
330
427
100
DictionaryVariables
280
     0
  1
0
  0
DICTIONARYVAR
  5
431
102
{ACAD_REACTORS
330
427
102
}
330
427
100
DictionaryVariables
280
     0
  1
2
  0
DICTIONARY
  5
469
330
6A
100
AcDbDictionary
280
     1
281
     1
  3
ACAD_XREC_ROUNDTRIP
360
46A
  0
DICTIONARY
  5
1A
330
19
100
AcDbDictionary
280
     1
281
     1
  3
BUMPTILE
360
1C
  3
DIFFUSETILE
360
1B
  3
OPACITYTILE
360
1F
  3
REFLECTIONTILE
360
1E
  3
REFRACTIONTILE
360
20
  3
SPECULARTILE
360
1D
  0
DICTIONARY
  5
12
330
11
100
AcDbDictionary
280
     1
281
     1
  3
BUMPTILE
360
14
  3
DIFFUSETILE
360
13
  3
OPACITYTILE
360
17
  3
REFLECTIONTILE
360
16
  3
REFRACTIONTILE
360
18
  3
SPECULARTILE
360
15
  0
DICTIONARY
  5
22
330
21
100
AcDbDictionary
280
     1
281
     1
  3
BUMPTILE
360
24
  3
DIFFUSETILE
360
23
  3
OPACITYTILE
360
27
  3
REFLECTIONTILE
360
26
  3
REFRACTIONTILE
360
28
  3
SPECULARTILE
360
25
  0
DICTIONARY
  5
467
330
68
100
AcDbDictionary
280
     1
281
     1
  3
ACAD_XREC_ROUNDTRIP
360
468
  0
DICTIONARY
  5
433
330
64
100
AcDbDictionary
280
     1
281
     1
  3
ACAD_ROUNDTRIP_2008_TABLESTYLE_CELLSTYLEMAP
360
434
  0
DICTIONARY
  5
440
330
2F
100
AcDbDictionary
280
     1
281
     1
  3
ACAD_XREC_ROUNDTRIP
360
441
  0
DICTIONARY
  5
43E
330
2E
100
AcDbDictionary
280
     1
281
     1
  3
ACAD_XREC_ROUNDTRIP
360
43F
  0
DICTIONARY
  5
44C
330
35
100
AcDbDictionary
280
     1
281
     1
  3
ACAD_XREC_ROUNDTRIP
360
44D
  0
DICTIONARY
  5
454
330
39
100
AcDbDictionary
280
     1
281
     1
  3
ACAD_XREC_ROUNDTRIP
360
455
  0
DICTIONARY
  5
446
330
32
100
AcDbDictionary
280
     1
281
     1
  3
ACAD_XREC_ROUNDTRIP
360
447
  0
DICTIONARY
  5
44A
330
34
100
AcDbDictionary
280
     1
281
     1
  3
ACAD_XREC_ROUNDTRIP
360
44B
  0
DICTIONARY
  5
464
330
41
100
AcDbDictionary
280
     1
281
     1
  3
ACAD_XREC_ROUNDTRIP
360
465
  0
DICTIONARY
  5
452
330
38
100
AcDbDictionary
280
     1
281
     1
  3
ACAD_XREC_ROUNDTRIP
360
453
  0
DICTIONARY
  5
436
330
2A
100
AcDbDictionary
280
     1
281
     1
  3
ACAD_XREC_ROUNDTRIP
360
437
  0
DICTIONARY
  5
438
330
2B
100
AcDbDictionary
280
     1
281
     1
  3
ACAD_XREC_ROUNDTRIP
360
439
  0
DICTIONARY
  5
43A
330
2C
100
AcDbDictionary
280
     1
281
     1
  3
ACAD_XREC_ROUNDTRIP
360
43B
  0
DICTIONARY
  5
43C
330
2D
100
AcDbDictionary
280
     1
281
     1
  3
ACAD_XREC_ROUNDTRIP
360
43D
  0
DICTIONARY
  5
444
330
31
100
AcDbDictionary
280
     1
281
     1
  3
ACAD_XREC_ROUNDTRIP
360
445
  0
DICTIONARY
  5
460
330
3F
100
AcDbDictionary
280
     1
281
     1
  3
ACAD_XREC_ROUNDTRIP
360
461
  0
DICTIONARY
  5
450
330
37
100
AcDbDictionary
280
     1
281
     1
  3
ACAD_XREC_ROUNDTRIP
360
451
  0
DICTIONARY
  5
462
330
40
100
AcDbDictionary
280
     1
281
     1
  3
ACAD_XREC_ROUNDTRIP
360
463
  0
DICTIONARY
  5
448
330
33
100
AcDbDictionary
280
     1
281
     1
  3
ACAD_XREC_ROUNDTRIP
360
449
  0
DICTIONARY
  5
45E
330
3E
100
AcDbDictionary
280
     1
281
     1
  3
ACAD_XREC_ROUNDTRIP
360
45F
  0
DICTIONARY
  5
45C
330
3D
100
AcDbDictionary
280
     1
281
     1
  3
ACAD_XREC_ROUNDTRIP
360
45D
  0
DICTIONARY
  5
456
330
3A
100
AcDbDictionary
280
     1
281
     1
  3
ACAD_XREC_ROUNDTRIP
360
457
  0
DICTIONARY
  5
458
330
3B
100
AcDbDictionary
280
     1
281
     1
  3
ACAD_XREC_ROUNDTRIP
360
459
  0
DICTIONARY
  5
44E
330
36
100
AcDbDictionary
280
     1
281
     1
  3
ACAD_XREC_ROUNDTRIP
360
44F
  0
DICTIONARY
  5
442
330
30
100
AcDbDictionary
280
     1
281
     1
  3
ACAD_XREC_ROUNDTRIP
360
443
  0
DICTIONARY
  5
45A
330
3C
100
AcDbDictionary
280
     1
281
     1
  3
ACAD_XREC_ROUNDTRIP
360
45B
  0
XRECORD
  5
46A
102
{ACAD_REACTORS
330
469
102
}
330
469
100
AcDbXrecord
280
     1
102
DISPLAYNAME
  1
Imperial24
102
FLAGS
 90
        0
  0
XRECORD
  5
1C
102
{ACAD_REACTORS
330
1A
102
}
330
1A
100
AcDbXrecord
280
     1
270
     1
271
     1
  0
XRECORD
  5
1B
102
{ACAD_REACTORS
330
1A
102
}
330
1A
100
AcDbXrecord
280
     1
270
     1
271
     1
  0
XRECORD
  5
1F
102
{ACAD_REACTORS
330
1A
102
}
330
1A
100
AcDbXrecord
280
     1
270
     1
271
     1
  0
XRECORD
  5
1E
102
{ACAD_REACTORS
330
1A
102
}
330
1A
100
AcDbXrecord
280
     1
270
     1
271
     1
  0
XRECORD
  5
20
102
{ACAD_REACTORS
330
1A
102
}
330
1A
100
AcDbXrecord
280
     1
270
     1
271
     1
  0
XRECORD
  5
1D
102
{ACAD_REACTORS
330
1A
102
}
330
1A
100
AcDbXrecord
280
     1
270
     1
271
     1
  0
XRECORD
  5
14
102
{ACAD_REACTORS
330
12
102
}
330
12
100
AcDbXrecord
280
     1
270
     1
271
     1
  0
XRECORD
  5
13
102
{ACAD_REACTORS
330
12
102
}
330
12
100
AcDbXrecord
280
     1
270
     1
271
     1
  0
XRECORD
  5
17
102
{ACAD_REACTORS
330
12
102
}
330
12
100
AcDbXrecord
280
     1
270
     1
271
     1
  0
XRECORD
  5
16
102
{ACAD_REACTORS
330
12
102
}
330
12
100
AcDbXrecord
280
     1
270
     1
271
     1
  0
XRECORD
  5
18
102
{ACAD_REACTORS
330
12
102
}
330
12
100
AcDbXrecord
280
     1
270
     1
271
     1
  0
XRECORD
  5
15
102
{ACAD_REACTORS
330
12
102
}
330
12
100
AcDbXrecord
280
     1
270
     1
271
     1
  0
XRECORD
  5
24
102
{ACAD_REACTORS
330
22
102
}
330
22
100
AcDbXrecord
280
     1
270
     1
271
     1
  0
XRECORD
  5
23
102
{ACAD_REACTORS
330
22
102
}
330
22
100
AcDbXrecord
280
     1
270
     1
271
     1
  0
XRECORD
  5
27
102
{ACAD_REACTORS
330
22
102
}
330
22
100
AcDbXrecord
280
     1
270
     1
271
     1
  0
XRECORD
  5
26
102
{ACAD_REACTORS
330
22
102
}
330
22
100
AcDbXrecord
280
     1
270
     1
271
     1
  0
XRECORD
  5
28
102
{ACAD_REACTORS
330
22
102
}
330
22
100
AcDbXrecord
280
     1
270
     1
271
     1
  0
XRECORD
  5
25
102
{ACAD_REACTORS
330
22
102
}
330
22
100
AcDbXrecord
280
     1
270
     1
271
     1
  0
XRECORD
  5
468
102
{ACAD_REACTORS
330
467
102
}
330
467
100
AcDbXrecord
280
     1
102
DISPLAYNAME
  1
Imperial24
102
FLAGS
 90
        0
  0
CELLSTYLEMAP
  5
434
102
{ACAD_REACTORS
330
433
102
}
330
433
100
AcDbCellStyleMap
 90
        3
300
CELLSTYLE
  1
TABLEFORMAT_BEGIN
 90
        5
170
     1
 91
        0
 92
    32768
 62
   257
 93
        1
300
CONTENTFORMAT
  1
CONTENTFORMAT_BEGIN
 90
        0
 91
        0
 92
      512
 93
        0
300

 40
0.0
140
1.0
 94
        5
 62
     0
340
55
144
0.25
309
CONTENTFORMAT_END
171
     0
 94
        0
309
TABLEFORMAT_END
  1
CELLSTYLE_BEGIN
 90
        1
 91
        1
300
_TITLE
309
CELLSTYLE_END
300
CELLSTYLE
  1
TABLEFORMAT_BEGIN
 90
        5
170
     1
 91
        0
 92
        0
 62
   257
 93
        1
300
CONTENTFORMAT
  1
CONTENTFORMAT_BEGIN
 90
        0
 91
        0
 92
      512
 93
        0
300

 40
0.0
140
1.0
 94
        5
 62
     0
340
55
144
0.18
309
CONTENTFORMAT_END
171
     0
 94
        0
309
TABLEFORMAT_END
  1
CELLSTYLE_BEGIN
 90
        2
 91
        1
300
_HEADER
309
CELLSTYLE_END
300
CELLSTYLE
  1
TABLEFORMAT_BEGIN
 90
        5
170
     1
 91
        0
 92
        0
 62
   257
 93
        1
300
CONTENTFORMAT
  1
CONTENTFORMAT_BEGIN
 90
        0
 91
        0
 92
      512
 93
        0
300

 40
0.0
140
1.0
 94
        2
 62
     0
340
55
144
0.18
309
CONTENTFORMAT_END
171
     0
 94
        0
309
TABLEFORMAT_END
  1
CELLSTYLE_BEGIN
 90
        3
 91
        2
300
_DATA
309
CELLSTYLE_END
  0
XRECORD
  5
441
102
{ACAD_REACTORS
330
440
102
}
330
440
100
AcDbXrecord
280
     1
102
RTVSPost2010Prop28
280
     1
102
RTVSPost2010PropOp28
 70
     1
102
RTVSPost2010Prop29
280
     1
102
RTVSPost2010PropOp29
 70
     1
102
RTVSPost2010Prop30
280
     0
102
RTVSPost2010PropOp30
 70
     1
102
RTVSPost2010Prop31
280
     0
102
RTVSPost2010PropOp31
 70
     1
102
RTVSPost2010Prop32
280
     0
102
RTVSPost2010PropOp32
 70
     1
102
RTVSPost2010Prop33
280
     0
102
RTVSPost2010PropOp33
 70
     1
102
RTVSPost2010Prop34
280
     0
102
RTVSPost2010PropOp34
 70
     1
102
RTVSPost2010Prop35
280
     0
102
RTVSPost2010PropOp35
 70
     1
102
RTVSPost2010Prop36
280
     0
102
RTVSPost2010PropOp36
 70
     1
102
RTVSPost2010Prop37
 90
       50
102
RTVSPost2010PropOp37
 70
     1
102
RTVSPost2010Prop38
140
0.0
102
RTVSPost2010PropOp38
 70
     1
102
RTVSPost2010Prop39
140
1.0
102
RTVSPost2010PropOp39
 70
     1
102
RTVSPost2010Prop40
 90
        0
102
RTVSPost2010PropOp40
 70
     1
102
RTVSPost2010Prop41ColorIndex
 90
       18
102
RTVSPost2010Prop41ColorRGB
 90
        0
102
RTVSPost2010PropOp41
 70
     1
102
RTVSPost2010Prop42
 90
       50
102
RTVSPost2010PropOp42
 70
     1
102
RTVSPost2010Prop43
 90
        3
102
RTVSPost2010PropOp43
 70
     1
102
RTVSPost2010Prop44ColorIndex
 90
        5
102
RTVSPost2010Prop44ColorRGB
 90
      255
102
RTVSPost2010PropOp44
 70
     1
102
RTVSPost2010Prop45
280
     0
102
RTVSPost2010PropOp45
 70
     1
102
RTVSPost2010Prop46
 90
       50
102
RTVSPost2010PropOp46
 70
     1
102
RTVSPost2010Prop47
 90
       50
102
RTVSPost2010PropOp47
 70
     1
102
RTVSPost2010Prop48
 90
       50
102
RTVSPost2010PropOp48
 70
     1
102
RTVSPost2010Prop49
280
     0
102
RTVSPost2010PropOp49
 70
     1
102
RTVSPost2010Prop50
 90
       50
102
RTVSPost2010PropOp50
 70
     1
102
RTVSPost2010Prop51ColorIndex
 90
      256
102
RTVSPost2010Prop51ColorRGB
 90
-16777216
102
RTVSPost2010PropOp51
 70
     0
102
RTVSPost2010Prop52
140
1.0
102
RTVSPost2010PropOp52
 70
     0
102
RTVSPost2010Prop53
 90
        2
102
RTVSPost2010PropOp53
 70
     1
102
RTVSPost2010Prop54
  1
strokes_ogs.tif
102
RTVSPost2010PropOp54
 70
     1
102
RTVSPost2010Prop55
280
     0
102
RTVSPost2010PropOp55
 70
     1
102
RTVSPost2010Prop56
140
1.0
102
RTVSPost2010PropOp56
 70
     1
102
RTVSPost2010Prop57
140
1.0
102
RTVSPost2010PropOp57
 70
     1
102
RTVSPropertyOp0
 70
     1
102
RTVSPropertyOp1
 70
     1
102
RTVSPropertyOp2
 70
     1
102
RTVSPropertyOp3
 70
     1
102
RTVSPropertyOp4
 70
     1
102
RTVSPropertyOp5
 70
     1
102
RTVSPropertyOp6
 70
     1
102
RTVSPropertyOp7
 70
     1
102
RTVSPropertyOp8
 70
     1
102
RTVSPropertyOp9
 70
     1
102
RTVSPropertyOp10
 70
     1
102
RTVSPropertyOp11
 70
     1
102
RTVSPropertyOp12
 70
     1
102
RTVSPropertyOp13
 70
     1
102
RTVSPropertyOp14
 70
     1
102
RTVSPropertyOp15
 70
     1
102
RTVSPropertyOp16
 70
     1
102
RTVSPropertyOp17
 70
     1
102
RTVSPropertyOp18
 70
     1
102
RTVSPropertyOp19
 70
     1
102
RTVSPropertyOp20
 70
     1
102
RTVSPropertyOp21
 70
     1
102
RTVSPropertyOp22
 70
     1
102
RTVSPropertyOp23
 70
     1
102
RTVSPropertyOp24
 70
     1
102
RTVSPropertyOp25
 70
     1
102
RTVSPropertyOp26
 70
     1
102
RTVSPropertyOp27
 70
     1
102
RTVSPropertyOp28
 70
     1
102
RTVSPropertyOp29
 70
     1
102
RTVSPropertyOp30
 70
     1
102
RTVSPropertyOp31
 70
     1
102
RTVSPropertyOp32
 70
     1
102
RTVSPropertyOp33
 70
     1
102
RTVSPropertyOp34
 70
     1
102
RTVSPropertyOp35
 70
     1
102
RTVSPropertyOp36
 70
     1
102
RTVSPropertyOp37
 70
     1
102
RTVSPropertyOp38
 70
     1
102
RTVSPropertyOp39
 70
     1
102
RTVSPropertyOp40
 70
     1
102
RTVSPropertyOp41
 70
     1
102
RTVSPropertyOp42
 70
     1
102
RTVSPropertyOp43
 70
     1
102
RTVSPropertyOp44
 70
     1
102
RTVSPropertyOp45
 70
     1
102
RTVSPropertyOp46
 70
     1
102
RTVSPropertyOp47
 70
     1
102
RTVSPropertyOp48
 70
     1
102
RTVSPropertyOp49
 70
     1
102
RTVSPropertyOp50
 70
     1
102
RTVSPropertyOp51
 70
     0
102
RTVSPropertyOp52
 70
     0
102
RTVSPropertyOp53
 70
     1
102
RTVSPropertyOp54
 70
     1
102
RTVSPropertyOp55
 70
     1
102
RTVSPropertyOp56
 70
     1
102
RTVSPropertyOp57
 70
     1
102
RTVSPropertyOp58
 70
     1
102
RTVSPropertyOp59
 70
     1
102
RTVSPropertyOp60
 70
     1
102
RTVSPropertyOp61
 70
     1
102
RTVSPropertyOp62
 70
     1
  0
XRECORD
  5
43F
102
{ACAD_REACTORS
330
43E
102
}
330
43E
100
AcDbXrecord
280
     1
102
RTVSPost2010Prop28
280
     0
102
RTVSPost2010PropOp28
 70
     1
102
RTVSPost2010Prop29
280
     1
102
RTVSPost2010PropOp29
 70
     1
102
RTVSPost2010Prop30
280
     1
102
RTVSPost2010PropOp30
 70
     1
102
RTVSPost2010Prop31
280
     0
102
RTVSPost2010PropOp31
 70
     1
102
RTVSPost2010Prop32
280
     0
102
RTVSPost2010PropOp32
 70
     1
102
RTVSPost2010Prop33
280
     0
102
RTVSPost2010PropOp33
 70
     1
102
RTVSPost2010Prop34
280
     0
102
RTVSPost2010PropOp34
 70
     1
102
RTVSPost2010Prop35
280
     0
102
RTVSPost2010PropOp35
 70
     1
102
RTVSPost2010Prop36
280
     0
102
RTVSPost2010PropOp36
 70
     1
102
RTVSPost2010Prop37
 90
       50
102
RTVSPost2010PropOp37
 70
     1
102
RTVSPost2010Prop38
140
0.0
102
RTVSPost2010PropOp38
 70
     1
102
RTVSPost2010Prop39
140
1.0
102
RTVSPost2010PropOp39
 70
     1
102
RTVSPost2010Prop40
 90
        0
102
RTVSPost2010PropOp40
 70
     1
102
RTVSPost2010Prop41ColorIndex
 90
       18
102
RTVSPost2010Prop41ColorRGB
 90
        0
102
RTVSPost2010PropOp41
 70
     1
102
RTVSPost2010Prop42
 90
       50
102
RTVSPost2010PropOp42
 70
     1
102
RTVSPost2010Prop43
 90
        3
102
RTVSPost2010PropOp43
 70
     1
102
RTVSPost2010Prop44ColorIndex
 90
        5
102
RTVSPost2010Prop44ColorRGB
 90
      255
102
RTVSPost2010PropOp44
 70
     1
102
RTVSPost2010Prop45
280
     0
102
RTVSPost2010PropOp45
 70
     1
102
RTVSPost2010Prop46
 90
       50
102
RTVSPost2010PropOp46
 70
     1
102
RTVSPost2010Prop47
 90
       50
102
RTVSPost2010PropOp47
 70
     1
102
RTVSPost2010Prop48
 90
       50
102
RTVSPost2010PropOp48
 70
     1
102
RTVSPost2010Prop49
280
     0
102
RTVSPost2010PropOp49
 70
     1
102
RTVSPost2010Prop50
 90
       50
102
RTVSPost2010PropOp50
 70
     1
102
RTVSPost2010Prop51ColorIndex
 90
      256
102
RTVSPost2010Prop51ColorRGB
 90
-16777216
102
RTVSPost2010PropOp51
 70
     0
102
RTVSPost2010Prop52
140
1.0
102
RTVSPost2010PropOp52
 70
     0
102
RTVSPost2010Prop53
 90
        2
102
RTVSPost2010PropOp53
 70
     1
102
RTVSPost2010Prop54
  1
strokes_ogs.tif
102
RTVSPost2010PropOp54
 70
     1
102
RTVSPost2010Prop55
280
     0
102
RTVSPost2010PropOp55
 70
     1
102
RTVSPost2010Prop56
140
1.0
102
RTVSPost2010PropOp56
 70
     1
102
RTVSPost2010Prop57
140
1.0
102
RTVSPost2010PropOp57
 70
     1
102
RTVSPropertyOp0
 70
     1
102
RTVSPropertyOp1
 70
     1
102
RTVSPropertyOp2
 70
     1
102
RTVSPropertyOp3
 70
     1
102
RTVSPropertyOp4
 70
     1
102
RTVSPropertyOp5
 70
     1
102
RTVSPropertyOp6
 70
     1
102
RTVSPropertyOp7
 70
     1
102
RTVSPropertyOp8
 70
     1
102
RTVSPropertyOp9
 70
     1
102
RTVSPropertyOp10
 70
     1
102
RTVSPropertyOp11
 70
     1
102
RTVSPropertyOp12
 70
     1
102
RTVSPropertyOp13
 70
     1
102
RTVSPropertyOp14
 70
     1
102
RTVSPropertyOp15
 70
     1
102
RTVSPropertyOp16
 70
     1
102
RTVSPropertyOp17
 70
     1
102
RTVSPropertyOp18
 70
     1
102
RTVSPropertyOp19
 70
     1
102
RTVSPropertyOp20
 70
     1
102
RTVSPropertyOp21
 70
     1
102
RTVSPropertyOp22
 70
     1
102
RTVSPropertyOp23
 70
     1
102
RTVSPropertyOp24
 70
     1
102
RTVSPropertyOp25
 70
     1
102
RTVSPropertyOp26
 70
     1
102
RTVSPropertyOp27
 70
     1
102
RTVSPropertyOp28
 70
     1
102
RTVSPropertyOp29
 70
     1
102
RTVSPropertyOp30
 70
     1
102
RTVSPropertyOp31
 70
     1
102
RTVSPropertyOp32
 70
     1
102
RTVSPropertyOp33
 70
     1
102
RTVSPropertyOp34
 70
     1
102
RTVSPropertyOp35
 70
     1
102
RTVSPropertyOp36
 70
     1
102
RTVSPropertyOp37
 70
     1
102
RTVSPropertyOp38
 70
     1
102
RTVSPropertyOp39
 70
     1
102
RTVSPropertyOp40
 70
     1
102
RTVSPropertyOp41
 70
     1
102
RTVSPropertyOp42
 70
     1
102
RTVSPropertyOp43
 70
     1
102
RTVSPropertyOp44
 70
     1
102
RTVSPropertyOp45
 70
     1
102
RTVSPropertyOp46
 70
     1
102
RTVSPropertyOp47
 70
     1
102
RTVSPropertyOp48
 70
     1
102
RTVSPropertyOp49
 70
     1
102
RTVSPropertyOp50
 70
     1
102
RTVSPropertyOp51
 70
     0
102
RTVSPropertyOp52
 70
     0
102
RTVSPropertyOp53
 70
     1
102
RTVSPropertyOp54
 70
     1
102
RTVSPropertyOp55
 70
     1
102
RTVSPropertyOp56
 70
     1
102
RTVSPropertyOp57
 70
     1
102
RTVSPropertyOp58
 70
     1
102
RTVSPropertyOp59
 70
     1
102
RTVSPropertyOp60
 70
     1
102
RTVSPropertyOp61
 70
     1
102
RTVSPropertyOp62
 70
     1
  0
XRECORD
  5
44D
102
{ACAD_REACTORS
330
44C
102
}
330
44C
100
AcDbXrecord
280
     1
102
RTVSPost2010Prop28
280
     0
102
RTVSPost2010PropOp28
 70
     1
102
RTVSPost2010Prop29
280
     1
102
RTVSPost2010PropOp29
 70
     1
102
RTVSPost2010Prop30
280
     1
102
RTVSPost2010PropOp30
 70
     1
102
RTVSPost2010Prop31
280
     0
102
RTVSPost2010PropOp31
 70
     1
102
RTVSPost2010Prop32
280
     0
102
RTVSPost2010PropOp32
 70
     1
102
RTVSPost2010Prop33
280
     0
102
RTVSPost2010PropOp33
 70
     1
102
RTVSPost2010Prop34
280
     0
102
RTVSPost2010PropOp34
 70
     1
102
RTVSPost2010Prop35
280
     0
102
RTVSPost2010PropOp35
 70
     1
102
RTVSPost2010Prop36
280
     0
102
RTVSPost2010PropOp36
 70
     1
102
RTVSPost2010Prop37
 90
       50
102
RTVSPost2010PropOp37
 70
     1
102
RTVSPost2010Prop38
140
0.0
102
RTVSPost2010PropOp38
 70
     1
102
RTVSPost2010Prop39
140
1.0
102
RTVSPost2010PropOp39
 70
     1
102
RTVSPost2010Prop40
 90
        0
102
RTVSPost2010PropOp40
 70
     1
102
RTVSPost2010Prop41ColorIndex
 90
       18
102
RTVSPost2010Prop41ColorRGB
 90
        0
102
RTVSPost2010PropOp41
 70
     1
102
RTVSPost2010Prop42
 90
       50
102
RTVSPost2010PropOp42
 70
     1
102
RTVSPost2010Prop43
 90
        3
102
RTVSPost2010PropOp43
 70
     1
102
RTVSPost2010Prop44ColorIndex
 90
        5
102
RTVSPost2010Prop44ColorRGB
 90
      255
102
RTVSPost2010PropOp44
 70
     1
102
RTVSPost2010Prop45
280
     0
102
RTVSPost2010PropOp45
 70
     1
102
RTVSPost2010Prop46
 90
       50
102
RTVSPost2010PropOp46
 70
     1
102
RTVSPost2010Prop47
 90
       50
102
RTVSPost2010PropOp47
 70
     1
102
RTVSPost2010Prop48
 90
       50
102
RTVSPost2010PropOp48
 70
     1
102
RTVSPost2010Prop49
280
     0
102
RTVSPost2010PropOp49
 70
     1
102
RTVSPost2010Prop50
 90
       50
102
RTVSPost2010PropOp50
 70
     1
102
RTVSPost2010Prop51ColorIndex
 90
      256
102
RTVSPost2010Prop51ColorRGB
 90
-16777216
102
RTVSPost2010PropOp51
 70
     0
102
RTVSPost2010Prop52
140
1.0
102
RTVSPost2010PropOp52
 70
     0
102
RTVSPost2010Prop53
 90
        2
102
RTVSPost2010PropOp53
 70
     1
102
RTVSPost2010Prop54
  1
strokes_ogs.tif
102
RTVSPost2010PropOp54
 70
     1
102
RTVSPost2010Prop55
280
     0
102
RTVSPost2010PropOp55
 70
     1
102
RTVSPost2010Prop56
140
1.0
102
RTVSPost2010PropOp56
 70
     1
102
RTVSPost2010Prop57
140
1.0
102
RTVSPost2010PropOp57
 70
     1
102
RTVSPropertyOp0
 70
     1
102
RTVSPropertyOp1
 70
     1
102
RTVSPropertyOp2
 70
     1
102
RTVSPropertyOp3
 70
     1
102
RTVSPropertyOp4
 70
     1
102
RTVSPropertyOp5
 70
     1
102
RTVSPropertyOp6
 70
     1
102
RTVSPropertyOp7
 70
     1
102
RTVSPropertyOp8
 70
     1
102
RTVSPropertyOp9
 70
     1
102
RTVSPropertyOp10
 70
     1
102
RTVSPropertyOp11
 70
     1
102
RTVSPropertyOp12
 70
     1
102
RTVSPropertyOp13
 70
     1
102
RTVSPropertyOp14
 70
     1
102
RTVSPropertyOp15
 70
     1
102
RTVSPropertyOp16
 70
     1
102
RTVSPropertyOp17
 70
     1
102
RTVSPropertyOp18
 70
     1
102
RTVSPropertyOp19
 70
     1
102
RTVSPropertyOp20
 70
     1
102
RTVSPropertyOp21
 70
     1
102
RTVSPropertyOp22
 70
     1
102
RTVSPropertyOp23
 70
     1
102
RTVSPropertyOp24
 70
     1
102
RTVSPropertyOp25
 70
     1
102
RTVSPropertyOp26
 70
     1
102
RTVSPropertyOp27
 70
     1
102
RTVSPropertyOp28
 70
     1
102
RTVSPropertyOp29
 70
     1
102
RTVSPropertyOp30
 70
     1
102
RTVSPropertyOp31
 70
     1
102
RTVSPropertyOp32
 70
     1
102
RTVSPropertyOp33
 70
     1
102
RTVSPropertyOp34
 70
     1
102
RTVSPropertyOp35
 70
     1
102
RTVSPropertyOp36
 70
     1
102
RTVSPropertyOp37
 70
     1
102
RTVSPropertyOp38
 70
     1
102
RTVSPropertyOp39
 70
     1
102
RTVSPropertyOp40
 70
     1
102
RTVSPropertyOp41
 70
     1
102
RTVSPropertyOp42
 70
     1
102
RTVSPropertyOp43
 70
     1
102
RTVSPropertyOp44
 70
     1
102
RTVSPropertyOp45
 70
     1
102
RTVSPropertyOp46
 70
     1
102
RTVSPropertyOp47
 70
     1
102
RTVSPropertyOp48
 70
     1
102
RTVSPropertyOp49
 70
     1
102
RTVSPropertyOp50
 70
     1
102
RTVSPropertyOp51
 70
     0
102
RTVSPropertyOp52
 70
     0
102
RTVSPropertyOp53
 70
     1
102
RTVSPropertyOp54
 70
     1
102
RTVSPropertyOp55
 70
     1
102
RTVSPropertyOp56
 70
     1
102
RTVSPropertyOp57
 70
     1
102
RTVSPropertyOp58
 70
     1
102
RTVSPropertyOp59
 70
     1
102
RTVSPropertyOp60
 70
     1
102
RTVSPropertyOp61
 70
     1
102
RTVSPropertyOp62
 70
     1
  0
XRECORD
  5
455
102
{ACAD_REACTORS
330
454
102
}
330
454
100
AcDbXrecord
280
     1
102
RTVSPost2010Prop28
280
     0
102
RTVSPost2010PropOp28
 70
     1
102
RTVSPost2010Prop29
280
     1
102
RTVSPost2010PropOp29
 70
     1
102
RTVSPost2010Prop30
280
     1
102
RTVSPost2010PropOp30
 70
     1
102
RTVSPost2010Prop31
280
     0
102
RTVSPost2010PropOp31
 70
     1
102
RTVSPost2010Prop32
280
     0
102
RTVSPost2010PropOp32
 70
     1
102
RTVSPost2010Prop33
280
     0
102
RTVSPost2010PropOp33
 70
     1
102
RTVSPost2010Prop34
280
     0
102
RTVSPost2010PropOp34
 70
     1
102
RTVSPost2010Prop35
280
     0
102
RTVSPost2010PropOp35
 70
     1
102
RTVSPost2010Prop36
280
     0
102
RTVSPost2010PropOp36
 70
     1
102
RTVSPost2010Prop37
 90
       50
102
RTVSPost2010PropOp37
 70
     1
102
RTVSPost2010Prop38
140
0.0
102
RTVSPost2010PropOp38
 70
     1
102
RTVSPost2010Prop39
140
1.0
102
RTVSPost2010PropOp39
 70
     1
102
RTVSPost2010Prop40
 90
        0
102
RTVSPost2010PropOp40
 70
     1
102
RTVSPost2010Prop41ColorIndex
 90
       18
102
RTVSPost2010Prop41ColorRGB
 90
        0
102
RTVSPost2010PropOp41
 70
     1
102
RTVSPost2010Prop42
 90
       50
102
RTVSPost2010PropOp42
 70
     1
102
RTVSPost2010Prop43
 90
        3
102
RTVSPost2010PropOp43
 70
     1
102
RTVSPost2010Prop44ColorIndex
 90
        5
102
RTVSPost2010Prop44ColorRGB
 90
      255
102
RTVSPost2010PropOp44
 70
     1
102
RTVSPost2010Prop45
280
     0
102
RTVSPost2010PropOp45
 70
     1
102
RTVSPost2010Prop46
 90
       50
102
RTVSPost2010PropOp46
 70
     1
102
RTVSPost2010Prop47
 90
       50
102
RTVSPost2010PropOp47
 70
     1
102
RTVSPost2010Prop48
 90
       50
102
RTVSPost2010PropOp48
 70
     1
102
RTVSPost2010Prop49
280
     0
102
RTVSPost2010PropOp49
 70
     1
102
RTVSPost2010Prop50
 90
       50
102
RTVSPost2010PropOp50
 70
     1
102
RTVSPost2010Prop51ColorIndex
 90
      256
102
RTVSPost2010Prop51ColorRGB
 90
-16777216
102
RTVSPost2010PropOp51
 70
     0
102
RTVSPost2010Prop52
140
1.0
102
RTVSPost2010PropOp52
 70
     0
102
RTVSPost2010Prop53
 90
        2
102
RTVSPost2010PropOp53
 70
     1
102
RTVSPost2010Prop54
  1
strokes_ogs.tif
102
RTVSPost2010PropOp54
 70
     1
102
RTVSPost2010Prop55
280
     0
102
RTVSPost2010PropOp55
 70
     1
102
RTVSPost2010Prop56
140
1.0
102
RTVSPost2010PropOp56
 70
     1
102
RTVSPost2010Prop57
140
1.0
102
RTVSPost2010PropOp57
 70
     1
102
RTVSPropertyOp0
 70
     1
102
RTVSPropertyOp1
 70
     1
102
RTVSPropertyOp2
 70
     1
102
RTVSPropertyOp3
 70
     1
102
RTVSPropertyOp4
 70
     1
102
RTVSPropertyOp5
 70
     1
102
RTVSPropertyOp6
 70
     1
102
RTVSPropertyOp7
 70
     1
102
RTVSPropertyOp8
 70
     1
102
RTVSPropertyOp9
 70
     1
102
RTVSPropertyOp10
 70
     1
102
RTVSPropertyOp11
 70
     1
102
RTVSPropertyOp12
 70
     1
102
RTVSPropertyOp13
 70
     1
102
RTVSPropertyOp14
 70
     1
102
RTVSPropertyOp15
 70
     1
102
RTVSPropertyOp16
 70
     1
102
RTVSPropertyOp17
 70
     1
102
RTVSPropertyOp18
 70
     1
102
RTVSPropertyOp19
 70
     1
102
RTVSPropertyOp20
 70
     1
102
RTVSPropertyOp21
 70
     1
102
RTVSPropertyOp22
 70
     1
102
RTVSPropertyOp23
 70
     1
102
RTVSPropertyOp24
 70
     1
102
RTVSPropertyOp25
 70
     1
102
RTVSPropertyOp26
 70
     1
102
RTVSPropertyOp27
 70
     1
102
RTVSPropertyOp28
 70
     1
102
RTVSPropertyOp29
 70
     1
102
RTVSPropertyOp30
 70
     1
102
RTVSPropertyOp31
 70
     1
102
RTVSPropertyOp32
 70
     1
102
RTVSPropertyOp33
 70
     1
102
RTVSPropertyOp34
 70
     1
102
RTVSPropertyOp35
 70
     1
102
RTVSPropertyOp36
 70
     1
102
RTVSPropertyOp37
 70
     1
102
RTVSPropertyOp38
 70
     1
102
RTVSPropertyOp39
 70
     1
102
RTVSPropertyOp40
 70
     1
102
RTVSPropertyOp41
 70
     1
102
RTVSPropertyOp42
 70
     1
102
RTVSPropertyOp43
 70
     1
102
RTVSPropertyOp44
 70
     1
102
RTVSPropertyOp45
 70
     1
102
RTVSPropertyOp46
 70
     1
102
RTVSPropertyOp47
 70
     1
102
RTVSPropertyOp48
 70
     1
102
RTVSPropertyOp49
 70
     1
102
RTVSPropertyOp50
 70
     1
102
RTVSPropertyOp51
 70
     0
102
RTVSPropertyOp52
 70
     0
102
RTVSPropertyOp53
 70
     1
102
RTVSPropertyOp54
 70
     1
102
RTVSPropertyOp55
 70
     1
102
RTVSPropertyOp56
 70
     1
102
RTVSPropertyOp57
 70
     1
102
RTVSPropertyOp58
 70
     1
102
RTVSPropertyOp59
 70
     1
102
RTVSPropertyOp60
 70
     1
102
RTVSPropertyOp61
 70
     1
102
RTVSPropertyOp62
 70
     1
  0
XRECORD
  5
447
102
{ACAD_REACTORS
330
446
102
}
330
446
100
AcDbXrecord
280
     1
102
RTVSPost2010Prop28
280
     0
102
RTVSPost2010PropOp28
 70
     1
102
RTVSPost2010Prop29
280
     1
102
RTVSPost2010PropOp29
 70
     1
102
RTVSPost2010Prop30
280
     1
102
RTVSPost2010PropOp30
 70
     1
102
RTVSPost2010Prop31
280
     0
102
RTVSPost2010PropOp31
 70
     1
102
RTVSPost2010Prop32
280
     0
102
RTVSPost2010PropOp32
 70
     1
102
RTVSPost2010Prop33
280
     0
102
RTVSPost2010PropOp33
 70
     1
102
RTVSPost2010Prop34
280
     0
102
RTVSPost2010PropOp34
 70
     1
102
RTVSPost2010Prop35
280
     0
102
RTVSPost2010PropOp35
 70
     1
102
RTVSPost2010Prop36
280
     0
102
RTVSPost2010PropOp36
 70
     1
102
RTVSPost2010Prop37
 90
       50
102
RTVSPost2010PropOp37
 70
     1
102
RTVSPost2010Prop38
140
0.0
102
RTVSPost2010PropOp38
 70
     1
102
RTVSPost2010Prop39
140
1.0
102
RTVSPost2010PropOp39
 70
     1
102
RTVSPost2010Prop40
 90
        0
102
RTVSPost2010PropOp40
 70
     1
102
RTVSPost2010Prop41ColorIndex
 90
       18
102
RTVSPost2010Prop41ColorRGB
 90
        0
102
RTVSPost2010PropOp41
 70
     1
102
RTVSPost2010Prop42
 90
       50
102
RTVSPost2010PropOp42
 70
     1
102
RTVSPost2010Prop43
 90
        3
102
RTVSPost2010PropOp43
 70
     1
102
RTVSPost2010Prop44ColorIndex
 90
        5
102
RTVSPost2010Prop44ColorRGB
 90
      255
102
RTVSPost2010PropOp44
 70
     1
102
RTVSPost2010Prop45
280
     0
102
RTVSPost2010PropOp45
 70
     1
102
RTVSPost2010Prop46
 90
       50
102
RTVSPost2010PropOp46
 70
     1
102
RTVSPost2010Prop47
 90
       50
102
RTVSPost2010PropOp47
 70
     1
102
RTVSPost2010Prop48
 90
       50
102
RTVSPost2010PropOp48
 70
     1
102
RTVSPost2010Prop49
280
     0
102
RTVSPost2010PropOp49
 70
     1
102
RTVSPost2010Prop50
 90
       50
102
RTVSPost2010PropOp50
 70
     1
102
RTVSPost2010Prop51ColorIndex
 90
      256
102
RTVSPost2010Prop51ColorRGB
 90
-16777216
102
RTVSPost2010PropOp51
 70
     0
102
RTVSPost2010Prop52
140
1.0
102
RTVSPost2010PropOp52
 70
     0
102
RTVSPost2010Prop53
 90
        2
102
RTVSPost2010PropOp53
 70
     1
102
RTVSPost2010Prop54
  1
strokes_ogs.tif
102
RTVSPost2010PropOp54
 70
     1
102
RTVSPost2010Prop55
280
     0
102
RTVSPost2010PropOp55
 70
     1
102
RTVSPost2010Prop56
140
1.0
102
RTVSPost2010PropOp56
 70
     1
102
RTVSPost2010Prop57
140
1.0
102
RTVSPost2010PropOp57
 70
     1
102
RTVSPropertyOp0
 70
     1
102
RTVSPropertyOp1
 70
     1
102
RTVSPropertyOp2
 70
     1
102
RTVSPropertyOp3
 70
     1
102
RTVSPropertyOp4
 70
     1
102
RTVSPropertyOp5
 70
     1
102
RTVSPropertyOp6
 70
     1
102
RTVSPropertyOp7
 70
     1
102
RTVSPropertyOp8
 70
     1
102
RTVSPropertyOp9
 70
     1
102
RTVSPropertyOp10
 70
     1
102
RTVSPropertyOp11
 70
     1
102
RTVSPropertyOp12
 70
     1
102
RTVSPropertyOp13
 70
     1
102
RTVSPropertyOp14
 70
     1
102
RTVSPropertyOp15
 70
     1
102
RTVSPropertyOp16
 70
     1
102
RTVSPropertyOp17
 70
     1
102
RTVSPropertyOp18
 70
     1
102
RTVSPropertyOp19
 70
     1
102
RTVSPropertyOp20
 70
     1
102
RTVSPropertyOp21
 70
     1
102
RTVSPropertyOp22
 70
     1
102
RTVSPropertyOp23
 70
     1
102
RTVSPropertyOp24
 70
     1
102
RTVSPropertyOp25
 70
     1
102
RTVSPropertyOp26
 70
     1
102
RTVSPropertyOp27
 70
     1
102
RTVSPropertyOp28
 70
     1
102
RTVSPropertyOp29
 70
     1
102
RTVSPropertyOp30
 70
     1
102
RTVSPropertyOp31
 70
     1
102
RTVSPropertyOp32
 70
     1
102
RTVSPropertyOp33
 70
     1
102
RTVSPropertyOp34
 70
     1
102
RTVSPropertyOp35
 70
     1
102
RTVSPropertyOp36
 70
     1
102
RTVSPropertyOp37
 70
     1
102
RTVSPropertyOp38
 70
     1
102
RTVSPropertyOp39
 70
     1
102
RTVSPropertyOp40
 70
     1
102
RTVSPropertyOp41
 70
     1
102
RTVSPropertyOp42
 70
     1
102
RTVSPropertyOp43
 70
     1
102
RTVSPropertyOp44
 70
     1
102
RTVSPropertyOp45
 70
     1
102
RTVSPropertyOp46
 70
     1
102
RTVSPropertyOp47
 70
     1
102
RTVSPropertyOp48
 70
     1
102
RTVSPropertyOp49
 70
     1
102
RTVSPropertyOp50
 70
     1
102
RTVSPropertyOp51
 70
     0
102
RTVSPropertyOp52
 70
     0
102
RTVSPropertyOp53
 70
     1
102
RTVSPropertyOp54
 70
     1
102
RTVSPropertyOp55
 70
     1
102
RTVSPropertyOp56
 70
     1
102
RTVSPropertyOp57
 70
     1
102
RTVSPropertyOp58
 70
     1
102
RTVSPropertyOp59
 70
     1
102
RTVSPropertyOp60
 70
     1
102
RTVSPropertyOp61
 70
     1
102
RTVSPropertyOp62
 70
     1
  0
XRECORD
  5
44B
102
{ACAD_REACTORS
330
44A
102
}
330
44A
100
AcDbXrecord
280
     1
102
RTVSPost2010Prop28
280
     0
102
RTVSPost2010PropOp28
 70
     1
102
RTVSPost2010Prop29
280
     1
102
RTVSPost2010PropOp29
 70
     1
102
RTVSPost2010Prop30
280
     1
102
RTVSPost2010PropOp30
 70
     1
102
RTVSPost2010Prop31
280
     0
102
RTVSPost2010PropOp31
 70
     1
102
RTVSPost2010Prop32
280
     0
102
RTVSPost2010PropOp32
 70
     1
102
RTVSPost2010Prop33
280
     0
102
RTVSPost2010PropOp33
 70
     1
102
RTVSPost2010Prop34
280
     0
102
RTVSPost2010PropOp34
 70
     1
102
RTVSPost2010Prop35
280
     0
102
RTVSPost2010PropOp35
 70
     1
102
RTVSPost2010Prop36
280
     0
102
RTVSPost2010PropOp36
 70
     1
102
RTVSPost2010Prop37
 90
       50
102
RTVSPost2010PropOp37
 70
     1
102
RTVSPost2010Prop38
140
0.0
102
RTVSPost2010PropOp38
 70
     1
102
RTVSPost2010Prop39
140
1.0
102
RTVSPost2010PropOp39
 70
     1
102
RTVSPost2010Prop40
 90
        0
102
RTVSPost2010PropOp40
 70
     1
102
RTVSPost2010Prop41ColorIndex
 90
       18
102
RTVSPost2010Prop41ColorRGB
 90
        0
102
RTVSPost2010PropOp41
 70
     1
102
RTVSPost2010Prop42
 90
       50
102
RTVSPost2010PropOp42
 70
     1
102
RTVSPost2010Prop43
 90
        3
102
RTVSPost2010PropOp43
 70
     1
102
RTVSPost2010Prop44ColorIndex
 90
        5
102
RTVSPost2010Prop44ColorRGB
 90
      255
102
RTVSPost2010PropOp44
 70
     1
102
RTVSPost2010Prop45
280
     0
102
RTVSPost2010PropOp45
 70
     1
102
RTVSPost2010Prop46
 90
       50
102
RTVSPost2010PropOp46
 70
     1
102
RTVSPost2010Prop47
 90
       50
102
RTVSPost2010PropOp47
 70
     1
102
RTVSPost2010Prop48
 90
       50
102
RTVSPost2010PropOp48
 70
     1
102
RTVSPost2010Prop49
280
     0
102
RTVSPost2010PropOp49
 70
     1
102
RTVSPost2010Prop50
 90
       50
102
RTVSPost2010PropOp50
 70
     1
102
RTVSPost2010Prop51ColorIndex
 90
      256
102
RTVSPost2010Prop51ColorRGB
 90
-16777216
102
RTVSPost2010PropOp51
 70
     0
102
RTVSPost2010Prop52
140
1.0
102
RTVSPost2010PropOp52
 70
     0
102
RTVSPost2010Prop53
 90
        2
102
RTVSPost2010PropOp53
 70
     1
102
RTVSPost2010Prop54
  1
strokes_ogs.tif
102
RTVSPost2010PropOp54
 70
     1
102
RTVSPost2010Prop55
280
     0
102
RTVSPost2010PropOp55
 70
     1
102
RTVSPost2010Prop56
140
1.0
102
RTVSPost2010PropOp56
 70
     1
102
RTVSPost2010Prop57
140
1.0
102
RTVSPost2010PropOp57
 70
     1
102
RTVSPropertyOp0
 70
     1
102
RTVSPropertyOp1
 70
     1
102
RTVSPropertyOp2
 70
     1
102
RTVSPropertyOp3
 70
     1
102
RTVSPropertyOp4
 70
     1
102
RTVSPropertyOp5
 70
     1
102
RTVSPropertyOp6
 70
     1
102
RTVSPropertyOp7
 70
     1
102
RTVSPropertyOp8
 70
     1
102
RTVSPropertyOp9
 70
     1
102
RTVSPropertyOp10
 70
     1
102
RTVSPropertyOp11
 70
     1
102
RTVSPropertyOp12
 70
     1
102
RTVSPropertyOp13
 70
     1
102
RTVSPropertyOp14
 70
     1
102
RTVSPropertyOp15
 70
     1
102
RTVSPropertyOp16
 70
     1
102
RTVSPropertyOp17
 70
     1
102
RTVSPropertyOp18
 70
     1
102
RTVSPropertyOp19
 70
     1
102
RTVSPropertyOp20
 70
     1
102
RTVSPropertyOp21
 70
     1
102
RTVSPropertyOp22
 70
     1
102
RTVSPropertyOp23
 70
     1
102
RTVSPropertyOp24
 70
     1
102
RTVSPropertyOp25
 70
     1
102
RTVSPropertyOp26
 70
     1
102
RTVSPropertyOp27
 70
     1
102
RTVSPropertyOp28
 70
     1
102
RTVSPropertyOp29
 70
     1
102
RTVSPropertyOp30
 70
     1
102
RTVSPropertyOp31
 70
     1
102
RTVSPropertyOp32
 70
     1
102
RTVSPropertyOp33
 70
     1
102
RTVSPropertyOp34
 70
     1
102
RTVSPropertyOp35
 70
     1
102
RTVSPropertyOp36
 70
     1
102
RTVSPropertyOp37
 70
     1
102
RTVSPropertyOp38
 70
     1
102
RTVSPropertyOp39
 70
     1
102
RTVSPropertyOp40
 70
     1
102
RTVSPropertyOp41
 70
     1
102
RTVSPropertyOp42
 70
     1
102
RTVSPropertyOp43
 70
     1
102
RTVSPropertyOp44
 70
     1
102
RTVSPropertyOp45
 70
     1
102
RTVSPropertyOp46
 70
     1
102
RTVSPropertyOp47
 70
     1
102
RTVSPropertyOp48
 70
     1
102
RTVSPropertyOp49
 70
     1
102
RTVSPropertyOp50
 70
     1
102
RTVSPropertyOp51
 70
     0
102
RTVSPropertyOp52
 70
     0
102
RTVSPropertyOp53
 70
     1
102
RTVSPropertyOp54
 70
     1
102
RTVSPropertyOp55
 70
     1
102
RTVSPropertyOp56
 70
     1
102
RTVSPropertyOp57
 70
     1
102
RTVSPropertyOp58
 70
     1
102
RTVSPropertyOp59
 70
     1
102
RTVSPropertyOp60
 70
     1
102
RTVSPropertyOp61
 70
     1
102
RTVSPropertyOp62
 70
     1
  0
XRECORD
  5
465
102
{ACAD_REACTORS
330
464
102
}
330
464
100
AcDbXrecord
280
     1
102
RTVSPost2010Prop28
280
     0
102
RTVSPost2010PropOp28
 70
     1
102
RTVSPost2010Prop29
280
     1
102
RTVSPost2010PropOp29
 70
     1
102
RTVSPost2010Prop30
280
     1
102
RTVSPost2010PropOp30
 70
     1
102
RTVSPost2010Prop31
280
     0
102
RTVSPost2010PropOp31
 70
     1
102
RTVSPost2010Prop32
280
     0
102
RTVSPost2010PropOp32
 70
     1
102
RTVSPost2010Prop33
280
     0
102
RTVSPost2010PropOp33
 70
     1
102
RTVSPost2010Prop34
280
     0
102
RTVSPost2010PropOp34
 70
     1
102
RTVSPost2010Prop35
280
     0
102
RTVSPost2010PropOp35
 70
     1
102
RTVSPost2010Prop36
280
     0
102
RTVSPost2010PropOp36
 70
     1
102
RTVSPost2010Prop37
 90
       50
102
RTVSPost2010PropOp37
 70
     0
102
RTVSPost2010Prop38
140
0.0
102
RTVSPost2010PropOp38
 70
     0
102
RTVSPost2010Prop39
140
1.0
102
RTVSPost2010PropOp39
 70
     0
102
RTVSPost2010Prop40
 90
        0
102
RTVSPost2010PropOp40
 70
     0
102
RTVSPost2010Prop41ColorIndex
 90
       18
102
RTVSPost2010Prop41ColorRGB
 90
        0
102
RTVSPost2010PropOp41
 70
     0
102
RTVSPost2010Prop42
 90
       50
102
RTVSPost2010PropOp42
 70
     0
102
RTVSPost2010Prop43
 90
        3
102
RTVSPost2010PropOp43
 70
     0
102
RTVSPost2010Prop44ColorIndex
 90
        5
102
RTVSPost2010Prop44ColorRGB
 90
      255
102
RTVSPost2010PropOp44
 70
     0
102
RTVSPost2010Prop45
280
     0
102
RTVSPost2010PropOp45
 70
     1
102
RTVSPost2010Prop46
 90
       50
102
RTVSPost2010PropOp46
 70
     0
102
RTVSPost2010Prop47
 90
       50
102
RTVSPost2010PropOp47
 70
     0
102
RTVSPost2010Prop48
 90
       50
102
RTVSPost2010PropOp48
 70
     0
102
RTVSPost2010Prop49
280
     0
102
RTVSPost2010PropOp49
 70
     1
102
RTVSPost2010Prop50
 90
       50
102
RTVSPost2010PropOp50
 70
     0
102
RTVSPost2010Prop51ColorIndex
 90
      256
102
RTVSPost2010Prop51ColorRGB
 90
-16777216
102
RTVSPost2010PropOp51
 70
     0
102
RTVSPost2010Prop52
140
1.0
102
RTVSPost2010PropOp52
 70
     0
102
RTVSPost2010Prop53
 90
        2
102
RTVSPost2010PropOp53
 70
     0
102
RTVSPost2010Prop54
  1
strokes_ogs.tif
102
RTVSPost2010PropOp54
 70
     0
102
RTVSPost2010Prop55
280
     0
102
RTVSPost2010PropOp55
 70
     1
102
RTVSPost2010Prop56
140
1.0
102
RTVSPost2010PropOp56
 70
     0
102
RTVSPost2010Prop57
140
1.0
102
RTVSPost2010PropOp57
 70
     0
102
RTVSPropertyOp0
 70
     0
102
RTVSPropertyOp1
 70
     0
102
RTVSPropertyOp2
 70
     0
102
RTVSPropertyOp3
 70
     0
102
RTVSPropertyOp4
 70
     0
102
RTVSPropertyOp5
 70
     0
102
RTVSPropertyOp6
 70
     0
102
RTVSPropertyOp7
 70
     0
102
RTVSPropertyOp8
 70
     0
102
RTVSPropertyOp9
 70
     0
102
RTVSPropertyOp10
 70
     0
102
RTVSPropertyOp11
 70
     0
102
RTVSPropertyOp12
 70
     0
102
RTVSPropertyOp13
 70
     0
102
RTVSPropertyOp14
 70
     2
102
RTVSPropertyOp15
 70
     0
102
RTVSPropertyOp16
 70
     0
102
RTVSPropertyOp17
 70
     0
102
RTVSPropertyOp18
 70
     0
102
RTVSPropertyOp19
 70
     0
102
RTVSPropertyOp20
 70
     0
102
RTVSPropertyOp21
 70
     0
102
RTVSPropertyOp22
 70
     0
102
RTVSPropertyOp23
 70
     0
102
RTVSPropertyOp24
 70
     0
102
RTVSPropertyOp25
 70
     0
102
RTVSPropertyOp26
 70
     0
102
RTVSPropertyOp27
 70
     0
102
RTVSPropertyOp28
 70
     1
102
RTVSPropertyOp29
 70
     1
102
RTVSPropertyOp30
 70
     1
102
RTVSPropertyOp31
 70
     1
102
RTVSPropertyOp32
 70
     1
102
RTVSPropertyOp33
 70
     1
102
RTVSPropertyOp34
 70
     1
102
RTVSPropertyOp35
 70
     1
102
RTVSPropertyOp36
 70
     1
102
RTVSPropertyOp37
 70
     0
102
RTVSPropertyOp38
 70
     0
102
RTVSPropertyOp39
 70
     0
102
RTVSPropertyOp40
 70
     0
102
RTVSPropertyOp41
 70
     0
102
RTVSPropertyOp42
 70
     0
102
RTVSPropertyOp43
 70
     0
102
RTVSPropertyOp44
 70
     0
102
RTVSPropertyOp45
 70
     1
102
RTVSPropertyOp46
 70
     0
102
RTVSPropertyOp47
 70
     0
102
RTVSPropertyOp48
 70
     0
102
RTVSPropertyOp49
 70
     1
102
RTVSPropertyOp50
 70
     0
102
RTVSPropertyOp51
 70
     0
102
RTVSPropertyOp52
 70
     0
102
RTVSPropertyOp53
 70
     0
102
RTVSPropertyOp54
 70
     0
102
RTVSPropertyOp55
 70
     1
102
RTVSPropertyOp56
 70
     0
102
RTVSPropertyOp57
 70
     0
102
RTVSPropertyOp58
 70
     0
102
RTVSPropertyOp59
 70
     0
102
RTVSPropertyOp60
 70
     0
102
RTVSPropertyOp61
 70
     0
102
RTVSPropertyOp62
 70
     0
  0
XRECORD
  5
453
102
{ACAD_REACTORS
330
452
102
}
330
452
100
AcDbXrecord
280
     1
102
RTVSPost2010Prop28
280
     0
102
RTVSPost2010PropOp28
 70
     1
102
RTVSPost2010Prop29
280
     1
102
RTVSPost2010PropOp29
 70
     1
102
RTVSPost2010Prop30
280
     1
102
RTVSPost2010PropOp30
 70
     1
102
RTVSPost2010Prop31
280
     0
102
RTVSPost2010PropOp31
 70
     1
102
RTVSPost2010Prop32
280
     0
102
RTVSPost2010PropOp32
 70
     1
102
RTVSPost2010Prop33
280
     0
102
RTVSPost2010PropOp33
 70
     1
102
RTVSPost2010Prop34
280
     0
102
RTVSPost2010PropOp34
 70
     1
102
RTVSPost2010Prop35
280
     0
102
RTVSPost2010PropOp35
 70
     1
102
RTVSPost2010Prop36
280
     0
102
RTVSPost2010PropOp36
 70
     1
102
RTVSPost2010Prop37
 90
       50
102
RTVSPost2010PropOp37
 70
     1
102
RTVSPost2010Prop38
140
0.0
102
RTVSPost2010PropOp38
 70
     1
102
RTVSPost2010Prop39
140
1.0
102
RTVSPost2010PropOp39
 70
     1
102
RTVSPost2010Prop40
 90
        0
102
RTVSPost2010PropOp40
 70
     1
102
RTVSPost2010Prop41ColorIndex
 90
       18
102
RTVSPost2010Prop41ColorRGB
 90
        0
102
RTVSPost2010PropOp41
 70
     1
102
RTVSPost2010Prop42
 90
       50
102
RTVSPost2010PropOp42
 70
     1
102
RTVSPost2010Prop43
 90
        3
102
RTVSPost2010PropOp43
 70
     1
102
RTVSPost2010Prop44ColorIndex
 90
        5
102
RTVSPost2010Prop44ColorRGB
 90
      255
102
RTVSPost2010PropOp44
 70
     1
102
RTVSPost2010Prop45
280
     0
102
RTVSPost2010PropOp45
 70
     1
102
RTVSPost2010Prop46
 90
       50
102
RTVSPost2010PropOp46
 70
     1
102
RTVSPost2010Prop47
 90
       50
102
RTVSPost2010PropOp47
 70
     1
102
RTVSPost2010Prop48
 90
       50
102
RTVSPost2010PropOp48
 70
     1
102
RTVSPost2010Prop49
280
     0
102
RTVSPost2010PropOp49
 70
     1
102
RTVSPost2010Prop50
 90
       50
102
RTVSPost2010PropOp50
 70
     1
102
RTVSPost2010Prop51ColorIndex
 90
      256
102
RTVSPost2010Prop51ColorRGB
 90
-16777216
102
RTVSPost2010PropOp51
 70
     0
102
RTVSPost2010Prop52
140
1.0
102
RTVSPost2010PropOp52
 70
     0
102
RTVSPost2010Prop53
 90
        2
102
RTVSPost2010PropOp53
 70
     1
102
RTVSPost2010Prop54
  1
strokes_ogs.tif
102
RTVSPost2010PropOp54
 70
     1
102
RTVSPost2010Prop55
280
     0
102
RTVSPost2010PropOp55
 70
     1
102
RTVSPost2010Prop56
140
1.0
102
RTVSPost2010PropOp56
 70
     1
102
RTVSPost2010Prop57
140
1.0
102
RTVSPost2010PropOp57
 70
     1
102
RTVSPropertyOp0
 70
     1
102
RTVSPropertyOp1
 70
     1
102
RTVSPropertyOp2
 70
     1
102
RTVSPropertyOp3
 70
     1
102
RTVSPropertyOp4
 70
     1
102
RTVSPropertyOp5
 70
     1
102
RTVSPropertyOp6
 70
     1
102
RTVSPropertyOp7
 70
     1
102
RTVSPropertyOp8
 70
     1
102
RTVSPropertyOp9
 70
     1
102
RTVSPropertyOp10
 70
     1
102
RTVSPropertyOp11
 70
     1
102
RTVSPropertyOp12
 70
     1
102
RTVSPropertyOp13
 70
     1
102
RTVSPropertyOp14
 70
     1
102
RTVSPropertyOp15
 70
     1
102
RTVSPropertyOp16
 70
     1
102
RTVSPropertyOp17
 70
     1
102
RTVSPropertyOp18
 70
     1
102
RTVSPropertyOp19
 70
     1
102
RTVSPropertyOp20
 70
     1
102
RTVSPropertyOp21
 70
     1
102
RTVSPropertyOp22
 70
     1
102
RTVSPropertyOp23
 70
     1
102
RTVSPropertyOp24
 70
     1
102
RTVSPropertyOp25
 70
     1
102
RTVSPropertyOp26
 70
     1
102
RTVSPropertyOp27
 70
     1
102
RTVSPropertyOp28
 70
     1
102
RTVSPropertyOp29
 70
     1
102
RTVSPropertyOp30
 70
     1
102
RTVSPropertyOp31
 70
     1
102
RTVSPropertyOp32
 70
     1
102
RTVSPropertyOp33
 70
     1
102
RTVSPropertyOp34
 70
     1
102
RTVSPropertyOp35
 70
     1
102
RTVSPropertyOp36
 70
     1
102
RTVSPropertyOp37
 70
     1
102
RTVSPropertyOp38
 70
     1
102
RTVSPropertyOp39
 70
     1
102
RTVSPropertyOp40
 70
     1
102
RTVSPropertyOp41
 70
     1
102
RTVSPropertyOp42
 70
     1
102
RTVSPropertyOp43
 70
     1
102
RTVSPropertyOp44
 70
     1
102
RTVSPropertyOp45
 70
     1
102
RTVSPropertyOp46
 70
     1
102
RTVSPropertyOp47
 70
     1
102
RTVSPropertyOp48
 70
     1
102
RTVSPropertyOp49
 70
     1
102
RTVSPropertyOp50
 70
     1
102
RTVSPropertyOp51
 70
     0
102
RTVSPropertyOp52
 70
     0
102
RTVSPropertyOp53
 70
     1
102
RTVSPropertyOp54
 70
     1
102
RTVSPropertyOp55
 70
     1
102
RTVSPropertyOp56
 70
     1
102
RTVSPropertyOp57
 70
     1
102
RTVSPropertyOp58
 70
     1
102
RTVSPropertyOp59
 70
     1
102
RTVSPropertyOp60
 70
     1
102
RTVSPropertyOp61
 70
     1
102
RTVSPropertyOp62
 70
     1
  0
XRECORD
  5
437
102
{ACAD_REACTORS
330
436
102
}
330
436
100
AcDbXrecord
280
     1
102
RTVSPost2010Prop28
280
     0
102
RTVSPost2010PropOp28
 70
     1
102
RTVSPost2010Prop29
280
     1
102
RTVSPost2010PropOp29
 70
     1
102
RTVSPost2010Prop30
280
     1
102
RTVSPost2010PropOp30
 70
     1
102
RTVSPost2010Prop31
280
     0
102
RTVSPost2010PropOp31
 70
     1
102
RTVSPost2010Prop32
280
     0
102
RTVSPost2010PropOp32
 70
     1
102
RTVSPost2010Prop33
280
     0
102
RTVSPost2010PropOp33
 70
     1
102
RTVSPost2010Prop34
280
     0
102
RTVSPost2010PropOp34
 70
     1
102
RTVSPost2010Prop35
280
     0
102
RTVSPost2010PropOp35
 70
     1
102
RTVSPost2010Prop36
280
     0
102
RTVSPost2010PropOp36
 70
     1
102
RTVSPost2010Prop37
 90
       50
102
RTVSPost2010PropOp37
 70
     1
102
RTVSPost2010Prop38
140
0.0
102
RTVSPost2010PropOp38
 70
     1
102
RTVSPost2010Prop39
140
1.0
102
RTVSPost2010PropOp39
 70
     1
102
RTVSPost2010Prop40
 90
        0
102
RTVSPost2010PropOp40
 70
     1
102
RTVSPost2010Prop41ColorIndex
 90
       18
102
RTVSPost2010Prop41ColorRGB
 90
        0
102
RTVSPost2010PropOp41
 70
     1
102
RTVSPost2010Prop42
 90
       50
102
RTVSPost2010PropOp42
 70
     1
102
RTVSPost2010Prop43
 90
        3
102
RTVSPost2010PropOp43
 70
     1
102
RTVSPost2010Prop44ColorIndex
 90
        5
102
RTVSPost2010Prop44ColorRGB
 90
      255
102
RTVSPost2010PropOp44
 70
     1
102
RTVSPost2010Prop45
280
     0
102
RTVSPost2010PropOp45
 70
     1
102
RTVSPost2010Prop46
 90
       50
102
RTVSPost2010PropOp46
 70
     1
102
RTVSPost2010Prop47
 90
       50
102
RTVSPost2010PropOp47
 70
     1
102
RTVSPost2010Prop48
 90
       50
102
RTVSPost2010PropOp48
 70
     1
102
RTVSPost2010Prop49
280
     0
102
RTVSPost2010PropOp49
 70
     1
102
RTVSPost2010Prop50
 90
       50
102
RTVSPost2010PropOp50
 70
     1
102
RTVSPost2010Prop51ColorIndex
 90
      256
102
RTVSPost2010Prop51ColorRGB
 90
-16777216
102
RTVSPost2010PropOp51
 70
     0
102
RTVSPost2010Prop52
140
1.0
102
RTVSPost2010PropOp52
 70
     0
102
RTVSPost2010Prop53
 90
        2
102
RTVSPost2010PropOp53
 70
     1
102
RTVSPost2010Prop54
  1
strokes_ogs.tif
102
RTVSPost2010PropOp54
 70
     1
102
RTVSPost2010Prop55
280
     0
102
RTVSPost2010PropOp55
 70
     1
102
RTVSPost2010Prop56
140
1.0
102
RTVSPost2010PropOp56
 70
     1
102
RTVSPost2010Prop57
140
1.0
102
RTVSPost2010PropOp57
 70
     1
102
RTVSPropertyOp0
 70
     1
102
RTVSPropertyOp1
 70
     1
102
RTVSPropertyOp2
 70
     1
102
RTVSPropertyOp3
 70
     1
102
RTVSPropertyOp4
 70
     1
102
RTVSPropertyOp5
 70
     1
102
RTVSPropertyOp6
 70
     1
102
RTVSPropertyOp7
 70
     1
102
RTVSPropertyOp8
 70
     1
102
RTVSPropertyOp9
 70
     1
102
RTVSPropertyOp10
 70
     1
102
RTVSPropertyOp11
 70
     1
102
RTVSPropertyOp12
 70
     1
102
RTVSPropertyOp13
 70
     1
102
RTVSPropertyOp14
 70
     1
102
RTVSPropertyOp15
 70
     1
102
RTVSPropertyOp16
 70
     1
102
RTVSPropertyOp17
 70
     1
102
RTVSPropertyOp18
 70
     1
102
RTVSPropertyOp19
 70
     1
102
RTVSPropertyOp20
 70
     1
102
RTVSPropertyOp21
 70
     1
102
RTVSPropertyOp22
 70
     1
102
RTVSPropertyOp23
 70
     1
102
RTVSPropertyOp24
 70
     1
102
RTVSPropertyOp25
 70
     1
102
RTVSPropertyOp26
 70
     1
102
RTVSPropertyOp27
 70
     1
102
RTVSPropertyOp28
 70
     1
102
RTVSPropertyOp29
 70
     1
102
RTVSPropertyOp30
 70
     1
102
RTVSPropertyOp31
 70
     1
102
RTVSPropertyOp32
 70
     1
102
RTVSPropertyOp33
 70
     1
102
RTVSPropertyOp34
 70
     1
102
RTVSPropertyOp35
 70
     1
102
RTVSPropertyOp36
 70
     1
102
RTVSPropertyOp37
 70
     1
102
RTVSPropertyOp38
 70
     1
102
RTVSPropertyOp39
 70
     1
102
RTVSPropertyOp40
 70
     1
102
RTVSPropertyOp41
 70
     1
102
RTVSPropertyOp42
 70
     1
102
RTVSPropertyOp43
 70
     1
102
RTVSPropertyOp44
 70
     1
102
RTVSPropertyOp45
 70
     1
102
RTVSPropertyOp46
 70
     1
102
RTVSPropertyOp47
 70
     1
102
RTVSPropertyOp48
 70
     1
102
RTVSPropertyOp49
 70
     1
102
RTVSPropertyOp50
 70
     1
102
RTVSPropertyOp51
 70
     0
102
RTVSPropertyOp52
 70
     0
102
RTVSPropertyOp53
 70
     1
102
RTVSPropertyOp54
 70
     1
102
RTVSPropertyOp55
 70
     1
102
RTVSPropertyOp56
 70
     1
102
RTVSPropertyOp57
 70
     1
102
RTVSPropertyOp58
 70
     1
102
RTVSPropertyOp59
 70
     1
102
RTVSPropertyOp60
 70
     1
102
RTVSPropertyOp61
 70
     1
102
RTVSPropertyOp62
 70
     1
  0
XRECORD
  5
439
102
{ACAD_REACTORS
330
438
102
}
330
438
100
AcDbXrecord
280
     1
102
RTVSPost2010Prop28
280
     0
102
RTVSPost2010PropOp28
 70
     1
102
RTVSPost2010Prop29
280
     1
102
RTVSPost2010PropOp29
 70
     1
102
RTVSPost2010Prop30
280
     1
102
RTVSPost2010PropOp30
 70
     1
102
RTVSPost2010Prop31
280
     0
102
RTVSPost2010PropOp31
 70
     1
102
RTVSPost2010Prop32
280
     0
102
RTVSPost2010PropOp32
 70
     1
102
RTVSPost2010Prop33
280
     0
102
RTVSPost2010PropOp33
 70
     1
102
RTVSPost2010Prop34
280
     0
102
RTVSPost2010PropOp34
 70
     1
102
RTVSPost2010Prop35
280
     0
102
RTVSPost2010PropOp35
 70
     1
102
RTVSPost2010Prop36
280
     0
102
RTVSPost2010PropOp36
 70
     1
102
RTVSPost2010Prop37
 90
       50
102
RTVSPost2010PropOp37
 70
     1
102
RTVSPost2010Prop38
140
0.0
102
RTVSPost2010PropOp38
 70
     1
102
RTVSPost2010Prop39
140
1.0
102
RTVSPost2010PropOp39
 70
     1
102
RTVSPost2010Prop40
 90
        0
102
RTVSPost2010PropOp40
 70
     1
102
RTVSPost2010Prop41ColorIndex
 90
       18
102
RTVSPost2010Prop41ColorRGB
 90
        0
102
RTVSPost2010PropOp41
 70
     1
102
RTVSPost2010Prop42
 90
       50
102
RTVSPost2010PropOp42
 70
     1
102
RTVSPost2010Prop43
 90
        3
102
RTVSPost2010PropOp43
 70
     1
102
RTVSPost2010Prop44ColorIndex
 90
        5
102
RTVSPost2010Prop44ColorRGB
 90
      255
102
RTVSPost2010PropOp44
 70
     1
102
RTVSPost2010Prop45
280
     0
102
RTVSPost2010PropOp45
 70
     1
102
RTVSPost2010Prop46
 90
       50
102
RTVSPost2010PropOp46
 70
     1
102
RTVSPost2010Prop47
 90
       50
102
RTVSPost2010PropOp47
 70
     1
102
RTVSPost2010Prop48
 90
       50
102
RTVSPost2010PropOp48
 70
     1
102
RTVSPost2010Prop49
280
     0
102
RTVSPost2010PropOp49
 70
     1
102
RTVSPost2010Prop50
 90
       50
102
RTVSPost2010PropOp50
 70
     1
102
RTVSPost2010Prop51ColorIndex
 90
      256
102
RTVSPost2010Prop51ColorRGB
 90
-16777216
102
RTVSPost2010PropOp51
 70
     0
102
RTVSPost2010Prop52
140
1.0
102
RTVSPost2010PropOp52
 70
     0
102
RTVSPost2010Prop53
 90
        2
102
RTVSPost2010PropOp53
 70
     1
102
RTVSPost2010Prop54
  1
strokes_ogs.tif
102
RTVSPost2010PropOp54
 70
     1
102
RTVSPost2010Prop55
280
     0
102
RTVSPost2010PropOp55
 70
     1
102
RTVSPost2010Prop56
140
1.0
102
RTVSPost2010PropOp56
 70
     1
102
RTVSPost2010Prop57
140
1.0
102
RTVSPost2010PropOp57
 70
     1
102
RTVSPropertyOp0
 70
     1
102
RTVSPropertyOp1
 70
     1
102
RTVSPropertyOp2
 70
     1
102
RTVSPropertyOp3
 70
     1
102
RTVSPropertyOp4
 70
     1
102
RTVSPropertyOp5
 70
     1
102
RTVSPropertyOp6
 70
     1
102
RTVSPropertyOp7
 70
     1
102
RTVSPropertyOp8
 70
     1
102
RTVSPropertyOp9
 70
     1
102
RTVSPropertyOp10
 70
     1
102
RTVSPropertyOp11
 70
     1
102
RTVSPropertyOp12
 70
     1
102
RTVSPropertyOp13
 70
     1
102
RTVSPropertyOp14
 70
     1
102
RTVSPropertyOp15
 70
     1
102
RTVSPropertyOp16
 70
     1
102
RTVSPropertyOp17
 70
     1
102
RTVSPropertyOp18
 70
     1
102
RTVSPropertyOp19
 70
     1
102
RTVSPropertyOp20
 70
     1
102
RTVSPropertyOp21
 70
     1
102
RTVSPropertyOp22
 70
     1
102
RTVSPropertyOp23
 70
     1
102
RTVSPropertyOp24
 70
     1
102
RTVSPropertyOp25
 70
     1
102
RTVSPropertyOp26
 70
     1
102
RTVSPropertyOp27
 70
     1
102
RTVSPropertyOp28
 70
     1
102
RTVSPropertyOp29
 70
     1
102
RTVSPropertyOp30
 70
     1
102
RTVSPropertyOp31
 70
     1
102
RTVSPropertyOp32
 70
     1
102
RTVSPropertyOp33
 70
     1
102
RTVSPropertyOp34
 70
     1
102
RTVSPropertyOp35
 70
     1
102
RTVSPropertyOp36
 70
     1
102
RTVSPropertyOp37
 70
     1
102
RTVSPropertyOp38
 70
     1
102
RTVSPropertyOp39
 70
     1
102
RTVSPropertyOp40
 70
     1
102
RTVSPropertyOp41
 70
     1
102
RTVSPropertyOp42
 70
     1
102
RTVSPropertyOp43
 70
     1
102
RTVSPropertyOp44
 70
     1
102
RTVSPropertyOp45
 70
     1
102
RTVSPropertyOp46
 70
     1
102
RTVSPropertyOp47
 70
     1
102
RTVSPropertyOp48
 70
     1
102
RTVSPropertyOp49
 70
     1
102
RTVSPropertyOp50
 70
     1
102
RTVSPropertyOp51
 70
     0
102
RTVSPropertyOp52
 70
     0
102
RTVSPropertyOp53
 70
     1
102
RTVSPropertyOp54
 70
     1
102
RTVSPropertyOp55
 70
     1
102
RTVSPropertyOp56
 70
     1
102
RTVSPropertyOp57
 70
     1
102
RTVSPropertyOp58
 70
     1
102
RTVSPropertyOp59
 70
     1
102
RTVSPropertyOp60
 70
     1
102
RTVSPropertyOp61
 70
     1
102
RTVSPropertyOp62
 70
     1
  0
XRECORD
  5
43B
102
{ACAD_REACTORS
330
43A
102
}
330
43A
100
AcDbXrecord
280
     1
102
RTVSPost2010Prop28
280
     0
102
RTVSPost2010PropOp28
 70
     1
102
RTVSPost2010Prop29
280
     1
102
RTVSPost2010PropOp29
 70
     1
102
RTVSPost2010Prop30
280
     1
102
RTVSPost2010PropOp30
 70
     1
102
RTVSPost2010Prop31
280
     0
102
RTVSPost2010PropOp31
 70
     1
102
RTVSPost2010Prop32
280
     0
102
RTVSPost2010PropOp32
 70
     1
102
RTVSPost2010Prop33
280
     0
102
RTVSPost2010PropOp33
 70
     1
102
RTVSPost2010Prop34
280
     0
102
RTVSPost2010PropOp34
 70
     1
102
RTVSPost2010Prop35
280
     0
102
RTVSPost2010PropOp35
 70
     1
102
RTVSPost2010Prop36
280
     0
102
RTVSPost2010PropOp36
 70
     1
102
RTVSPost2010Prop37
 90
       50
102
RTVSPost2010PropOp37
 70
     1
102
RTVSPost2010Prop38
140
0.0
102
RTVSPost2010PropOp38
 70
     1
102
RTVSPost2010Prop39
140
1.0
102
RTVSPost2010PropOp39
 70
     1
102
RTVSPost2010Prop40
 90
        0
102
RTVSPost2010PropOp40
 70
     1
102
RTVSPost2010Prop41ColorIndex
 90
       18
102
RTVSPost2010Prop41ColorRGB
 90
        0
102
RTVSPost2010PropOp41
 70
     1
102
RTVSPost2010Prop42
 90
       50
102
RTVSPost2010PropOp42
 70
     1
102
RTVSPost2010Prop43
 90
        3
102
RTVSPost2010PropOp43
 70
     1
102
RTVSPost2010Prop44ColorIndex
 90
        5
102
RTVSPost2010Prop44ColorRGB
 90
      255
102
RTVSPost2010PropOp44
 70
     1
102
RTVSPost2010Prop45
280
     0
102
RTVSPost2010PropOp45
 70
     1
102
RTVSPost2010Prop46
 90
       50
102
RTVSPost2010PropOp46
 70
     1
102
RTVSPost2010Prop47
 90
       50
102
RTVSPost2010PropOp47
 70
     1
102
RTVSPost2010Prop48
 90
       50
102
RTVSPost2010PropOp48
 70
     1
102
RTVSPost2010Prop49
280
     0
102
RTVSPost2010PropOp49
 70
     1
102
RTVSPost2010Prop50
 90
       50
102
RTVSPost2010PropOp50
 70
     1
102
RTVSPost2010Prop51ColorIndex
 90
      256
102
RTVSPost2010Prop51ColorRGB
 90
-16777216
102
RTVSPost2010PropOp51
 70
     0
102
RTVSPost2010Prop52
140
1.0
102
RTVSPost2010PropOp52
 70
     0
102
RTVSPost2010Prop53
 90
        2
102
RTVSPost2010PropOp53
 70
     1
102
RTVSPost2010Prop54
  1
strokes_ogs.tif
102
RTVSPost2010PropOp54
 70
     1
102
RTVSPost2010Prop55
280
     0
102
RTVSPost2010PropOp55
 70
     1
102
RTVSPost2010Prop56
140
1.0
102
RTVSPost2010PropOp56
 70
     1
102
RTVSPost2010Prop57
140
1.0
102
RTVSPost2010PropOp57
 70
     1
102
RTVSPropertyOp0
 70
     1
102
RTVSPropertyOp1
 70
     1
102
RTVSPropertyOp2
 70
     1
102
RTVSPropertyOp3
 70
     1
102
RTVSPropertyOp4
 70
     1
102
RTVSPropertyOp5
 70
     1
102
RTVSPropertyOp6
 70
     1
102
RTVSPropertyOp7
 70
     1
102
RTVSPropertyOp8
 70
     1
102
RTVSPropertyOp9
 70
     1
102
RTVSPropertyOp10
 70
     1
102
RTVSPropertyOp11
 70
     1
102
RTVSPropertyOp12
 70
     1
102
RTVSPropertyOp13
 70
     1
102
RTVSPropertyOp14
 70
     1
102
RTVSPropertyOp15
 70
     1
102
RTVSPropertyOp16
 70
     1
102
RTVSPropertyOp17
 70
     1
102
RTVSPropertyOp18
 70
     1
102
RTVSPropertyOp19
 70
     1
102
RTVSPropertyOp20
 70
     1
102
RTVSPropertyOp21
 70
     1
102
RTVSPropertyOp22
 70
     1
102
RTVSPropertyOp23
 70
     1
102
RTVSPropertyOp24
 70
     1
102
RTVSPropertyOp25
 70
     1
102
RTVSPropertyOp26
 70
     1
102
RTVSPropertyOp27
 70
     1
102
RTVSPropertyOp28
 70
     1
102
RTVSPropertyOp29
 70
     1
102
RTVSPropertyOp30
 70
     1
102
RTVSPropertyOp31
 70
     1
102
RTVSPropertyOp32
 70
     1
102
RTVSPropertyOp33
 70
     1
102
RTVSPropertyOp34
 70
     1
102
RTVSPropertyOp35
 70
     1
102
RTVSPropertyOp36
 70
     1
102
RTVSPropertyOp37
 70
     1
102
RTVSPropertyOp38
 70
     1
102
RTVSPropertyOp39
 70
     1
102
RTVSPropertyOp40
 70
     1
102
RTVSPropertyOp41
 70
     1
102
RTVSPropertyOp42
 70
     1
102
RTVSPropertyOp43
 70
     1
102
RTVSPropertyOp44
 70
     1
102
RTVSPropertyOp45
 70
     1
102
RTVSPropertyOp46
 70
     1
102
RTVSPropertyOp47
 70
     1
102
RTVSPropertyOp48
 70
     1
102
RTVSPropertyOp49
 70
     1
102
RTVSPropertyOp50
 70
     1
102
RTVSPropertyOp51
 70
     0
102
RTVSPropertyOp52
 70
     0
102
RTVSPropertyOp53
 70
     1
102
RTVSPropertyOp54
 70
     1
102
RTVSPropertyOp55
 70
     1
102
RTVSPropertyOp56
 70
     1
102
RTVSPropertyOp57
 70
     1
102
RTVSPropertyOp58
 70
     1
102
RTVSPropertyOp59
 70
     1
102
RTVSPropertyOp60
 70
     1
102
RTVSPropertyOp61
 70
     1
102
RTVSPropertyOp62
 70
     1
  0
XRECORD
  5
43D
102
{ACAD_REACTORS
330
43C
102
}
330
43C
100
AcDbXrecord
280
     1
102
RTVSPost2010Prop28
280
     0
102
RTVSPost2010PropOp28
 70
     1
102
RTVSPost2010Prop29
280
     1
102
RTVSPost2010PropOp29
 70
     1
102
RTVSPost2010Prop30
280
     1
102
RTVSPost2010PropOp30
 70
     1
102
RTVSPost2010Prop31
280
     0
102
RTVSPost2010PropOp31
 70
     1
102
RTVSPost2010Prop32
280
     0
102
RTVSPost2010PropOp32
 70
     1
102
RTVSPost2010Prop33
280
     0
102
RTVSPost2010PropOp33
 70
     1
102
RTVSPost2010Prop34
280
     0
102
RTVSPost2010PropOp34
 70
     1
102
RTVSPost2010Prop35
280
     0
102
RTVSPost2010PropOp35
 70
     1
102
RTVSPost2010Prop36
280
     0
102
RTVSPost2010PropOp36
 70
     1
102
RTVSPost2010Prop37
 90
       50
102
RTVSPost2010PropOp37
 70
     1
102
RTVSPost2010Prop38
140
0.0
102
RTVSPost2010PropOp38
 70
     1
102
RTVSPost2010Prop39
140
1.0
102
RTVSPost2010PropOp39
 70
     1
102
RTVSPost2010Prop40
 90
        0
102
RTVSPost2010PropOp40
 70
     1
102
RTVSPost2010Prop41ColorIndex
 90
       18
102
RTVSPost2010Prop41ColorRGB
 90
        0
102
RTVSPost2010PropOp41
 70
     1
102
RTVSPost2010Prop42
 90
       50
102
RTVSPost2010PropOp42
 70
     1
102
RTVSPost2010Prop43
 90
        3
102
RTVSPost2010PropOp43
 70
     1
102
RTVSPost2010Prop44ColorIndex
 90
        5
102
RTVSPost2010Prop44ColorRGB
 90
      255
102
RTVSPost2010PropOp44
 70
     1
102
RTVSPost2010Prop45
280
     0
102
RTVSPost2010PropOp45
 70
     1
102
RTVSPost2010Prop46
 90
       50
102
RTVSPost2010PropOp46
 70
     1
102
RTVSPost2010Prop47
 90
       50
102
RTVSPost2010PropOp47
 70
     1
102
RTVSPost2010Prop48
 90
       50
102
RTVSPost2010PropOp48
 70
     1
102
RTVSPost2010Prop49
280
     0
102
RTVSPost2010PropOp49
 70
     1
102
RTVSPost2010Prop50
 90
       50
102
RTVSPost2010PropOp50
 70
     1
102
RTVSPost2010Prop51ColorIndex
 90
      256
102
RTVSPost2010Prop51ColorRGB
 90
-16777216
102
RTVSPost2010PropOp51
 70
     0
102
RTVSPost2010Prop52
140
1.0
102
RTVSPost2010PropOp52
 70
     0
102
RTVSPost2010Prop53
 90
        2
102
RTVSPost2010PropOp53
 70
     1
102
RTVSPost2010Prop54
  1
strokes_ogs.tif
102
RTVSPost2010PropOp54
 70
     1
102
RTVSPost2010Prop55
280
     0
102
RTVSPost2010PropOp55
 70
     1
102
RTVSPost2010Prop56
140
1.0
102
RTVSPost2010PropOp56
 70
     1
102
RTVSPost2010Prop57
140
1.0
102
RTVSPost2010PropOp57
 70
     1
102
RTVSPropertyOp0
 70
     1
102
RTVSPropertyOp1
 70
     1
102
RTVSPropertyOp2
 70
     1
102
RTVSPropertyOp3
 70
     1
102
RTVSPropertyOp4
 70
     1
102
RTVSPropertyOp5
 70
     1
102
RTVSPropertyOp6
 70
     1
102
RTVSPropertyOp7
 70
     1
102
RTVSPropertyOp8
 70
     1
102
RTVSPropertyOp9
 70
     1
102
RTVSPropertyOp10
 70
     1
102
RTVSPropertyOp11
 70
     1
102
RTVSPropertyOp12
 70
     1
102
RTVSPropertyOp13
 70
     1
102
RTVSPropertyOp14
 70
     1
102
RTVSPropertyOp15
 70
     1
102
RTVSPropertyOp16
 70
     1
102
RTVSPropertyOp17
 70
     1
102
RTVSPropertyOp18
 70
     1
102
RTVSPropertyOp19
 70
     1
102
RTVSPropertyOp20
 70
     1
102
RTVSPropertyOp21
 70
     1
102
RTVSPropertyOp22
 70
     1
102
RTVSPropertyOp23
 70
     1
102
RTVSPropertyOp24
 70
     1
102
RTVSPropertyOp25
 70
     1
102
RTVSPropertyOp26
 70
     1
102
RTVSPropertyOp27
 70
     1
102
RTVSPropertyOp28
 70
     1
102
RTVSPropertyOp29
 70
     1
102
RTVSPropertyOp30
 70
     1
102
RTVSPropertyOp31
 70
     1
102
RTVSPropertyOp32
 70
     1
102
RTVSPropertyOp33
 70
     1
102
RTVSPropertyOp34
 70
     1
102
RTVSPropertyOp35
 70
     1
102
RTVSPropertyOp36
 70
     1
102
RTVSPropertyOp37
 70
     1
102
RTVSPropertyOp38
 70
     1
102
RTVSPropertyOp39
 70
     1
102
RTVSPropertyOp40
 70
     1
102
RTVSPropertyOp41
 70
     1
102
RTVSPropertyOp42
 70
     1
102
RTVSPropertyOp43
 70
     1
102
RTVSPropertyOp44
 70
     1
102
RTVSPropertyOp45
 70
     1
102
RTVSPropertyOp46
 70
     1
102
RTVSPropertyOp47
 70
     1
102
RTVSPropertyOp48
 70
     1
102
RTVSPropertyOp49
 70
     1
102
RTVSPropertyOp50
 70
     1
102
RTVSPropertyOp51
 70
     0
102
RTVSPropertyOp52
 70
     0
102
RTVSPropertyOp53
 70
     1
102
RTVSPropertyOp54
 70
     1
102
RTVSPropertyOp55
 70
     1
102
RTVSPropertyOp56
 70
     1
102
RTVSPropertyOp57
 70
     1
102
RTVSPropertyOp58
 70
     1
102
RTVSPropertyOp59
 70
     1
102
RTVSPropertyOp60
 70
     1
102
RTVSPropertyOp61
 70
     1
102
RTVSPropertyOp62
 70
     1
  0
XRECORD
  5
445
102
{ACAD_REACTORS
330
444
102
}
330
444
100
AcDbXrecord
280
     1
102
RTVSPost2010Prop28
280
     0
102
RTVSPost2010PropOp28
 70
     1
102
RTVSPost2010Prop29
280
     1
102
RTVSPost2010PropOp29
 70
     1
102
RTVSPost2010Prop30
280
     1
102
RTVSPost2010PropOp30
 70
     1
102
RTVSPost2010Prop31
280
     0
102
RTVSPost2010PropOp31
 70
     1
102
RTVSPost2010Prop32
280
     0
102
RTVSPost2010PropOp32
 70
     1
102
RTVSPost2010Prop33
280
     0
102
RTVSPost2010PropOp33
 70
     1
102
RTVSPost2010Prop34
280
     0
102
RTVSPost2010PropOp34
 70
     1
102
RTVSPost2010Prop35
280
     0
102
RTVSPost2010PropOp35
 70
     1
102
RTVSPost2010Prop36
280
     0
102
RTVSPost2010PropOp36
 70
     1
102
RTVSPost2010Prop37
 90
       50
102
RTVSPost2010PropOp37
 70
     1
102
RTVSPost2010Prop38
140
0.0
102
RTVSPost2010PropOp38
 70
     1
102
RTVSPost2010Prop39
140
1.0
102
RTVSPost2010PropOp39
 70
     1
102
RTVSPost2010Prop40
 90
        0
102
RTVSPost2010PropOp40
 70
     1
102
RTVSPost2010Prop41ColorIndex
 90
       18
102
RTVSPost2010Prop41ColorRGB
 90
        0
102
RTVSPost2010PropOp41
 70
     1
102
RTVSPost2010Prop42
 90
       50
102
RTVSPost2010PropOp42
 70
     1
102
RTVSPost2010Prop43
 90
        3
102
RTVSPost2010PropOp43
 70
     1
102
RTVSPost2010Prop44ColorIndex
 90
        5
102
RTVSPost2010Prop44ColorRGB
 90
      255
102
RTVSPost2010PropOp44
 70
     1
102
RTVSPost2010Prop45
280
     0
102
RTVSPost2010PropOp45
 70
     1
102
RTVSPost2010Prop46
 90
       50
102
RTVSPost2010PropOp46
 70
     1
102
RTVSPost2010Prop47
 90
       50
102
RTVSPost2010PropOp47
 70
     1
102
RTVSPost2010Prop48
 90
       50
102
RTVSPost2010PropOp48
 70
     1
102
RTVSPost2010Prop49
280
     0
102
RTVSPost2010PropOp49
 70
     1
102
RTVSPost2010Prop50
 90
       50
102
RTVSPost2010PropOp50
 70
     1
102
RTVSPost2010Prop51ColorIndex
 90
      256
102
RTVSPost2010Prop51ColorRGB
 90
-16777216
102
RTVSPost2010PropOp51
 70
     0
102
RTVSPost2010Prop52
140
1.0
102
RTVSPost2010PropOp52
 70
     0
102
RTVSPost2010Prop53
 90
        2
102
RTVSPost2010PropOp53
 70
     1
102
RTVSPost2010Prop54
  1
strokes_ogs.tif
102
RTVSPost2010PropOp54
 70
     1
102
RTVSPost2010Prop55
280
     0
102
RTVSPost2010PropOp55
 70
     1
102
RTVSPost2010Prop56
140
1.0
102
RTVSPost2010PropOp56
 70
     1
102
RTVSPost2010Prop57
140
1.0
102
RTVSPost2010PropOp57
 70
     1
102
RTVSPropertyOp0
 70
     1
102
RTVSPropertyOp1
 70
     1
102
RTVSPropertyOp2
 70
     1
102
RTVSPropertyOp3
 70
     1
102
RTVSPropertyOp4
 70
     1
102
RTVSPropertyOp5
 70
     1
102
RTVSPropertyOp6
 70
     1
102
RTVSPropertyOp7
 70
     1
102
RTVSPropertyOp8
 70
     1
102
RTVSPropertyOp9
 70
     1
102
RTVSPropertyOp10
 70
     1
102
RTVSPropertyOp11
 70
     1
102
RTVSPropertyOp12
 70
     1
102
RTVSPropertyOp13
 70
     1
102
RTVSPropertyOp14
 70
     1
102
RTVSPropertyOp15
 70
     1
102
RTVSPropertyOp16
 70
     1
102
RTVSPropertyOp17
 70
     1
102
RTVSPropertyOp18
 70
     1
102
RTVSPropertyOp19
 70
     1
102
RTVSPropertyOp20
 70
     1
102
RTVSPropertyOp21
 70
     1
102
RTVSPropertyOp22
 70
     1
102
RTVSPropertyOp23
 70
     1
102
RTVSPropertyOp24
 70
     1
102
RTVSPropertyOp25
 70
     1
102
RTVSPropertyOp26
 70
     1
102
RTVSPropertyOp27
 70
     1
102
RTVSPropertyOp28
 70
     1
102
RTVSPropertyOp29
 70
     1
102
RTVSPropertyOp30
 70
     1
102
RTVSPropertyOp31
 70
     1
102
RTVSPropertyOp32
 70
     1
102
RTVSPropertyOp33
 70
     1
102
RTVSPropertyOp34
 70
     1
102
RTVSPropertyOp35
 70
     1
102
RTVSPropertyOp36
 70
     1
102
RTVSPropertyOp37
 70
     1
102
RTVSPropertyOp38
 70
     1
102
RTVSPropertyOp39
 70
     1
102
RTVSPropertyOp40
 70
     1
102
RTVSPropertyOp41
 70
     1
102
RTVSPropertyOp42
 70
     1
102
RTVSPropertyOp43
 70
     1
102
RTVSPropertyOp44
 70
     1
102
RTVSPropertyOp45
 70
     1
102
RTVSPropertyOp46
 70
     1
102
RTVSPropertyOp47
 70
     1
102
RTVSPropertyOp48
 70
     1
102
RTVSPropertyOp49
 70
     1
102
RTVSPropertyOp50
 70
     1
102
RTVSPropertyOp51
 70
     0
102
RTVSPropertyOp52
 70
     0
102
RTVSPropertyOp53
 70
     1
102
RTVSPropertyOp54
 70
     1
102
RTVSPropertyOp55
 70
     1
102
RTVSPropertyOp56
 70
     1
102
RTVSPropertyOp57
 70
     1
102
RTVSPropertyOp58
 70
     1
102
RTVSPropertyOp59
 70
     1
102
RTVSPropertyOp60
 70
     1
102
RTVSPropertyOp61
 70
     1
102
RTVSPropertyOp62
 70
     1
  0
XRECORD
  5
461
102
{ACAD_REACTORS
330
460
102
}
330
460
100
AcDbXrecord
280
     1
102
RTVSPost2010Prop28
280
     0
102
RTVSPost2010PropOp28
 70
     1
102
RTVSPost2010Prop29
280
     1
102
RTVSPost2010PropOp29
 70
     1
102
RTVSPost2010Prop30
280
     1
102
RTVSPost2010PropOp30
 70
     1
102
RTVSPost2010Prop31
280
     0
102
RTVSPost2010PropOp31
 70
     1
102
RTVSPost2010Prop32
280
     0
102
RTVSPost2010PropOp32
 70
     1
102
RTVSPost2010Prop33
280
     0
102
RTVSPost2010PropOp33
 70
     1
102
RTVSPost2010Prop34
280
     0
102
RTVSPost2010PropOp34
 70
     1
102
RTVSPost2010Prop35
280
     0
102
RTVSPost2010PropOp35
 70
     1
102
RTVSPost2010Prop36
280
     0
102
RTVSPost2010PropOp36
 70
     1
102
RTVSPost2010Prop37
 90
       50
102
RTVSPost2010PropOp37
 70
     0
102
RTVSPost2010Prop38
140
0.0
102
RTVSPost2010PropOp38
 70
     0
102
RTVSPost2010Prop39
140
1.0
102
RTVSPost2010PropOp39
 70
     0
102
RTVSPost2010Prop40
 90
        0
102
RTVSPost2010PropOp40
 70
     0
102
RTVSPost2010Prop41ColorIndex
 90
       18
102
RTVSPost2010Prop41ColorRGB
 90
        0
102
RTVSPost2010PropOp41
 70
     0
102
RTVSPost2010Prop42
 90
       50
102
RTVSPost2010PropOp42
 70
     0
102
RTVSPost2010Prop43
 90
        3
102
RTVSPost2010PropOp43
 70
     0
102
RTVSPost2010Prop44ColorIndex
 90
        5
102
RTVSPost2010Prop44ColorRGB
 90
      255
102
RTVSPost2010PropOp44
 70
     0
102
RTVSPost2010Prop45
280
     0
102
RTVSPost2010PropOp45
 70
     1
102
RTVSPost2010Prop46
 90
       50
102
RTVSPost2010PropOp46
 70
     0
102
RTVSPost2010Prop47
 90
       50
102
RTVSPost2010PropOp47
 70
     0
102
RTVSPost2010Prop48
 90
       50
102
RTVSPost2010PropOp48
 70
     0
102
RTVSPost2010Prop49
280
     0
102
RTVSPost2010PropOp49
 70
     1
102
RTVSPost2010Prop50
 90
       50
102
RTVSPost2010PropOp50
 70
     0
102
RTVSPost2010Prop51ColorIndex
 90
      256
102
RTVSPost2010Prop51ColorRGB
 90
-16777216
102
RTVSPost2010PropOp51
 70
     0
102
RTVSPost2010Prop52
140
1.0
102
RTVSPost2010PropOp52
 70
     0
102
RTVSPost2010Prop53
 90
        2
102
RTVSPost2010PropOp53
 70
     0
102
RTVSPost2010Prop54
  1
strokes_ogs.tif
102
RTVSPost2010PropOp54
 70
     0
102
RTVSPost2010Prop55
280
     0
102
RTVSPost2010PropOp55
 70
     1
102
RTVSPost2010Prop56
140
1.0
102
RTVSPost2010PropOp56
 70
     0
102
RTVSPost2010Prop57
140
1.0
102
RTVSPost2010PropOp57
 70
     0
102
RTVSPropertyOp0
 70
     0
102
RTVSPropertyOp1
 70
     0
102
RTVSPropertyOp2
 70
     0
102
RTVSPropertyOp3
 70
     0
102
RTVSPropertyOp4
 70
     0
102
RTVSPropertyOp5
 70
     0
102
RTVSPropertyOp6
 70
     0
102
RTVSPropertyOp7
 70
     0
102
RTVSPropertyOp8
 70
     0
102
RTVSPropertyOp9
 70
     0
102
RTVSPropertyOp10
 70
     0
102
RTVSPropertyOp11
 70
     0
102
RTVSPropertyOp12
 70
     0
102
RTVSPropertyOp13
 70
     0
102
RTVSPropertyOp14
 70
     2
102
RTVSPropertyOp15
 70
     0
102
RTVSPropertyOp16
 70
     0
102
RTVSPropertyOp17
 70
     0
102
RTVSPropertyOp18
 70
     0
102
RTVSPropertyOp19
 70
     0
102
RTVSPropertyOp20
 70
     0
102
RTVSPropertyOp21
 70
     0
102
RTVSPropertyOp22
 70
     0
102
RTVSPropertyOp23
 70
     0
102
RTVSPropertyOp24
 70
     0
102
RTVSPropertyOp25
 70
     0
102
RTVSPropertyOp26
 70
     0
102
RTVSPropertyOp27
 70
     0
102
RTVSPropertyOp28
 70
     1
102
RTVSPropertyOp29
 70
     1
102
RTVSPropertyOp30
 70
     1
102
RTVSPropertyOp31
 70
     1
102
RTVSPropertyOp32
 70
     1
102
RTVSPropertyOp33
 70
     1
102
RTVSPropertyOp34
 70
     1
102
RTVSPropertyOp35
 70
     1
102
RTVSPropertyOp36
 70
     1
102
RTVSPropertyOp37
 70
     0
102
RTVSPropertyOp38
 70
     0
102
RTVSPropertyOp39
 70
     0
102
RTVSPropertyOp40
 70
     0
102
RTVSPropertyOp41
 70
     0
102
RTVSPropertyOp42
 70
     0
102
RTVSPropertyOp43
 70
     0
102
RTVSPropertyOp44
 70
     0
102
RTVSPropertyOp45
 70
     1
102
RTVSPropertyOp46
 70
     0
102
RTVSPropertyOp47
 70
     0
102
RTVSPropertyOp48
 70
     0
102
RTVSPropertyOp49
 70
     1
102
RTVSPropertyOp50
 70
     0
102
RTVSPropertyOp51
 70
     0
102
RTVSPropertyOp52
 70
     0
102
RTVSPropertyOp53
 70
     0
102
RTVSPropertyOp54
 70
     0
102
RTVSPropertyOp55
 70
     1
102
RTVSPropertyOp56
 70
     0
102
RTVSPropertyOp57
 70
     0
102
RTVSPropertyOp58
 70
     0
102
RTVSPropertyOp59
 70
     0
102
RTVSPropertyOp60
 70
     0
102
RTVSPropertyOp61
 70
     0
102
RTVSPropertyOp62
 70
     0
  0
XRECORD
  5
451
102
{ACAD_REACTORS
330
450
102
}
330
450
100
AcDbXrecord
280
     1
102
RTVSPost2010Prop28
280
     0
102
RTVSPost2010PropOp28
 70
     1
102
RTVSPost2010Prop29
280
     1
102
RTVSPost2010PropOp29
 70
     1
102
RTVSPost2010Prop30
280
     1
102
RTVSPost2010PropOp30
 70
     1
102
RTVSPost2010Prop31
280
     0
102
RTVSPost2010PropOp31
 70
     1
102
RTVSPost2010Prop32
280
     0
102
RTVSPost2010PropOp32
 70
     1
102
RTVSPost2010Prop33
280
     0
102
RTVSPost2010PropOp33
 70
     1
102
RTVSPost2010Prop34
280
     0
102
RTVSPost2010PropOp34
 70
     1
102
RTVSPost2010Prop35
280
     0
102
RTVSPost2010PropOp35
 70
     1
102
RTVSPost2010Prop36
280
     0
102
RTVSPost2010PropOp36
 70
     1
102
RTVSPost2010Prop37
 90
       50
102
RTVSPost2010PropOp37
 70
     1
102
RTVSPost2010Prop38
140
0.0
102
RTVSPost2010PropOp38
 70
     1
102
RTVSPost2010Prop39
140
1.0
102
RTVSPost2010PropOp39
 70
     1
102
RTVSPost2010Prop40
 90
        0
102
RTVSPost2010PropOp40
 70
     1
102
RTVSPost2010Prop41ColorIndex
 90
       18
102
RTVSPost2010Prop41ColorRGB
 90
        0
102
RTVSPost2010PropOp41
 70
     1
102
RTVSPost2010Prop42
 90
       50
102
RTVSPost2010PropOp42
 70
     1
102
RTVSPost2010Prop43
 90
        3
102
RTVSPost2010PropOp43
 70
     1
102
RTVSPost2010Prop44ColorIndex
 90
        5
102
RTVSPost2010Prop44ColorRGB
 90
      255
102
RTVSPost2010PropOp44
 70
     1
102
RTVSPost2010Prop45
280
     0
102
RTVSPost2010PropOp45
 70
     1
102
RTVSPost2010Prop46
 90
       50
102
RTVSPost2010PropOp46
 70
     1
102
RTVSPost2010Prop47
 90
       50
102
RTVSPost2010PropOp47
 70
     1
102
RTVSPost2010Prop48
 90
       50
102
RTVSPost2010PropOp48
 70
     1
102
RTVSPost2010Prop49
280
     0
102
RTVSPost2010PropOp49
 70
     1
102
RTVSPost2010Prop50
 90
       50
102
RTVSPost2010PropOp50
 70
     1
102
RTVSPost2010Prop51ColorIndex
 90
      256
102
RTVSPost2010Prop51ColorRGB
 90
-16777216
102
RTVSPost2010PropOp51
 70
     0
102
RTVSPost2010Prop52
140
1.0
102
RTVSPost2010PropOp52
 70
     0
102
RTVSPost2010Prop53
 90
        2
102
RTVSPost2010PropOp53
 70
     1
102
RTVSPost2010Prop54
  1
strokes_ogs.tif
102
RTVSPost2010PropOp54
 70
     1
102
RTVSPost2010Prop55
280
     0
102
RTVSPost2010PropOp55
 70
     1
102
RTVSPost2010Prop56
140
1.0
102
RTVSPost2010PropOp56
 70
     1
102
RTVSPost2010Prop57
140
1.0
102
RTVSPost2010PropOp57
 70
     1
102
RTVSPropertyOp0
 70
     1
102
RTVSPropertyOp1
 70
     1
102
RTVSPropertyOp2
 70
     1
102
RTVSPropertyOp3
 70
     1
102
RTVSPropertyOp4
 70
     1
102
RTVSPropertyOp5
 70
     1
102
RTVSPropertyOp6
 70
     1
102
RTVSPropertyOp7
 70
     1
102
RTVSPropertyOp8
 70
     1
102
RTVSPropertyOp9
 70
     1
102
RTVSPropertyOp10
 70
     1
102
RTVSPropertyOp11
 70
     1
102
RTVSPropertyOp12
 70
     1
102
RTVSPropertyOp13
 70
     1
102
RTVSPropertyOp14
 70
     1
102
RTVSPropertyOp15
 70
     1
102
RTVSPropertyOp16
 70
     1
102
RTVSPropertyOp17
 70
     1
102
RTVSPropertyOp18
 70
     1
102
RTVSPropertyOp19
 70
     1
102
RTVSPropertyOp20
 70
     1
102
RTVSPropertyOp21
 70
     1
102
RTVSPropertyOp22
 70
     1
102
RTVSPropertyOp23
 70
     1
102
RTVSPropertyOp24
 70
     1
102
RTVSPropertyOp25
 70
     1
102
RTVSPropertyOp26
 70
     1
102
RTVSPropertyOp27
 70
     1
102
RTVSPropertyOp28
 70
     1
102
RTVSPropertyOp29
 70
     1
102
RTVSPropertyOp30
 70
     1
102
RTVSPropertyOp31
 70
     1
102
RTVSPropertyOp32
 70
     1
102
RTVSPropertyOp33
 70
     1
102
RTVSPropertyOp34
 70
     1
102
RTVSPropertyOp35
 70
     1
102
RTVSPropertyOp36
 70
     1
102
RTVSPropertyOp37
 70
     1
102
RTVSPropertyOp38
 70
     1
102
RTVSPropertyOp39
 70
     1
102
RTVSPropertyOp40
 70
     1
102
RTVSPropertyOp41
 70
     1
102
RTVSPropertyOp42
 70
     1
102
RTVSPropertyOp43
 70
     1
102
RTVSPropertyOp44
 70
     1
102
RTVSPropertyOp45
 70
     1
102
RTVSPropertyOp46
 70
     1
102
RTVSPropertyOp47
 70
     1
102
RTVSPropertyOp48
 70
     1
102
RTVSPropertyOp49
 70
     1
102
RTVSPropertyOp50
 70
     1
102
RTVSPropertyOp51
 70
     0
102
RTVSPropertyOp52
 70
     0
102
RTVSPropertyOp53
 70
     1
102
RTVSPropertyOp54
 70
     1
102
RTVSPropertyOp55
 70
     1
102
RTVSPropertyOp56
 70
     1
102
RTVSPropertyOp57
 70
     1
102
RTVSPropertyOp58
 70
     1
102
RTVSPropertyOp59
 70
     1
102
RTVSPropertyOp60
 70
     1
102
RTVSPropertyOp61
 70
     1
102
RTVSPropertyOp62
 70
     1
  0
XRECORD
  5
463
102
{ACAD_REACTORS
330
462
102
}
330
462
100
AcDbXrecord
280
     1
102
RTVSPost2010Prop28
280
     0
102
RTVSPost2010PropOp28
 70
     1
102
RTVSPost2010Prop29
280
     1
102
RTVSPost2010PropOp29
 70
     1
102
RTVSPost2010Prop30
280
     1
102
RTVSPost2010PropOp30
 70
     1
102
RTVSPost2010Prop31
280
     0
102
RTVSPost2010PropOp31
 70
     1
102
RTVSPost2010Prop32
280
     0
102
RTVSPost2010PropOp32
 70
     1
102
RTVSPost2010Prop33
280
     0
102
RTVSPost2010PropOp33
 70
     1
102
RTVSPost2010Prop34
280
     0
102
RTVSPost2010PropOp34
 70
     1
102
RTVSPost2010Prop35
280
     0
102
RTVSPost2010PropOp35
 70
     1
102
RTVSPost2010Prop36
280
     0
102
RTVSPost2010PropOp36
 70
     1
102
RTVSPost2010Prop37
 90
       50
102
RTVSPost2010PropOp37
 70
     0
102
RTVSPost2010Prop38
140
0.0
102
RTVSPost2010PropOp38
 70
     0
102
RTVSPost2010Prop39
140
1.0
102
RTVSPost2010PropOp39
 70
     0
102
RTVSPost2010Prop40
 90
        0
102
RTVSPost2010PropOp40
 70
     0
102
RTVSPost2010Prop41ColorIndex
 90
       18
102
RTVSPost2010Prop41ColorRGB
 90
        0
102
RTVSPost2010PropOp41
 70
     0
102
RTVSPost2010Prop42
 90
       50
102
RTVSPost2010PropOp42
 70
     0
102
RTVSPost2010Prop43
 90
        3
102
RTVSPost2010PropOp43
 70
     0
102
RTVSPost2010Prop44ColorIndex
 90
        5
102
RTVSPost2010Prop44ColorRGB
 90
      255
102
RTVSPost2010PropOp44
 70
     0
102
RTVSPost2010Prop45
280
     0
102
RTVSPost2010PropOp45
 70
     1
102
RTVSPost2010Prop46
 90
       50
102
RTVSPost2010PropOp46
 70
     0
102
RTVSPost2010Prop47
 90
       50
102
RTVSPost2010PropOp47
 70
     0
102
RTVSPost2010Prop48
 90
       50
102
RTVSPost2010PropOp48
 70
     0
102
RTVSPost2010Prop49
280
     0
102
RTVSPost2010PropOp49
 70
     1
102
RTVSPost2010Prop50
 90
       50
102
RTVSPost2010PropOp50
 70
     0
102
RTVSPost2010Prop51ColorIndex
 90
      256
102
RTVSPost2010Prop51ColorRGB
 90
-16777216
102
RTVSPost2010PropOp51
 70
     0
102
RTVSPost2010Prop52
140
1.0
102
RTVSPost2010PropOp52
 70
     0
102
RTVSPost2010Prop53
 90
        2
102
RTVSPost2010PropOp53
 70
     0
102
RTVSPost2010Prop54
  1
strokes_ogs.tif
102
RTVSPost2010PropOp54
 70
     0
102
RTVSPost2010Prop55
280
     0
102
RTVSPost2010PropOp55
 70
     1
102
RTVSPost2010Prop56
140
1.0
102
RTVSPost2010PropOp56
 70
     0
102
RTVSPost2010Prop57
140
1.0
102
RTVSPost2010PropOp57
 70
     0
102
RTVSPropertyOp0
 70
     0
102
RTVSPropertyOp1
 70
     0
102
RTVSPropertyOp2
 70
     0
102
RTVSPropertyOp3
 70
     0
102
RTVSPropertyOp4
 70
     0
102
RTVSPropertyOp5
 70
     0
102
RTVSPropertyOp6
 70
     0
102
RTVSPropertyOp7
 70
     0
102
RTVSPropertyOp8
 70
     0
102
RTVSPropertyOp9
 70
     0
102
RTVSPropertyOp10
 70
     0
102
RTVSPropertyOp11
 70
     0
102
RTVSPropertyOp12
 70
     0
102
RTVSPropertyOp13
 70
     0
102
RTVSPropertyOp14
 70
     2
102
RTVSPropertyOp15
 70
     0
102
RTVSPropertyOp16
 70
     0
102
RTVSPropertyOp17
 70
     0
102
RTVSPropertyOp18
 70
     0
102
RTVSPropertyOp19
 70
     0
102
RTVSPropertyOp20
 70
     0
102
RTVSPropertyOp21
 70
     0
102
RTVSPropertyOp22
 70
     0
102
RTVSPropertyOp23
 70
     0
102
RTVSPropertyOp24
 70
     0
102
RTVSPropertyOp25
 70
     0
102
RTVSPropertyOp26
 70
     0
102
RTVSPropertyOp27
 70
     0
102
RTVSPropertyOp28
 70
     1
102
RTVSPropertyOp29
 70
     1
102
RTVSPropertyOp30
 70
     1
102
RTVSPropertyOp31
 70
     1
102
RTVSPropertyOp32
 70
     1
102
RTVSPropertyOp33
 70
     1
102
RTVSPropertyOp34
 70
     1
102
RTVSPropertyOp35
 70
     1
102
RTVSPropertyOp36
 70
     1
102
RTVSPropertyOp37
 70
     0
102
RTVSPropertyOp38
 70
     0
102
RTVSPropertyOp39
 70
     0
102
RTVSPropertyOp40
 70
     0
102
RTVSPropertyOp41
 70
     0
102
RTVSPropertyOp42
 70
     0
102
RTVSPropertyOp43
 70
     0
102
RTVSPropertyOp44
 70
     0
102
RTVSPropertyOp45
 70
     1
102
RTVSPropertyOp46
 70
     0
102
RTVSPropertyOp47
 70
     0
102
RTVSPropertyOp48
 70
     0
102
RTVSPropertyOp49
 70
     1
102
RTVSPropertyOp50
 70
     0
102
RTVSPropertyOp51
 70
     0
102
RTVSPropertyOp52
 70
     0
102
RTVSPropertyOp53
 70
     0
102
RTVSPropertyOp54
 70
     0
102
RTVSPropertyOp55
 70
     1
102
RTVSPropertyOp56
 70
     0
102
RTVSPropertyOp57
 70
     0
102
RTVSPropertyOp58
 70
     0
102
RTVSPropertyOp59
 70
     0
102
RTVSPropertyOp60
 70
     0
102
RTVSPropertyOp61
 70
     0
102
RTVSPropertyOp62
 70
     0
  0
XRECORD
  5
449
102
{ACAD_REACTORS
330
448
102
}
330
448
100
AcDbXrecord
280
     1
102
RTVSPost2010Prop28
280
     0
102
RTVSPost2010PropOp28
 70
     1
102
RTVSPost2010Prop29
280
     1
102
RTVSPost2010PropOp29
 70
     1
102
RTVSPost2010Prop30
280
     1
102
RTVSPost2010PropOp30
 70
     1
102
RTVSPost2010Prop31
280
     0
102
RTVSPost2010PropOp31
 70
     1
102
RTVSPost2010Prop32
280
     0
102
RTVSPost2010PropOp32
 70
     1
102
RTVSPost2010Prop33
280
     0
102
RTVSPost2010PropOp33
 70
     1
102
RTVSPost2010Prop34
280
     0
102
RTVSPost2010PropOp34
 70
     1
102
RTVSPost2010Prop35
280
     0
102
RTVSPost2010PropOp35
 70
     1
102
RTVSPost2010Prop36
280
     0
102
RTVSPost2010PropOp36
 70
     1
102
RTVSPost2010Prop37
 90
       50
102
RTVSPost2010PropOp37
 70
     1
102
RTVSPost2010Prop38
140
0.0
102
RTVSPost2010PropOp38
 70
     1
102
RTVSPost2010Prop39
140
1.0
102
RTVSPost2010PropOp39
 70
     1
102
RTVSPost2010Prop40
 90
        0
102
RTVSPost2010PropOp40
 70
     1
102
RTVSPost2010Prop41ColorIndex
 90
       18
102
RTVSPost2010Prop41ColorRGB
 90
        0
102
RTVSPost2010PropOp41
 70
     1
102
RTVSPost2010Prop42
 90
       50
102
RTVSPost2010PropOp42
 70
     1
102
RTVSPost2010Prop43
 90
        3
102
RTVSPost2010PropOp43
 70
     1
102
RTVSPost2010Prop44ColorIndex
 90
        5
102
RTVSPost2010Prop44ColorRGB
 90
      255
102
RTVSPost2010PropOp44
 70
     1
102
RTVSPost2010Prop45
280
     0
102
RTVSPost2010PropOp45
 70
     1
102
RTVSPost2010Prop46
 90
       50
102
RTVSPost2010PropOp46
 70
     1
102
RTVSPost2010Prop47
 90
       50
102
RTVSPost2010PropOp47
 70
     1
102
RTVSPost2010Prop48
 90
       50
102
RTVSPost2010PropOp48
 70
     1
102
RTVSPost2010Prop49
280
     0
102
RTVSPost2010PropOp49
 70
     1
102
RTVSPost2010Prop50
 90
       50
102
RTVSPost2010PropOp50
 70
     1
102
RTVSPost2010Prop51ColorIndex
 90
      256
102
RTVSPost2010Prop51ColorRGB
 90
-16777216
102
RTVSPost2010PropOp51
 70
     0
102
RTVSPost2010Prop52
140
1.0
102
RTVSPost2010PropOp52
 70
     0
102
RTVSPost2010Prop53
 90
        2
102
RTVSPost2010PropOp53
 70
     1
102
RTVSPost2010Prop54
  1
strokes_ogs.tif
102
RTVSPost2010PropOp54
 70
     1
102
RTVSPost2010Prop55
280
     0
102
RTVSPost2010PropOp55
 70
     1
102
RTVSPost2010Prop56
140
1.0
102
RTVSPost2010PropOp56
 70
     1
102
RTVSPost2010Prop57
140
1.0
102
RTVSPost2010PropOp57
 70
     1
102
RTVSPropertyOp0
 70
     1
102
RTVSPropertyOp1
 70
     1
102
RTVSPropertyOp2
 70
     1
102
RTVSPropertyOp3
 70
     1
102
RTVSPropertyOp4
 70
     1
102
RTVSPropertyOp5
 70
     1
102
RTVSPropertyOp6
 70
     1
102
RTVSPropertyOp7
 70
     1
102
RTVSPropertyOp8
 70
     1
102
RTVSPropertyOp9
 70
     1
102
RTVSPropertyOp10
 70
     1
102
RTVSPropertyOp11
 70
     1
102
RTVSPropertyOp12
 70
     1
102
RTVSPropertyOp13
 70
     1
102
RTVSPropertyOp14
 70
     1
102
RTVSPropertyOp15
 70
     1
102
RTVSPropertyOp16
 70
     1
102
RTVSPropertyOp17
 70
     1
102
RTVSPropertyOp18
 70
     1
102
RTVSPropertyOp19
 70
     1
102
RTVSPropertyOp20
 70
     1
102
RTVSPropertyOp21
 70
     1
102
RTVSPropertyOp22
 70
     1
102
RTVSPropertyOp23
 70
     1
102
RTVSPropertyOp24
 70
     1
102
RTVSPropertyOp25
 70
     1
102
RTVSPropertyOp26
 70
     1
102
RTVSPropertyOp27
 70
     1
102
RTVSPropertyOp28
 70
     1
102
RTVSPropertyOp29
 70
     1
102
RTVSPropertyOp30
 70
     1
102
RTVSPropertyOp31
 70
     1
102
RTVSPropertyOp32
 70
     1
102
RTVSPropertyOp33
 70
     1
102
RTVSPropertyOp34
 70
     1
102
RTVSPropertyOp35
 70
     1
102
RTVSPropertyOp36
 70
     1
102
RTVSPropertyOp37
 70
     1
102
RTVSPropertyOp38
 70
     1
102
RTVSPropertyOp39
 70
     1
102
RTVSPropertyOp40
 70
     1
102
RTVSPropertyOp41
 70
     1
102
RTVSPropertyOp42
 70
     1
102
RTVSPropertyOp43
 70
     1
102
RTVSPropertyOp44
 70
     1
102
RTVSPropertyOp45
 70
     1
102
RTVSPropertyOp46
 70
     1
102
RTVSPropertyOp47
 70
     1
102
RTVSPropertyOp48
 70
     1
102
RTVSPropertyOp49
 70
     1
102
RTVSPropertyOp50
 70
     1
102
RTVSPropertyOp51
 70
     0
102
RTVSPropertyOp52
 70
     0
102
RTVSPropertyOp53
 70
     1
102
RTVSPropertyOp54
 70
     1
102
RTVSPropertyOp55
 70
     1
102
RTVSPropertyOp56
 70
     1
102
RTVSPropertyOp57
 70
     1
102
RTVSPropertyOp58
 70
     1
102
RTVSPropertyOp59
 70
     1
102
RTVSPropertyOp60
 70
     1
102
RTVSPropertyOp61
 70
     1
102
RTVSPropertyOp62
 70
     1
  0
XRECORD
  5
45F
102
{ACAD_REACTORS
330
45E
102
}
330
45E
100
AcDbXrecord
280
     1
102
RTVSPost2010Prop28
280
     0
102
RTVSPost2010PropOp28
 70
     1
102
RTVSPost2010Prop29
280
     1
102
RTVSPost2010PropOp29
 70
     1
102
RTVSPost2010Prop30
280
     1
102
RTVSPost2010PropOp30
 70
     1
102
RTVSPost2010Prop31
280
     0
102
RTVSPost2010PropOp31
 70
     1
102
RTVSPost2010Prop32
280
     0
102
RTVSPost2010PropOp32
 70
     1
102
RTVSPost2010Prop33
280
     0
102
RTVSPost2010PropOp33
 70
     1
102
RTVSPost2010Prop34
280
     0
102
RTVSPost2010PropOp34
 70
     1
102
RTVSPost2010Prop35
280
     0
102
RTVSPost2010PropOp35
 70
     1
102
RTVSPost2010Prop36
280
     0
102
RTVSPost2010PropOp36
 70
     1
102
RTVSPost2010Prop37
 90
       50
102
RTVSPost2010PropOp37
 70
     1
102
RTVSPost2010Prop38
140
0.0
102
RTVSPost2010PropOp38
 70
     1
102
RTVSPost2010Prop39
140
1.0
102
RTVSPost2010PropOp39
 70
     1
102
RTVSPost2010Prop40
 90
        0
102
RTVSPost2010PropOp40
 70
     1
102
RTVSPost2010Prop41ColorIndex
 90
       18
102
RTVSPost2010Prop41ColorRGB
 90
        0
102
RTVSPost2010PropOp41
 70
     1
102
RTVSPost2010Prop42
 90
       50
102
RTVSPost2010PropOp42
 70
     1
102
RTVSPost2010Prop43
 90
        3
102
RTVSPost2010PropOp43
 70
     1
102
RTVSPost2010Prop44ColorIndex
 90
        5
102
RTVSPost2010Prop44ColorRGB
 90
      255
102
RTVSPost2010PropOp44
 70
     1
102
RTVSPost2010Prop45
280
     0
102
RTVSPost2010PropOp45
 70
     1
102
RTVSPost2010Prop46
 90
       50
102
RTVSPost2010PropOp46
 70
     1
102
RTVSPost2010Prop47
 90
       50
102
RTVSPost2010PropOp47
 70
     1
102
RTVSPost2010Prop48
 90
       50
102
RTVSPost2010PropOp48
 70
     1
102
RTVSPost2010Prop49
280
     0
102
RTVSPost2010PropOp49
 70
     1
102
RTVSPost2010Prop50
 90
       50
102
RTVSPost2010PropOp50
 70
     1
102
RTVSPost2010Prop51ColorIndex
 90
      256
102
RTVSPost2010Prop51ColorRGB
 90
-16777216
102
RTVSPost2010PropOp51
 70
     0
102
RTVSPost2010Prop52
140
1.0
102
RTVSPost2010PropOp52
 70
     0
102
RTVSPost2010Prop53
 90
        2
102
RTVSPost2010PropOp53
 70
     1
102
RTVSPost2010Prop54
  1
strokes_ogs.tif
102
RTVSPost2010PropOp54
 70
     1
102
RTVSPost2010Prop55
280
     0
102
RTVSPost2010PropOp55
 70
     1
102
RTVSPost2010Prop56
140
1.0
102
RTVSPost2010PropOp56
 70
     1
102
RTVSPost2010Prop57
140
1.0
102
RTVSPost2010PropOp57
 70
     1
102
RTVSPropertyOp0
 70
     1
102
RTVSPropertyOp1
 70
     1
102
RTVSPropertyOp2
 70
     1
102
RTVSPropertyOp3
 70
     1
102
RTVSPropertyOp4
 70
     1
102
RTVSPropertyOp5
 70
     1
102
RTVSPropertyOp6
 70
     1
102
RTVSPropertyOp7
 70
     1
102
RTVSPropertyOp8
 70
     1
102
RTVSPropertyOp9
 70
     1
102
RTVSPropertyOp10
 70
     1
102
RTVSPropertyOp11
 70
     1
102
RTVSPropertyOp12
 70
     1
102
RTVSPropertyOp13
 70
     1
102
RTVSPropertyOp14
 70
     1
102
RTVSPropertyOp15
 70
     1
102
RTVSPropertyOp16
 70
     1
102
RTVSPropertyOp17
 70
     1
102
RTVSPropertyOp18
 70
     1
102
RTVSPropertyOp19
 70
     1
102
RTVSPropertyOp20
 70
     1
102
RTVSPropertyOp21
 70
     1
102
RTVSPropertyOp22
 70
     1
102
RTVSPropertyOp23
 70
     1
102
RTVSPropertyOp24
 70
     1
102
RTVSPropertyOp25
 70
     1
102
RTVSPropertyOp26
 70
     1
102
RTVSPropertyOp27
 70
     1
102
RTVSPropertyOp28
 70
     1
102
RTVSPropertyOp29
 70
     1
102
RTVSPropertyOp30
 70
     1
102
RTVSPropertyOp31
 70
     1
102
RTVSPropertyOp32
 70
     1
102
RTVSPropertyOp33
 70
     1
102
RTVSPropertyOp34
 70
     1
102
RTVSPropertyOp35
 70
     1
102
RTVSPropertyOp36
 70
     1
102
RTVSPropertyOp37
 70
     1
102
RTVSPropertyOp38
 70
     1
102
RTVSPropertyOp39
 70
     1
102
RTVSPropertyOp40
 70
     1
102
RTVSPropertyOp41
 70
     1
102
RTVSPropertyOp42
 70
     1
102
RTVSPropertyOp43
 70
     1
102
RTVSPropertyOp44
 70
     1
102
RTVSPropertyOp45
 70
     1
102
RTVSPropertyOp46
 70
     1
102
RTVSPropertyOp47
 70
     1
102
RTVSPropertyOp48
 70
     1
102
RTVSPropertyOp49
 70
     1
102
RTVSPropertyOp50
 70
     1
102
RTVSPropertyOp51
 70
     0
102
RTVSPropertyOp52
 70
     0
102
RTVSPropertyOp53
 70
     1
102
RTVSPropertyOp54
 70
     1
102
RTVSPropertyOp55
 70
     1
102
RTVSPropertyOp56
 70
     1
102
RTVSPropertyOp57
 70
     1
102
RTVSPropertyOp58
 70
     1
102
RTVSPropertyOp59
 70
     1
102
RTVSPropertyOp60
 70
     1
102
RTVSPropertyOp61
 70
     1
102
RTVSPropertyOp62
 70
     1
  0
XRECORD
  5
45D
102
{ACAD_REACTORS
330
45C
102
}
330
45C
100
AcDbXrecord
280
     1
102
RTVSPost2010Prop28
280
     0
102
RTVSPost2010PropOp28
 70
     1
102
RTVSPost2010Prop29
280
     1
102
RTVSPost2010PropOp29
 70
     1
102
RTVSPost2010Prop30
280
     1
102
RTVSPost2010PropOp30
 70
     1
102
RTVSPost2010Prop31
280
     0
102
RTVSPost2010PropOp31
 70
     1
102
RTVSPost2010Prop32
280
     0
102
RTVSPost2010PropOp32
 70
     1
102
RTVSPost2010Prop33
280
     0
102
RTVSPost2010PropOp33
 70
     1
102
RTVSPost2010Prop34
280
     0
102
RTVSPost2010PropOp34
 70
     1
102
RTVSPost2010Prop35
280
     0
102
RTVSPost2010PropOp35
 70
     1
102
RTVSPost2010Prop36
280
     0
102
RTVSPost2010PropOp36
 70
     1
102
RTVSPost2010Prop37
 90
       50
102
RTVSPost2010PropOp37
 70
     1
102
RTVSPost2010Prop38
140
0.0
102
RTVSPost2010PropOp38
 70
     1
102
RTVSPost2010Prop39
140
1.0
102
RTVSPost2010PropOp39
 70
     1
102
RTVSPost2010Prop40
 90
        0
102
RTVSPost2010PropOp40
 70
     1
102
RTVSPost2010Prop41ColorIndex
 90
       18
102
RTVSPost2010Prop41ColorRGB
 90
        0
102
RTVSPost2010PropOp41
 70
     1
102
RTVSPost2010Prop42
 90
       50
102
RTVSPost2010PropOp42
 70
     1
102
RTVSPost2010Prop43
 90
        3
102
RTVSPost2010PropOp43
 70
     1
102
RTVSPost2010Prop44ColorIndex
 90
        5
102
RTVSPost2010Prop44ColorRGB
 90
      255
102
RTVSPost2010PropOp44
 70
     1
102
RTVSPost2010Prop45
280
     0
102
RTVSPost2010PropOp45
 70
     1
102
RTVSPost2010Prop46
 90
       50
102
RTVSPost2010PropOp46
 70
     1
102
RTVSPost2010Prop47
 90
       50
102
RTVSPost2010PropOp47
 70
     1
102
RTVSPost2010Prop48
 90
       50
102
RTVSPost2010PropOp48
 70
     1
102
RTVSPost2010Prop49
280
     0
102
RTVSPost2010PropOp49
 70
     1
102
RTVSPost2010Prop50
 90
       50
102
RTVSPost2010PropOp50
 70
     1
102
RTVSPost2010Prop51ColorIndex
 90
      256
102
RTVSPost2010Prop51ColorRGB
 90
-16777216
102
RTVSPost2010PropOp51
 70
     0
102
RTVSPost2010Prop52
140
1.0
102
RTVSPost2010PropOp52
 70
     0
102
RTVSPost2010Prop53
 90
        2
102
RTVSPost2010PropOp53
 70
     1
102
RTVSPost2010Prop54
  1
strokes_ogs.tif
102
RTVSPost2010PropOp54
 70
     1
102
RTVSPost2010Prop55
280
     0
102
RTVSPost2010PropOp55
 70
     1
102
RTVSPost2010Prop56
140
1.0
102
RTVSPost2010PropOp56
 70
     1
102
RTVSPost2010Prop57
140
1.0
102
RTVSPost2010PropOp57
 70
     1
102
RTVSPropertyOp0
 70
     1
102
RTVSPropertyOp1
 70
     1
102
RTVSPropertyOp2
 70
     1
102
RTVSPropertyOp3
 70
     1
102
RTVSPropertyOp4
 70
     1
102
RTVSPropertyOp5
 70
     1
102
RTVSPropertyOp6
 70
     1
102
RTVSPropertyOp7
 70
     1
102
RTVSPropertyOp8
 70
     1
102
RTVSPropertyOp9
 70
     1
102
RTVSPropertyOp10
 70
     1
102
RTVSPropertyOp11
 70
     1
102
RTVSPropertyOp12
 70
     1
102
RTVSPropertyOp13
 70
     1
102
RTVSPropertyOp14
 70
     1
102
RTVSPropertyOp15
 70
     1
102
RTVSPropertyOp16
 70
     1
102
RTVSPropertyOp17
 70
     1
102
RTVSPropertyOp18
 70
     1
102
RTVSPropertyOp19
 70
     1
102
RTVSPropertyOp20
 70
     1
102
RTVSPropertyOp21
 70
     1
102
RTVSPropertyOp22
 70
     1
102
RTVSPropertyOp23
 70
     1
102
RTVSPropertyOp24
 70
     1
102
RTVSPropertyOp25
 70
     1
102
RTVSPropertyOp26
 70
     1
102
RTVSPropertyOp27
 70
     1
102
RTVSPropertyOp28
 70
     1
102
RTVSPropertyOp29
 70
     1
102
RTVSPropertyOp30
 70
     1
102
RTVSPropertyOp31
 70
     1
102
RTVSPropertyOp32
 70
     1
102
RTVSPropertyOp33
 70
     1
102
RTVSPropertyOp34
 70
     1
102
RTVSPropertyOp35
 70
     1
102
RTVSPropertyOp36
 70
     1
102
RTVSPropertyOp37
 70
     1
102
RTVSPropertyOp38
 70
     1
102
RTVSPropertyOp39
 70
     1
102
RTVSPropertyOp40
 70
     1
102
RTVSPropertyOp41
 70
     1
102
RTVSPropertyOp42
 70
     1
102
RTVSPropertyOp43
 70
     1
102
RTVSPropertyOp44
 70
     1
102
RTVSPropertyOp45
 70
     1
102
RTVSPropertyOp46
 70
     1
102
RTVSPropertyOp47
 70
     1
102
RTVSPropertyOp48
 70
     1
102
RTVSPropertyOp49
 70
     1
102
RTVSPropertyOp50
 70
     1
102
RTVSPropertyOp51
 70
     0
102
RTVSPropertyOp52
 70
     0
102
RTVSPropertyOp53
 70
     1
102
RTVSPropertyOp54
 70
     1
102
RTVSPropertyOp55
 70
     1
102
RTVSPropertyOp56
 70
     1
102
RTVSPropertyOp57
 70
     1
102
RTVSPropertyOp58
 70
     1
102
RTVSPropertyOp59
 70
     1
102
RTVSPropertyOp60
 70
     1
102
RTVSPropertyOp61
 70
     1
102
RTVSPropertyOp62
 70
     1
  0
XRECORD
  5
457
102
{ACAD_REACTORS
330
456
102
}
330
456
100
AcDbXrecord
280
     1
102
RTVSPost2010Prop28
280
     0
102
RTVSPost2010PropOp28
 70
     1
102
RTVSPost2010Prop29
280
     1
102
RTVSPost2010PropOp29
 70
     1
102
RTVSPost2010Prop30
280
     1
102
RTVSPost2010PropOp30
 70
     1
102
RTVSPost2010Prop31
280
     0
102
RTVSPost2010PropOp31
 70
     1
102
RTVSPost2010Prop32
280
     0
102
RTVSPost2010PropOp32
 70
     1
102
RTVSPost2010Prop33
280
     0
102
RTVSPost2010PropOp33
 70
     1
102
RTVSPost2010Prop34
280
     0
102
RTVSPost2010PropOp34
 70
     1
102
RTVSPost2010Prop35
280
     0
102
RTVSPost2010PropOp35
 70
     1
102
RTVSPost2010Prop36
280
     0
102
RTVSPost2010PropOp36
 70
     1
102
RTVSPost2010Prop37
 90
       50
102
RTVSPost2010PropOp37
 70
     1
102
RTVSPost2010Prop38
140
0.0
102
RTVSPost2010PropOp38
 70
     1
102
RTVSPost2010Prop39
140
1.0
102
RTVSPost2010PropOp39
 70
     1
102
RTVSPost2010Prop40
 90
        0
102
RTVSPost2010PropOp40
 70
     1
102
RTVSPost2010Prop41ColorIndex
 90
       18
102
RTVSPost2010Prop41ColorRGB
 90
        0
102
RTVSPost2010PropOp41
 70
     1
102
RTVSPost2010Prop42
 90
       50
102
RTVSPost2010PropOp42
 70
     1
102
RTVSPost2010Prop43
 90
        3
102
RTVSPost2010PropOp43
 70
     1
102
RTVSPost2010Prop44ColorIndex
 90
        5
102
RTVSPost2010Prop44ColorRGB
 90
      255
102
RTVSPost2010PropOp44
 70
     1
102
RTVSPost2010Prop45
280
     0
102
RTVSPost2010PropOp45
 70
     1
102
RTVSPost2010Prop46
 90
       50
102
RTVSPost2010PropOp46
 70
     1
102
RTVSPost2010Prop47
 90
       50
102
RTVSPost2010PropOp47
 70
     1
102
RTVSPost2010Prop48
 90
       50
102
RTVSPost2010PropOp48
 70
     1
102
RTVSPost2010Prop49
280
     0
102
RTVSPost2010PropOp49
 70
     1
102
RTVSPost2010Prop50
 90
       50
102
RTVSPost2010PropOp50
 70
     1
102
RTVSPost2010Prop51ColorIndex
 90
      256
102
RTVSPost2010Prop51ColorRGB
 90
-16777216
102
RTVSPost2010PropOp51
 70
     0
102
RTVSPost2010Prop52
140
1.0
102
RTVSPost2010PropOp52
 70
     0
102
RTVSPost2010Prop53
 90
        2
102
RTVSPost2010PropOp53
 70
     1
102
RTVSPost2010Prop54
  1
strokes_ogs.tif
102
RTVSPost2010PropOp54
 70
     1
102
RTVSPost2010Prop55
280
     0
102
RTVSPost2010PropOp55
 70
     1
102
RTVSPost2010Prop56
140
1.0
102
RTVSPost2010PropOp56
 70
     1
102
RTVSPost2010Prop57
140
1.0
102
RTVSPost2010PropOp57
 70
     1
102
RTVSPropertyOp0
 70
     1
102
RTVSPropertyOp1
 70
     1
102
RTVSPropertyOp2
 70
     1
102
RTVSPropertyOp3
 70
     1
102
RTVSPropertyOp4
 70
     1
102
RTVSPropertyOp5
 70
     1
102
RTVSPropertyOp6
 70
     1
102
RTVSPropertyOp7
 70
     1
102
RTVSPropertyOp8
 70
     1
102
RTVSPropertyOp9
 70
     1
102
RTVSPropertyOp10
 70
     1
102
RTVSPropertyOp11
 70
     1
102
RTVSPropertyOp12
 70
     1
102
RTVSPropertyOp13
 70
     1
102
RTVSPropertyOp14
 70
     1
102
RTVSPropertyOp15
 70
     1
102
RTVSPropertyOp16
 70
     1
102
RTVSPropertyOp17
 70
     1
102
RTVSPropertyOp18
 70
     1
102
RTVSPropertyOp19
 70
     1
102
RTVSPropertyOp20
 70
     1
102
RTVSPropertyOp21
 70
     1
102
RTVSPropertyOp22
 70
     1
102
RTVSPropertyOp23
 70
     1
102
RTVSPropertyOp24
 70
     1
102
RTVSPropertyOp25
 70
     1
102
RTVSPropertyOp26
 70
     1
102
RTVSPropertyOp27
 70
     1
102
RTVSPropertyOp28
 70
     1
102
RTVSPropertyOp29
 70
     1
102
RTVSPropertyOp30
 70
     1
102
RTVSPropertyOp31
 70
     1
102
RTVSPropertyOp32
 70
     1
102
RTVSPropertyOp33
 70
     1
102
RTVSPropertyOp34
 70
     1
102
RTVSPropertyOp35
 70
     1
102
RTVSPropertyOp36
 70
     1
102
RTVSPropertyOp37
 70
     1
102
RTVSPropertyOp38
 70
     1
102
RTVSPropertyOp39
 70
     1
102
RTVSPropertyOp40
 70
     1
102
RTVSPropertyOp41
 70
     1
102
RTVSPropertyOp42
 70
     1
102
RTVSPropertyOp43
 70
     1
102
RTVSPropertyOp44
 70
     1
102
RTVSPropertyOp45
 70
     1
102
RTVSPropertyOp46
 70
     1
102
RTVSPropertyOp47
 70
     1
102
RTVSPropertyOp48
 70
     1
102
RTVSPropertyOp49
 70
     1
102
RTVSPropertyOp50
 70
     1
102
RTVSPropertyOp51
 70
     0
102
RTVSPropertyOp52
 70
     0
102
RTVSPropertyOp53
 70
     1
102
RTVSPropertyOp54
 70
     1
102
RTVSPropertyOp55
 70
     1
102
RTVSPropertyOp56
 70
     1
102
RTVSPropertyOp57
 70
     1
102
RTVSPropertyOp58
 70
     1
102
RTVSPropertyOp59
 70
     1
102
RTVSPropertyOp60
 70
     1
102
RTVSPropertyOp61
 70
     1
102
RTVSPropertyOp62
 70
     1
  0
XRECORD
  5
459
102
{ACAD_REACTORS
330
458
102
}
330
458
100
AcDbXrecord
280
     1
102
RTVSPost2010Prop28
280
     0
102
RTVSPost2010PropOp28
 70
     1
102
RTVSPost2010Prop29
280
     1
102
RTVSPost2010PropOp29
 70
     1
102
RTVSPost2010Prop30
280
     1
102
RTVSPost2010PropOp30
 70
     1
102
RTVSPost2010Prop31
280
     0
102
RTVSPost2010PropOp31
 70
     1
102
RTVSPost2010Prop32
280
     0
102
RTVSPost2010PropOp32
 70
     1
102
RTVSPost2010Prop33
280
     0
102
RTVSPost2010PropOp33
 70
     1
102
RTVSPost2010Prop34
280
     0
102
RTVSPost2010PropOp34
 70
     1
102
RTVSPost2010Prop35
280
     0
102
RTVSPost2010PropOp35
 70
     1
102
RTVSPost2010Prop36
280
     0
102
RTVSPost2010PropOp36
 70
     1
102
RTVSPost2010Prop37
 90
       50
102
RTVSPost2010PropOp37
 70
     1
102
RTVSPost2010Prop38
140
0.0
102
RTVSPost2010PropOp38
 70
     1
102
RTVSPost2010Prop39
140
1.0
102
RTVSPost2010PropOp39
 70
     1
102
RTVSPost2010Prop40
 90
        0
102
RTVSPost2010PropOp40
 70
     1
102
RTVSPost2010Prop41ColorIndex
 90
       18
102
RTVSPost2010Prop41ColorRGB
 90
        0
102
RTVSPost2010PropOp41
 70
     1
102
RTVSPost2010Prop42
 90
       50
102
RTVSPost2010PropOp42
 70
     1
102
RTVSPost2010Prop43
 90
        3
102
RTVSPost2010PropOp43
 70
     1
102
RTVSPost2010Prop44ColorIndex
 90
        5
102
RTVSPost2010Prop44ColorRGB
 90
      255
102
RTVSPost2010PropOp44
 70
     1
102
RTVSPost2010Prop45
280
     0
102
RTVSPost2010PropOp45
 70
     1
102
RTVSPost2010Prop46
 90
       50
102
RTVSPost2010PropOp46
 70
     1
102
RTVSPost2010Prop47
 90
       50
102
RTVSPost2010PropOp47
 70
     1
102
RTVSPost2010Prop48
 90
       50
102
RTVSPost2010PropOp48
 70
     1
102
RTVSPost2010Prop49
280
     0
102
RTVSPost2010PropOp49
 70
     1
102
RTVSPost2010Prop50
 90
       50
102
RTVSPost2010PropOp50
 70
     1
102
RTVSPost2010Prop51ColorIndex
 90
      256
102
RTVSPost2010Prop51ColorRGB
 90
-16777216
102
RTVSPost2010PropOp51
 70
     0
102
RTVSPost2010Prop52
140
1.0
102
RTVSPost2010PropOp52
 70
     0
102
RTVSPost2010Prop53
 90
        2
102
RTVSPost2010PropOp53
 70
     1
102
RTVSPost2010Prop54
  1
strokes_ogs.tif
102
RTVSPost2010PropOp54
 70
     1
102
RTVSPost2010Prop55
280
     0
102
RTVSPost2010PropOp55
 70
     1
102
RTVSPost2010Prop56
140
1.0
102
RTVSPost2010PropOp56
 70
     1
102
RTVSPost2010Prop57
140
1.0
102
RTVSPost2010PropOp57
 70
     1
102
RTVSPropertyOp0
 70
     1
102
RTVSPropertyOp1
 70
     1
102
RTVSPropertyOp2
 70
     1
102
RTVSPropertyOp3
 70
     1
102
RTVSPropertyOp4
 70
     1
102
RTVSPropertyOp5
 70
     1
102
RTVSPropertyOp6
 70
     1
102
RTVSPropertyOp7
 70
     1
102
RTVSPropertyOp8
 70
     1
102
RTVSPropertyOp9
 70
     1
102
RTVSPropertyOp10
 70
     1
102
RTVSPropertyOp11
 70
     1
102
RTVSPropertyOp12
 70
     1
102
RTVSPropertyOp13
 70
     1
102
RTVSPropertyOp14
 70
     1
102
RTVSPropertyOp15
 70
     1
102
RTVSPropertyOp16
 70
     1
102
RTVSPropertyOp17
 70
     1
102
RTVSPropertyOp18
 70
     1
102
RTVSPropertyOp19
 70
     1
102
RTVSPropertyOp20
 70
     1
102
RTVSPropertyOp21
 70
     1
102
RTVSPropertyOp22
 70
     1
102
RTVSPropertyOp23
 70
     1
102
RTVSPropertyOp24
 70
     1
102
RTVSPropertyOp25
 70
     1
102
RTVSPropertyOp26
 70
     1
102
RTVSPropertyOp27
 70
     1
102
RTVSPropertyOp28
 70
     1
102
RTVSPropertyOp29
 70
     1
102
RTVSPropertyOp30
 70
     1
102
RTVSPropertyOp31
 70
     1
102
RTVSPropertyOp32
 70
     1
102
RTVSPropertyOp33
 70
     1
102
RTVSPropertyOp34
 70
     1
102
RTVSPropertyOp35
 70
     1
102
RTVSPropertyOp36
 70
     1
102
RTVSPropertyOp37
 70
     1
102
RTVSPropertyOp38
 70
     1
102
RTVSPropertyOp39
 70
     1
102
RTVSPropertyOp40
 70
     1
102
RTVSPropertyOp41
 70
     1
102
RTVSPropertyOp42
 70
     1
102
RTVSPropertyOp43
 70
     1
102
RTVSPropertyOp44
 70
     1
102
RTVSPropertyOp45
 70
     1
102
RTVSPropertyOp46
 70
     1
102
RTVSPropertyOp47
 70
     1
102
RTVSPropertyOp48
 70
     1
102
RTVSPropertyOp49
 70
     1
102
RTVSPropertyOp50
 70
     1
102
RTVSPropertyOp51
 70
     0
102
RTVSPropertyOp52
 70
     0
102
RTVSPropertyOp53
 70
     1
102
RTVSPropertyOp54
 70
     1
102
RTVSPropertyOp55
 70
     1
102
RTVSPropertyOp56
 70
     1
102
RTVSPropertyOp57
 70
     1
102
RTVSPropertyOp58
 70
     1
102
RTVSPropertyOp59
 70
     1
102
RTVSPropertyOp60
 70
     1
102
RTVSPropertyOp61
 70
     1
102
RTVSPropertyOp62
 70
     1
  0
XRECORD
  5
44F
102
{ACAD_REACTORS
330
44E
102
}
330
44E
100
AcDbXrecord
280
     1
102
RTVSPost2010Prop28
280
     0
102
RTVSPost2010PropOp28
 70
     1
102
RTVSPost2010Prop29
280
     1
102
RTVSPost2010PropOp29
 70
     1
102
RTVSPost2010Prop30
280
     1
102
RTVSPost2010PropOp30
 70
     1
102
RTVSPost2010Prop31
280
     0
102
RTVSPost2010PropOp31
 70
     1
102
RTVSPost2010Prop32
280
     0
102
RTVSPost2010PropOp32
 70
     1
102
RTVSPost2010Prop33
280
     0
102
RTVSPost2010PropOp33
 70
     1
102
RTVSPost2010Prop34
280
     0
102
RTVSPost2010PropOp34
 70
     1
102
RTVSPost2010Prop35
280
     0
102
RTVSPost2010PropOp35
 70
     1
102
RTVSPost2010Prop36
280
     0
102
RTVSPost2010PropOp36
 70
     1
102
RTVSPost2010Prop37
 90
       50
102
RTVSPost2010PropOp37
 70
     1
102
RTVSPost2010Prop38
140
0.0
102
RTVSPost2010PropOp38
 70
     1
102
RTVSPost2010Prop39
140
1.0
102
RTVSPost2010PropOp39
 70
     1
102
RTVSPost2010Prop40
 90
        0
102
RTVSPost2010PropOp40
 70
     1
102
RTVSPost2010Prop41ColorIndex
 90
       18
102
RTVSPost2010Prop41ColorRGB
 90
        0
102
RTVSPost2010PropOp41
 70
     1
102
RTVSPost2010Prop42
 90
       50
102
RTVSPost2010PropOp42
 70
     1
102
RTVSPost2010Prop43
 90
        3
102
RTVSPost2010PropOp43
 70
     1
102
RTVSPost2010Prop44ColorIndex
 90
        5
102
RTVSPost2010Prop44ColorRGB
 90
      255
102
RTVSPost2010PropOp44
 70
     1
102
RTVSPost2010Prop45
280
     0
102
RTVSPost2010PropOp45
 70
     1
102
RTVSPost2010Prop46
 90
       50
102
RTVSPost2010PropOp46
 70
     1
102
RTVSPost2010Prop47
 90
       50
102
RTVSPost2010PropOp47
 70
     1
102
RTVSPost2010Prop48
 90
       50
102
RTVSPost2010PropOp48
 70
     1
102
RTVSPost2010Prop49
280
     0
102
RTVSPost2010PropOp49
 70
     1
102
RTVSPost2010Prop50
 90
       50
102
RTVSPost2010PropOp50
 70
     1
102
RTVSPost2010Prop51ColorIndex
 90
      256
102
RTVSPost2010Prop51ColorRGB
 90
-16777216
102
RTVSPost2010PropOp51
 70
     0
102
RTVSPost2010Prop52
140
1.0
102
RTVSPost2010PropOp52
 70
     0
102
RTVSPost2010Prop53
 90
        2
102
RTVSPost2010PropOp53
 70
     1
102
RTVSPost2010Prop54
  1
strokes_ogs.tif
102
RTVSPost2010PropOp54
 70
     1
102
RTVSPost2010Prop55
280
     0
102
RTVSPost2010PropOp55
 70
     1
102
RTVSPost2010Prop56
140
1.0
102
RTVSPost2010PropOp56
 70
     1
102
RTVSPost2010Prop57
140
1.0
102
RTVSPost2010PropOp57
 70
     1
102
RTVSPropertyOp0
 70
     1
102
RTVSPropertyOp1
 70
     1
102
RTVSPropertyOp2
 70
     1
102
RTVSPropertyOp3
 70
     1
102
RTVSPropertyOp4
 70
     1
102
RTVSPropertyOp5
 70
     1
102
RTVSPropertyOp6
 70
     1
102
RTVSPropertyOp7
 70
     1
102
RTVSPropertyOp8
 70
     1
102
RTVSPropertyOp9
 70
     1
102
RTVSPropertyOp10
 70
     1
102
RTVSPropertyOp11
 70
     1
102
RTVSPropertyOp12
 70
     1
102
RTVSPropertyOp13
 70
     1
102
RTVSPropertyOp14
 70
     1
102
RTVSPropertyOp15
 70
     1
102
RTVSPropertyOp16
 70
     1
102
RTVSPropertyOp17
 70
     1
102
RTVSPropertyOp18
 70
     1
102
RTVSPropertyOp19
 70
     1
102
RTVSPropertyOp20
 70
     1
102
RTVSPropertyOp21
 70
     1
102
RTVSPropertyOp22
 70
     1
102
RTVSPropertyOp23
 70
     1
102
RTVSPropertyOp24
 70
     1
102
RTVSPropertyOp25
 70
     1
102
RTVSPropertyOp26
 70
     1
102
RTVSPropertyOp27
 70
     1
102
RTVSPropertyOp28
 70
     1
102
RTVSPropertyOp29
 70
     1
102
RTVSPropertyOp30
 70
     1
102
RTVSPropertyOp31
 70
     1
102
RTVSPropertyOp32
 70
     1
102
RTVSPropertyOp33
 70
     1
102
RTVSPropertyOp34
 70
     1
102
RTVSPropertyOp35
 70
     1
102
RTVSPropertyOp36
 70
     1
102
RTVSPropertyOp37
 70
     1
102
RTVSPropertyOp38
 70
     1
102
RTVSPropertyOp39
 70
     1
102
RTVSPropertyOp40
 70
     1
102
RTVSPropertyOp41
 70
     1
102
RTVSPropertyOp42
 70
     1
102
RTVSPropertyOp43
 70
     1
102
RTVSPropertyOp44
 70
     1
102
RTVSPropertyOp45
 70
     1
102
RTVSPropertyOp46
 70
     1
102
RTVSPropertyOp47
 70
     1
102
RTVSPropertyOp48
 70
     1
102
RTVSPropertyOp49
 70
     1
102
RTVSPropertyOp50
 70
     1
102
RTVSPropertyOp51
 70
     0
102
RTVSPropertyOp52
 70
     0
102
RTVSPropertyOp53
 70
     1
102
RTVSPropertyOp54
 70
     1
102
RTVSPropertyOp55
 70
     1
102
RTVSPropertyOp56
 70
     1
102
RTVSPropertyOp57
 70
     1
102
RTVSPropertyOp58
 70
     1
102
RTVSPropertyOp59
 70
     1
102
RTVSPropertyOp60
 70
     1
102
RTVSPropertyOp61
 70
     1
102
RTVSPropertyOp62
 70
     1
  0
XRECORD
  5
443
102
{ACAD_REACTORS
330
442
102
}
330
442
100
AcDbXrecord
280
     1
102
RTVSPost2010Prop28
280
     0
102
RTVSPost2010PropOp28
 70
     1
102
RTVSPost2010Prop29
280
     1
102
RTVSPost2010PropOp29
 70
     1
102
RTVSPost2010Prop30
280
     1
102
RTVSPost2010PropOp30
 70
     1
102
RTVSPost2010Prop31
280
     0
102
RTVSPost2010PropOp31
 70
     1
102
RTVSPost2010Prop32
280
     0
102
RTVSPost2010PropOp32
 70
     1
102
RTVSPost2010Prop33
280
     0
102
RTVSPost2010PropOp33
 70
     1
102
RTVSPost2010Prop34
280
     0
102
RTVSPost2010PropOp34
 70
     1
102
RTVSPost2010Prop35
280
     0
102
RTVSPost2010PropOp35
 70
     1
102
RTVSPost2010Prop36
280
     0
102
RTVSPost2010PropOp36
 70
     1
102
RTVSPost2010Prop37
 90
       50
102
RTVSPost2010PropOp37
 70
     1
102
RTVSPost2010Prop38
140
0.0
102
RTVSPost2010PropOp38
 70
     1
102
RTVSPost2010Prop39
140
1.0
102
RTVSPost2010PropOp39
 70
     1
102
RTVSPost2010Prop40
 90
        0
102
RTVSPost2010PropOp40
 70
     1
102
RTVSPost2010Prop41ColorIndex
 90
       18
102
RTVSPost2010Prop41ColorRGB
 90
        0
102
RTVSPost2010PropOp41
 70
     1
102
RTVSPost2010Prop42
 90
       50
102
RTVSPost2010PropOp42
 70
     1
102
RTVSPost2010Prop43
 90
        3
102
RTVSPost2010PropOp43
 70
     1
102
RTVSPost2010Prop44ColorIndex
 90
        5
102
RTVSPost2010Prop44ColorRGB
 90
      255
102
RTVSPost2010PropOp44
 70
     1
102
RTVSPost2010Prop45
280
     0
102
RTVSPost2010PropOp45
 70
     1
102
RTVSPost2010Prop46
 90
       50
102
RTVSPost2010PropOp46
 70
     1
102
RTVSPost2010Prop47
 90
       50
102
RTVSPost2010PropOp47
 70
     1
102
RTVSPost2010Prop48
 90
       50
102
RTVSPost2010PropOp48
 70
     1
102
RTVSPost2010Prop49
280
     0
102
RTVSPost2010PropOp49
 70
     1
102
RTVSPost2010Prop50
 90
       50
102
RTVSPost2010PropOp50
 70
     1
102
RTVSPost2010Prop51ColorIndex
 90
      256
102
RTVSPost2010Prop51ColorRGB
 90
-16777216
102
RTVSPost2010PropOp51
 70
     0
102
RTVSPost2010Prop52
140
1.0
102
RTVSPost2010PropOp52
 70
     0
102
RTVSPost2010Prop53
 90
        2
102
RTVSPost2010PropOp53
 70
     1
102
RTVSPost2010Prop54
  1
strokes_ogs.tif
102
RTVSPost2010PropOp54
 70
     1
102
RTVSPost2010Prop55
280
     0
102
RTVSPost2010PropOp55
 70
     1
102
RTVSPost2010Prop56
140
1.0
102
RTVSPost2010PropOp56
 70
     1
102
RTVSPost2010Prop57
140
1.0
102
RTVSPost2010PropOp57
 70
     1
102
RTVSPropertyOp0
 70
     1
102
RTVSPropertyOp1
 70
     1
102
RTVSPropertyOp2
 70
     1
102
RTVSPropertyOp3
 70
     1
102
RTVSPropertyOp4
 70
     1
102
RTVSPropertyOp5
 70
     1
102
RTVSPropertyOp6
 70
     1
102
RTVSPropertyOp7
 70
     1
102
RTVSPropertyOp8
 70
     1
102
RTVSPropertyOp9
 70
     1
102
RTVSPropertyOp10
 70
     1
102
RTVSPropertyOp11
 70
     1
102
RTVSPropertyOp12
 70
     1
102
RTVSPropertyOp13
 70
     1
102
RTVSPropertyOp14
 70
     1
102
RTVSPropertyOp15
 70
     1
102
RTVSPropertyOp16
 70
     1
102
RTVSPropertyOp17
 70
     1
102
RTVSPropertyOp18
 70
     1
102
RTVSPropertyOp19
 70
     1
102
RTVSPropertyOp20
 70
     1
102
RTVSPropertyOp21
 70
     1
102
RTVSPropertyOp22
 70
     1
102
RTVSPropertyOp23
 70
     1
102
RTVSPropertyOp24
 70
     1
102
RTVSPropertyOp25
 70
     1
102
RTVSPropertyOp26
 70
     1
102
RTVSPropertyOp27
 70
     1
102
RTVSPropertyOp28
 70
     1
102
RTVSPropertyOp29
 70
     1
102
RTVSPropertyOp30
 70
     1
102
RTVSPropertyOp31
 70
     1
102
RTVSPropertyOp32
 70
     1
102
RTVSPropertyOp33
 70
     1
102
RTVSPropertyOp34
 70
     1
102
RTVSPropertyOp35
 70
     1
102
RTVSPropertyOp36
 70
     1
102
RTVSPropertyOp37
 70
     1
102
RTVSPropertyOp38
 70
     1
102
RTVSPropertyOp39
 70
     1
102
RTVSPropertyOp40
 70
     1
102
RTVSPropertyOp41
 70
     1
102
RTVSPropertyOp42
 70
     1
102
RTVSPropertyOp43
 70
     1
102
RTVSPropertyOp44
 70
     1
102
RTVSPropertyOp45
 70
     1
102
RTVSPropertyOp46
 70
     1
102
RTVSPropertyOp47
 70
     1
102
RTVSPropertyOp48
 70
     1
102
RTVSPropertyOp49
 70
     1
102
RTVSPropertyOp50
 70
     1
102
RTVSPropertyOp51
 70
     0
102
RTVSPropertyOp52
 70
     0
102
RTVSPropertyOp53
 70
     1
102
RTVSPropertyOp54
 70
     1
102
RTVSPropertyOp55
 70
     1
102
RTVSPropertyOp56
 70
     1
102
RTVSPropertyOp57
 70
     1
102
RTVSPropertyOp58
 70
     1
102
RTVSPropertyOp59
 70
     1
102
RTVSPropertyOp60
 70
     1
102
RTVSPropertyOp61
 70
     1
102
RTVSPropertyOp62
 70
     1
  0
XRECORD
  5
45B
102
{ACAD_REACTORS
330
45A
102
}
330
45A
100
AcDbXrecord
280
     1
102
RTVSPost2010Prop28
280
     0
102
RTVSPost2010PropOp28
 70
     1
102
RTVSPost2010Prop29
280
     1
102
RTVSPost2010PropOp29
 70
     1
102
RTVSPost2010Prop30
280
     1
102
RTVSPost2010PropOp30
 70
     1
102
RTVSPost2010Prop31
280
     0
102
RTVSPost2010PropOp31
 70
     1
102
RTVSPost2010Prop32
280
     0
102
RTVSPost2010PropOp32
 70
     1
102
RTVSPost2010Prop33
280
     0
102
RTVSPost2010PropOp33
 70
     1
102
RTVSPost2010Prop34
280
     0
102
RTVSPost2010PropOp34
 70
     1
102
RTVSPost2010Prop35
280
     0
102
RTVSPost2010PropOp35
 70
     1
102
RTVSPost2010Prop36
280
     0
102
RTVSPost2010PropOp36
 70
     1
102
RTVSPost2010Prop37
 90
       50
102
RTVSPost2010PropOp37
 70
     1
102
RTVSPost2010Prop38
140
0.0
102
RTVSPost2010PropOp38
 70
     1
102
RTVSPost2010Prop39
140
1.0
102
RTVSPost2010PropOp39
 70
     1
102
RTVSPost2010Prop40
 90
        0
102
RTVSPost2010PropOp40
 70
     1
102
RTVSPost2010Prop41ColorIndex
 90
       18
102
RTVSPost2010Prop41ColorRGB
 90
        0
102
RTVSPost2010PropOp41
 70
     1
102
RTVSPost2010Prop42
 90
       50
102
RTVSPost2010PropOp42
 70
     1
102
RTVSPost2010Prop43
 90
        3
102
RTVSPost2010PropOp43
 70
     1
102
RTVSPost2010Prop44ColorIndex
 90
        5
102
RTVSPost2010Prop44ColorRGB
 90
      255
102
RTVSPost2010PropOp44
 70
     1
102
RTVSPost2010Prop45
280
     0
102
RTVSPost2010PropOp45
 70
     1
102
RTVSPost2010Prop46
 90
       50
102
RTVSPost2010PropOp46
 70
     1
102
RTVSPost2010Prop47
 90
       50
102
RTVSPost2010PropOp47
 70
     1
102
RTVSPost2010Prop48
 90
       50
102
RTVSPost2010PropOp48
 70
     1
102
RTVSPost2010Prop49
280
     0
102
RTVSPost2010PropOp49
 70
     1
102
RTVSPost2010Prop50
 90
       50
102
RTVSPost2010PropOp50
 70
     1
102
RTVSPost2010Prop51ColorIndex
 90
      256
102
RTVSPost2010Prop51ColorRGB
 90
-16777216
102
RTVSPost2010PropOp51
 70
     0
102
RTVSPost2010Prop52
140
1.0
102
RTVSPost2010PropOp52
 70
     0
102
RTVSPost2010Prop53
 90
        2
102
RTVSPost2010PropOp53
 70
     1
102
RTVSPost2010Prop54
  1
strokes_ogs.tif
102
RTVSPost2010PropOp54
 70
     1
102
RTVSPost2010Prop55
280
     0
102
RTVSPost2010PropOp55
 70
     1
102
RTVSPost2010Prop56
140
1.0
102
RTVSPost2010PropOp56
 70
     1
102
RTVSPost2010Prop57
140
1.0
102
RTVSPost2010PropOp57
 70
     1
102
RTVSPropertyOp0
 70
     1
102
RTVSPropertyOp1
 70
     1
102
RTVSPropertyOp2
 70
     1
102
RTVSPropertyOp3
 70
     1
102
RTVSPropertyOp4
 70
     1
102
RTVSPropertyOp5
 70
     1
102
RTVSPropertyOp6
 70
     1
102
RTVSPropertyOp7
 70
     1
102
RTVSPropertyOp8
 70
     1
102
RTVSPropertyOp9
 70
     1
102
RTVSPropertyOp10
 70
     1
102
RTVSPropertyOp11
 70
     1
102
RTVSPropertyOp12
 70
     1
102
RTVSPropertyOp13
 70
     1
102
RTVSPropertyOp14
 70
     1
102
RTVSPropertyOp15
 70
     1
102
RTVSPropertyOp16
 70
     1
102
RTVSPropertyOp17
 70
     1
102
RTVSPropertyOp18
 70
     1
102
RTVSPropertyOp19
 70
     1
102
RTVSPropertyOp20
 70
     1
102
RTVSPropertyOp21
 70
     1
102
RTVSPropertyOp22
 70
     1
102
RTVSPropertyOp23
 70
     1
102
RTVSPropertyOp24
 70
     1
102
RTVSPropertyOp25
 70
     1
102
RTVSPropertyOp26
 70
     1
102
RTVSPropertyOp27
 70
     1
102
RTVSPropertyOp28
 70
     1
102
RTVSPropertyOp29
 70
     1
102
RTVSPropertyOp30
 70
     1
102
RTVSPropertyOp31
 70
     1
102
RTVSPropertyOp32
 70
     1
102
RTVSPropertyOp33
 70
     1
102
RTVSPropertyOp34
 70
     1
102
RTVSPropertyOp35
 70
     1
102
RTVSPropertyOp36
 70
     1
102
RTVSPropertyOp37
 70
     1
102
RTVSPropertyOp38
 70
     1
102
RTVSPropertyOp39
 70
     1
102
RTVSPropertyOp40
 70
     1
102
RTVSPropertyOp41
 70
     1
102
RTVSPropertyOp42
 70
     1
102
RTVSPropertyOp43
 70
     1
102
RTVSPropertyOp44
 70
     1
102
RTVSPropertyOp45
 70
     1
102
RTVSPropertyOp46
 70
     1
102
RTVSPropertyOp47
 70
     1
102
RTVSPropertyOp48
 70
     1
102
RTVSPropertyOp49
 70
     1
102
RTVSPropertyOp50
 70
     1
102
RTVSPropertyOp51
 70
     0
102
RTVSPropertyOp52
 70
     0
102
RTVSPropertyOp53
 70
     1
102
RTVSPropertyOp54
 70
     1
102
RTVSPropertyOp55
 70
     1
102
RTVSPropertyOp56
 70
     1
102
RTVSPropertyOp57
 70
     1
102
RTVSPropertyOp58
 70
     1
102
RTVSPropertyOp59
 70
     1
102
RTVSPropertyOp60
 70
     1
102
RTVSPropertyOp61
 70
     1
102
RTVSPropertyOp62
 70
     1
  0
ENDSEC
  0
EOF
