  0
SECTION
  2
HEADER
  9
$ACADVER
  1
AC1015
  9
$ACADMAINTVER
 70
    20
  9
$DWGCODEPAGE
  3
ANSI_932
  9
$INSBASE
 10
0.0
 20
0.0
 30
0.0
  9
$EXTMIN
 10
0.0
 20
0.0
 30
0.0
  9
$EXTMAX
 10
4200.0
 20
2970.0
 30
0.0
  9
$LIMMIN
 10
0.0
 20
0.0
  9
$LIMMAX
 10
12.0
 20
9.0
  9
$ORTHOMODE
 70
     0
  9
$REGENMODE
 70
     1
  9
$FILLMODE
 70
     1
  9
$QTEXTMODE
 70
     0
  9
$MIRRTEXT
 70
     0
  9
$LTSCALE
 40
10.0
  9
$ATTMODE
 70
     1
  9
$TEXTSIZE
 40
0.0
  9
$TRACEWID
 40
0.05
  9
$TEXTSTYLE
  7
STANDARD
  9
$CLAYER
  8
0
  9
$CELTYPE
  6
CONTINUOUS
  9
$CECOLOR
 62
   256
  9
$CELTSCALE
 40
1.0
  9
$DISPSILH
 70
     0
  9
$DIMSCALE
 40
1.0
  9
$DIMASZ
 40
0.18
  9
$DIMEXO
 40
0.0625
  9
$DIMDLI
 40
0.38
  9
$DIMRND
 40
0.0
  9
$DIMDLE
 40
0.0
  9
$DIMEXE
 40
0.18
  9
$DIMTP
 40
0.0
  9
$DIMTM
 40
0.0
  9
$DIMTXT
 40
0.18
  9
$DIMCEN
 40
0.09
  9
$DIMTSZ
 40
0.0
  9
$DIMTOL
 70
     0
  9
$DIMLIM
 70
     0
  9
$DIMTIH
 70
     1
  9
$DIMTOH
 70
     1
  9
$DIMSE1
 70
     0
  9
$DIMSE2
 70
     0
  9
$DIMTAD
 70
     0
  9
$DIMZIN
 70
     0
  9
$DIMBLK
  1

  9
$DIMASO
 70
     1
  9
$DIMSHO
 70
     1
  9
$DIMPOST
  1

  9
$DIMAPOST
  1

  9
$DIMALT
 70
     0
  9
$DIMALTD
 70
     2
  9
$DIMALTF
 40
25.4
  9
$DIMLFAC
 40
1.0
  9
$DIMTOFL
 70
     0
  9
$DIMTVP
 40
0.0
  9
$DIMTIX
 70
     0
  9
$DIMSOXD
 70
     0
  9
$DIMSAH
 70
     0
  9
$DIMBLK1
  1

  9
$DIMBLK2
  1

  9
$DIMSTYLE
  2
Standard
  9
$DIMCLRD
 70
     0
  9
$DIMCLRE
 70
     0
  9
$DIMCLRT
 70
     0
  9
$DIMTFAC
 40
1.0
  9
$DIMGAP
 40
0.09
  9
$DIMJUST
 70
     0
  9
$DIMSD1
 70
     0
  9
$DIMSD2
 70
     0
  9
$DIMTOLJ
 70
     1
  9
$DIMTZIN
 70
     0
  9
$DIMALTZ
 70
     0
  9
$DIMALTTZ
 70
     0
  9
$DIMUPT
 70
     0
  9
$DIMDEC
 70
     4
  9
$DIMTDEC
 70
     4
  9
$DIMALTU
 70
     2
  9
$DIMALTTD
 70
     2
  9
$DIMTXSTY
  7
STANDARD
  9
$DIMAUNIT
 70
     0
  9
$DIMADEC
 70
     0
  9
$DIMALTRND
 40
0.0
  9
$DIMAZIN
 70
     0
  9
$DIMDSEP
 70
    46
  9
$DIMATFIT
 70
     3
  9
$DIMFRAC
 70
     0
  9
$DIMLDRBLK
  1

  9
$DIMLUNIT
 70
     2
  9
$DIMLWD
 70
    -2
  9
$DIMLWE
 70
    -2
  9
$DIMTMOVE
 70
     0
  9
$LUNITS
 70
     2
  9
$LUPREC
 70
     4
  9
$SKETCHINC
 40
0.1
  9
$FILLETRAD
 40
0.0
  9
$AUNITS
 70
     0
  9
$AUPREC
 70
     0
  9
$MENU
  1
.
  9
$ELEVATION
 40
0.0
  9
$PELEVATION
 40
0.0
  9
$THICKNESS
 40
0.0
  9
$LIMCHECK
 70
     0
  9
$CHAMFERA
 40
0.0
  9
$CHAMFERB
 40
0.0
  9
$CHAMFERC
 40
0.0
  9
$CHAMFERD
 40
0.0
  9
$SKPOLY
 70
     0
  9
$TDCREATE
 40
2459605.628761575
  9
$TDUCREATE
 40
2459605.253761574
  9
$TDUPDATE
 40
2459605.628946759
  9
$TDUUPDATE
 40
2459605.253946759
  9
$TDINDWG
 40
0.0001851852
  9
$TDUSRTIMER
 40
0.0001851852
  9
$USRTIMER
 70
     1
  9
$ANGBASE
 50
0.0
  9
$ANGDIR
 70
     0
  9
$PDMODE
 70
     0
  9
$PDSIZE
 40
5.0
  9
$PLINEWID
 40
0.0
  9
$SPLFRAME
 70
     0
  9
$SPLINETYPE
 70
     6
  9
$SPLINESEGS
 70
     8
  9
$HANDSEED
  5
2DB
  9
$SURFTAB1
 70
     6
  9
$SURFTAB2
 70
     6
  9
$SURFTYPE
 70
     6
  9
$SURFU
 70
     6
  9
$SURFV
 70
     6
  9
$UCSBASE
  2

  9
$UCSNAME
  2

  9
$UCSORG
 10
0.0
 20
0.0
 30
0.0
  9
$UCSXDIR
 10
1.0
 20
0.0
 30
0.0
  9
$UCSYDIR
 10
0.0
 20
1.0
 30
0.0
  9
$UCSORTHOREF
  2

  9
$UCSORTHOVIEW
 70
     0
  9
$UCSORGTOP
 10
0.0
 20
0.0
 30
0.0
  9
$UCSORGBOTTOM
 10
0.0
 20
0.0
 30
0.0
  9
$UCSORGLEFT
 10
0.0
 20
0.0
 30
0.0
  9
$UCSORGRIGHT
 10
0.0
 20
0.0
 30
0.0
  9
$UCSORGFRONT
 10
0.0
 20
0.0
 30
0.0
  9
$UCSORGBACK
 10
0.0
 20
0.0
 30
0.0
  9
$PUCSBASE
  2

  9
$PUCSNAME
  2

  9
$PUCSORG
 10
0.0
 20
0.0
 30
0.0
  9
$PUCSXDIR
 10
1.0
 20
0.0
 30
0.0
  9
$PUCSYDIR
 10
0.0
 20
1.0
 30
0.0
  9
$PUCSORTHOREF
  2

  9
$PUCSORTHOVIEW
 70
     0
  9
$PUCSORGTOP
 10
0.0
 20
0.0
 30
0.0
  9
$PUCSORGBOTTOM
 10
0.0
 20
0.0
 30
0.0
  9
$PUCSORGLEFT
 10
0.0
 20
0.0
 30
0.0
  9
$PUCSORGRIGHT
 10
0.0
 20
0.0
 30
0.0
  9
$PUCSORGFRONT
 10
0.0
 20
0.0
 30
0.0
  9
$PUCSORGBACK
 10
0.0
 20
0.0
 30
0.0
  9
$USERI1
 70
     0
  9
$USERI2
 70
     0
  9
$USERI3
 70
     0
  9
$USERI4
 70
     0
  9
$USERI5
 70
     0
  9
$USERR1
 40
0.0
  9
$USERR2
 40
0.0
  9
$USERR3
 40
0.0
  9
$USERR4
 40
0.0
  9
$USERR5
 40
0.0
  9
$WORLDVIEW
 70
     1
  9
$SHADEDGE
 70
     3
  9
$SHADEDIF
 70
    70
  9
$TILEMODE
 70
     1
  9
$MAXACTVP
 70
    64
  9
$PINSBASE
 10
0.0
 20
0.0
 30
0.0
  9
$PLIMCHECK
 70
     0
  9
$PEXTMIN
 10
1.000000000000000E+20
 20
1.000000000000000E+20
 30
1.000000000000000E+20
  9
$PEXTMAX
 10
-1.000000000000000E+20
 20
-1.000000000000000E+20
 30
-1.000000000000000E+20
  9
$PLIMMIN
 10
0.0
 20
0.0
  9
$PLIMMAX
 10
12.0
 20
9.0
  9
$UNITMODE
 70
     0
  9
$VISRETAIN
 70
     1
  9
$PLINEGEN
 70
     0
  9
$PSLTSCALE
 70
     1
  9
$TREEDEPTH
 70
  3020
  9
$CMLSTYLE
  2
Standard
  9
$CMLJUST
 70
     0
  9
$CMLSCALE
 40
1.0
  9
$PROXYGRAPHICS
 70
     1
  9
$MEASUREMENT
 70
     0
  9
$CELWEIGHT
370
    -1
  9
$ENDCAPS
280
     0
  9
$JOINSTYLE
280
     0
  9
$LWDISPLAY
290
     0
  9
$INSUNITS
 70
     0
  9
$HYPERLINKBASE
  1

  9
$STYLESHEET
  1

  9
$XEDIT
290
     1
  9
$CEPSNTYPE
380
     0
  9
$PSTYLEMODE
290
     1
  9
$FINGERPRINTGUID
  2
{BEC1F6D7-9E5D-DA45-B0B0-49A82B7238B7}
  9
$VERSIONGUID
  2
{EAFB4E5F-551B-5342-B805-2098D323E612}
  9
$EXTNAMES
290
     1
  9
$PSVPSCALE
 40
0.0
  9
$OLESTARTUP
290
     0
  0
ENDSEC
  0
SECTION
  2
CLASSES
  0
CLASS
  1
ACDBDICTIONARYWDFLT
  2
AcDbDictionaryWithDefault
  3
ObjectDBX Classes
 90
        0
280
     0
281
     0
  0
CLASS
  1
MATERIAL
  2
AcDbMaterial
  3
ObjectDBX Classes
 90
     1153
280
     0
281
     0
  0
CLASS
  1
VISUALSTYLE
  2
AcDbVisualStyle
  3
ObjectDBX Classes
 90
     4095
280
     0
281
     0
  0
CLASS
  1
SCALE
  2
AcDbScale
  3
ObjectDBX Classes
 90
     1153
280
     0
281
     0
  0
CLASS
  1
TABLESTYLE
  2
AcDbTableStyle
  3
ObjectDBX Classes
 90
     4095
280
     0
281
     0
  0
CLASS
  1
MLEADERSTYLE
  2
AcDbMLeaderStyle
  3
ACDB_MLEADERSTYLE_CLASS
 90
     4095
280
     0
281
     0
  0
CLASS
  1
ACDBSECTIONVIEWSTYLE
  2
AcDbSectionViewStyle
  3
ObjectDBX Classes
 90
     1025
280
     0
281
     0
  0
CLASS
  1
ACDBDETAILVIEWSTYLE
  2
AcDbDetailViewStyle
  3
ObjectDBX Classes
 90
     1025
280
     0
281
     0
  0
CLASS
  1
DICTIONARYVAR
  2
AcDbDictionaryVar
  3
ObjectDBX Classes
 90
        0
280
     0
281
     0
  0
CLASS
  1
CELLSTYLEMAP
  2
AcDbCellStyleMap
  3
ObjectDBX Classes
 90
     1152
280
     0
281
     0
  0
CLASS
  1
ACDBPLACEHOLDER
  2
AcDbPlaceHolder
  3
ObjectDBX Classes
 90
        0
280
     0
281
     0
  0
CLASS
  1
LAYOUT
  2
AcDbLayout
  3
ObjectDBX Classes
 90
        0
280
     0
281
     0
  0
ENDSEC
  0
SECTION
  2
TABLES
  0
TABLE
  2
VPORT
  5
8
330
0
100
AcDbSymbolTable
 70
     1
  0
VPORT
  5
8B
330
8
100
AcDbSymbolTableRecord
100
AcDbViewportTableRecord
  2
*Active
 70
     0
 10
0.0
 20
0.0
 11
1.0
 21
1.0
 12
2930.787648966454
 22
1694.182220505565
 13
0.0
 23
0.0
 14
1.0
 24
1.0
 15
0.0
 25
0.0
 16
0.0
 26
0.0
 36
1.0
 17
0.0
 27
0.0
 37
0.0
 40
2432.30369018604
 41
2.287092882991556
 42
50.0
 43
0.0
 44
0.0
 50
0.0
 51
0.0
 71
     0
 72
   100
 73
     1
 74
     0
 75
     1
 76
     0
 77
     0
 78
     0
281
     0
 65
     1
110
0.0
120
0.0
130
0.0
111
1.0
121
0.0
131
0.0
112
0.0
122
1.0
132
0.0
 79
     0
146
0.0
1001
ACAD_NAV_VCDISPLAY
1070
     3
  0
ENDTAB
  0
TABLE
  2
LTYPE
  5
5
330
0
100
AcDbSymbolTable
 70
     9
  0
LTYPE
  5
5A
330
5
100
AcDbSymbolTableRecord
100
AcDbLinetypeTableRecord
  2
ByBlock
 70
     0
  3

 72
    65
 73
     0
 40
0.0
  0
LTYPE
  5
5B
330
5
100
AcDbSymbolTableRecord
100
AcDbLinetypeTableRecord
  2
ByLayer
 70
     0
  3

 72
    65
 73
     0
 40
0.0
  0
LTYPE
  5
5C
330
5
100
AcDbSymbolTableRecord
100
AcDbLinetypeTableRecord
  2
CONTINUOUS
 70
     0
  3
SolidLine
 72
    65
 73
     0
 40
0.0
  0
LTYPE
  5
73
330
5
100
AcDbSymbolTableRecord
100
AcDbLinetypeTableRecord
  2
DOT
 70
     0
  3
--  --  --  --  --  --  --  --     
 72
    65
 73
     2
 40
3.0
 49
1.0
 74
     0
 49
-2.0
 74
     0
  0
LTYPE
  5
74
330
5
100
AcDbSymbolTableRecord
100
AcDbLinetypeTableRecord
  2
DASHED
 70
     0
  3
----    ----    ----    ----    
 72
    65
 73
     2
 40
5.0
 49
2.0
 74
     0
 49
-3.0
 74
     0
  0
LTYPE
  5
75
330
5
100
AcDbSymbolTableRecord
100
AcDbLinetypeTableRecord
  2
DASHED2
 70
     0
  3
------  ------  ------  ------ 
 72
    65
 73
     2
 40
10.0
 49
4.0
 74
     0
 49
-6.0
 74
     0
  0
LTYPE
  5
76
330
5
100
AcDbSymbolTableRecord
100
AcDbLinetypeTableRecord
  2
CENTER
 70
     0
  3
----- - ----- - ----- - ----- - 
 72
    65
 73
     4
 40
10.0
 49
6.0
 74
     0
 49
-3.0
 74
     0
 49
1.0
 74
     0
 49
-3.0
 74
     0
  0
LTYPE
  5
77
330
5
100
AcDbSymbolTableRecord
100
AcDbLinetypeTableRecord
  2
CENTER2
 70
     0
  3
----------  --  ----------  -- 
 72
    65
 73
     4
 40
17.0
 49
12.0
 74
     0
 49
-5.0
 74
     0
 49
2.0
 74
     0
 49
-5.0
 74
     0
  0
LTYPE
  5
78
330
5
100
AcDbSymbolTableRecord
100
AcDbLinetypeTableRecord
  2
PHANTOM
 70
     0
  3
--- - - --- - - --- - - --- - -
 72
    65
 73
     6
 40
13.0
 49
5.0
 74
     0
 49
-3.0
 74
     0
 49
1.0
 74
     0
 49
-3.0
 74
     0
 49
1.0
 74
     0
 49
-3.0
 74
     0
  0
LTYPE
  5
79
330
5
100
AcDbSymbolTableRecord
100
AcDbLinetypeTableRecord
  2
PHANTOM2
 70
     0
  3
--------  -  -  --------  -  -
 72
    65
 73
     6
 40
20.0
 49
6.0
 74
     0
 49
-5.0
 74
     0
 49
2.0
 74
     0
 49
-5.0
 74
     0
 49
2.0
 74
     0
 49
-5.0
 74
     0
  0
LTYPE
  5
7A
330
5
100
AcDbSymbolTableRecord
100
AcDbLinetypeTableRecord
  2
HIDDEN
 70
     0
  3
-   -   -   -   -   -   -   -   
 72
    65
 73
     2
 40
3.0
 49
0.5
 74
     0
 49
-2.5
 74
     0
  0
ENDTAB
  0
TABLE
  2
LAYER
  5
2
330
0
100
AcDbSymbolTable
 70
    10
  0
LAYER
  5
54
102
{ACAD_XDICTIONARY
360
27B
102
}
330
2
100
AcDbSymbolTableRecord
100
AcDbLayerTableRecord
  2
0
 70
     0
 62
     7
  6
CONTINUOUS
370
    -3
390
F
  0
LAYER
  5
7F
102
{ACAD_XDICTIONARY
360
27D
102
}
330
2
100
AcDbSymbolTableRecord
100
AcDbLayerTableRecord
  2
2-0
 70
     0
 62
     7
  6
CONTINUOUS
370
    -3
390
F
  0
LAYER
  5
80
102
{ACAD_XDICTIONARY
360
27F
102
}
330
2
100
AcDbSymbolTableRecord
100
AcDbLayerTableRecord
  2
4-0
 70
     0
 62
    -7
  6
CONTINUOUS
370
    -3
390
F
  0
LAYER
  5
81
102
{ACAD_XDICTIONARY
360
281
102
}
330
2
100
AcDbSymbolTableRecord
100
AcDbLayerTableRecord
  2
5-0
 70
     0
 62
    -7
  6
CONTINUOUS
370
    -3
390
F
  0
LAYER
  5
82
102
{ACAD_XDICTIONARY
360
283
102
}
330
2
100
AcDbSymbolTableRecord
100
AcDbLayerTableRecord
  2
6-0
 70
     0
 62
     7
  6
CONTINUOUS
370
    -3
390
F
  0
LAYER
  5
83
102
{ACAD_XDICTIONARY
360
285
102
}
330
2
100
AcDbSymbolTableRecord
100
AcDbLayerTableRecord
  2
8-0
 70
     0
 62
     7
  6
CONTINUOUS
370
    -3
390
F
  0
LAYER
  5
84
102
{ACAD_XDICTIONARY
360
287
102
}
330
2
100
AcDbSymbolTableRecord
100
AcDbLayerTableRecord
  2
9-0
 70
     0
 62
     1
  6
CONTINUOUS
370
    -3
390
F
  0
LAYER
  5
85
102
{ACAD_XDICTIONARY
360
289
102
}
330
2
100
AcDbSymbolTableRecord
100
AcDbLayerTableRecord
  2
C-0
 70
     0
 62
     4
  6
CONTINUOUS
370
    -3
390
F
  0
LAYER
  5
86
102
{ACAD_XDICTIONARY
360
28B
102
}
330
2
100
AcDbSymbolTableRecord
100
AcDbLayerTableRecord
  2
D-0
 70
     0
 62
     5
  6
CONTINUOUS
370
    -3
390
F
  0
LAYER
  5
8C
102
{ACAD_XDICTIONARY
360
28D
102
}
330
2
100
AcDbSymbolTableRecord
100
AcDbLayerTableRecord
  2
1-0
 70
     0
 62
     7
  6
CONTINUOUS
370
    -3
390
F
  0
ENDTAB
  0
TABLE
  2
STYLE
  5
3
330
0
100
AcDbSymbolTable
 70
     6
  0
STYLE
  5
55
330
3
100
AcDbSymbolTableRecord
100
AcDbTextStyleTableRecord
  2
STANDARD
 70
     0
 40
0.0
 41
1.0
 50
0.0
 71
     0
 42
0.0
  3
txt.shx
  4
extfont.shx
  0
STYLE
  5
59
330
3
100
AcDbSymbolTableRecord
100
AcDbTextStyleTableRecord
  2
Annotative
 70
     0
 40
0.0
 41
1.0
 50
0.0
 71
     0
 42
0.2
  3
txt
  4

1001
AcadAnnotative
1000
AnnotativeData
1002
{
1070
     1
1070
     1
1002
}
  0
STYLE
  5
7B
330
3
100
AcDbSymbolTableRecord
100
AcDbTextStyleTableRecord
  2
TATEGAKI
 70
     4
 40
0.0
 41
1.0
 50
0.0
 71
     0
 42
0.0
  3
txt.shx
  4
extfont.shx
  0
STYLE
  5
7C
330
3
100
AcDbSymbolTableRecord
100
AcDbTextStyleTableRecord
  2
DIM
 70
     0
 40
0.0
 41
0.75
 50
0.0
 71
     0
 42
0.0
  3
txt.shx
  4
extfont.shx
  0
STYLE
  5
7D
330
3
100
AcDbSymbolTableRecord
100
AcDbTextStyleTableRecord
  2
_GOTHIC__
 70
     0
 40
0.0
 41
1.0
 50
0.0
 71
     0
 42
0.0
  3
MS Gothic
  4

  0
STYLE
  5
7E
330
3
100
AcDbSymbolTableRecord
100
AcDbTextStyleTableRecord
  2
_TATEGOTHIC_
 70
     4
 40
0.0
 41
1.0
 50
0.0
 71
     0
 42
0.0
  3
@MS Gothic
  4

  0
ENDTAB
  0
TABLE
  2
VIEW
  5
6
330
0
100
AcDbSymbolTable
 70
     0
  0
ENDTAB
  0
TABLE
  2
UCS
  5
7
330
0
100
AcDbSymbolTable
 70
     0
  0
ENDTAB
  0
TABLE
  2
APPID
  5
9
330
0
100
AcDbSymbolTable
 70
     4
  0
APPID
  5
56
330
9
100
AcDbSymbolTableRecord
100
AcDbRegAppTableRecord
  2
ACAD
 70
     0
  0
APPID
  5
5D
330
9
100
AcDbSymbolTableRecord
100
AcDbRegAppTableRecord
  2
AcadAnnotative
 70
     0
  0
APPID
  5
299
330
9
100
AcDbSymbolTableRecord
100
AcDbRegAppTableRecord
  2
ACAD_NAV_VCDISPLAY
 70
     0
  0
APPID
  5
2D2
330
9
100
AcDbSymbolTableRecord
100
AcDbRegAppTableRecord
  2
ACAD_MLEADERVER
 70
     0
  0
ENDTAB
  0
TABLE
  2
DIMSTYLE
  5
A
330
0
100
AcDbSymbolTable
 70
     2
100
AcDbDimStyleTable
 71
     0
  0
DIMSTYLE
105
57
330
A
100
AcDbSymbolTableRecord
100
AcDbDimStyleTableRecord
  2
Standard
 70
     0
340
55
  0
DIMSTYLE
105
58
330
A
100
AcDbSymbolTableRecord
100
AcDbDimStyleTableRecord
  2
Annotative
 70
     0
340
55
1001
AcadAnnotative
1000
AnnotativeData
1002
{
1070
     1
1070
     1
1002
}
  0
ENDTAB
  0
TABLE
  2
BLOCK_RECORD
  5
1
330
0
100
AcDbSymbolTable
 70
     0
  0
BLOCK_RECORD
  5
6F
330
1
100
AcDbSymbolTableRecord
100
AcDbBlockTableRecord
  2
*Model_Space
340
72
  0
BLOCK_RECORD
  5
6B
330
1
100
AcDbSymbolTableRecord
100
AcDbBlockTableRecord
  2
*Paper_Space
340
6E
  0
ENDTAB
  0
ENDSEC
  0
SECTION
  2
BLOCKS
  0
BLOCK
  5
70
330
6F
100
AcDbEntity
  8
0
100
AcDbBlockBegin
  2
*Model_Space
 70
     0
 10
0.0
 20
0.0
 30
0.0
  3
*Model_Space
  1

  0
ENDBLK
  5
71
330
6F
100
AcDbEntity
  8
0
100
AcDbBlockEnd
  0
BLOCK
  5
6C
330
6B
100
AcDbEntity
 67
     1
  8
0
100
AcDbBlockBegin
  2
*Paper_Space
 70
     0
 10
0.0
 20
0.0
 30
0.0
  3
*Paper_Space
  1

  0
ENDBLK
  5
6D
330
6B
100
AcDbEntity
 67
     1
  8
0
100
AcDbBlockEnd
  0
ENDSEC
  0
SECTION
  2
ENTITIES
  0
LINE
  5
8D
330
6F
100
AcDbEntity
  8
1-0
  6
Continuous
 62
     7
100
AcDbLine
 10
0.0
 20
0.0
 30
0.0
 11
4200.0
 21
0.0
 31
0.0
  0
LINE
  5
8E
330
6F
100
AcDbEntity
  8
1-0
  6
Continuous
 62
     7
100
AcDbLine
 10
4200.0
 20
0.0
 30
0.0
 11
4200.0
 21
2970.0
 31
0.0
  0
LINE
  5
8F
330
6F
100
AcDbEntity
  8
1-0
  6
Continuous
 62
     7
100
AcDbLine
 10
4200.0
 20
2970.0
 30
0.0
 11
0.0
 21
2970.0
 31
0.0
  0
LINE
  5
90
330
6F
100
AcDbEntity
  8
1-0
  6
Continuous
 62
     7
100
AcDbLine
 10
0.0
 20
2970.0
 30
0.0
 11
0.0
 21
0.0
 31
0.0
  0
LINE
  5
91
330
6F
100
AcDbEntity
  8
8-0
  6
Continuous
 62
     7
100
AcDbLine
 10
100.0
 20
100.0
 30
0.0
 11
4100.0
 21
100.0
 31
0.0
  0
LINE
  5
92
330
6F
100
AcDbEntity
  8
8-0
  6
Continuous
 62
     7
100
AcDbLine
 10
2500.0
 20
300.0
 30
0.0
 11
4100.0
 21
300.0
 31
0.0
  0
LINE
  5
93
330
6F
100
AcDbEntity
  8
6-0
  6
Continuous
 62
     7
100
AcDbLine
 10
2500.0
 20
240.0
 30
0.0
 11
3150.0
 21
240.0
 31
0.0
  0
LINE
  5
94
330
6F
100
AcDbEntity
  8
8-0
  6
Continuous
 62
     7
100
AcDbLine
 10
4100.0
 20
100.0
 30
0.0
 11
4100.0
 21
2870.0
 31
0.0
  0
LINE
  5
95
330
6F
100
AcDbEntity
  8
8-0
  6
Continuous
 62
     7
100
AcDbLine
 10
4100.0
 20
2870.0
 30
0.0
 11
100.0
 21
2870.0
 31
0.0
  0
LINE
  5
96
330
6F
100
AcDbEntity
  8
8-0
  6
Continuous
 62
     7
100
AcDbLine
 10
100.0
 20
2870.0
 30
0.0
 11
100.0
 21
100.0
 31
0.0
  0
LINE
  5
97
330
6F
100
AcDbEntity
  8
6-0
  6
Continuous
 62
     7
100
AcDbLine
 10
3150.0
 20
100.0
 30
0.0
 11
3150.0
 21
300.0
 31
0.0
  0
LINE
  5
98
330
6F
100
AcDbEntity
  8
8-0
  6
Continuous
 62
     7
100
AcDbLine
 10
2500.0
 20
100.0
 30
0.0
 11
2500.0
 21
300.0
 31
0.0
  0
TEXT
  5
99
330
6F
100
AcDbEntity
  8
D-0
 62
     5
100
AcDbText
 10
2788.434
 20
252.531
 30
0.0
 40
31.104
  1
品番
100
AcDbText
  0
TEXT
  5
9A
330
6F
100
AcDbEntity
  8
D-0
 62
     5
100
AcDbText
 10
2731.57
 20
139.742
 30
0.0
 40
51.84000000000001
  1
QL-600
100
AcDbText
  0
TEXT
  5
9B
330
6F
100
AcDbEntity
  8
D-0
 62
     5
100
AcDbText
 10
3353.56
 20
192.32
 30
0.0
 40
62.208
  1
アイオ産業株式会社
100
AcDbText
  0
TEXT
  5
9C
330
6F
100
AcDbEntity
  8
D-0
 62
     5
100
AcDbText
 10
3427.941
 20
124.513
 30
0.0
 40
31.104
  1
アイオシステムキッチン事業部
100
AcDbText
  0
ARC
  5
9D
330
6F
100
AcDbEntity
  8
2-0
  6
Continuous
 62
     7
100
AcDbCircle
 10
3255.659538175486
 20
200.204166274297
 30
0.0
 40
63.24278074506601
100
AcDbArc
 50
319.753
 51
220.247
  0
CIRCLE
  5
9E
330
6F
100
AcDbEntity
  8
2-0
  6
Continuous
 62
     7
100
AcDbCircle
 10
3255.659538175486
 20
200.204166274297
 30
0.0
 40
71.58304716886799
  0
CIRCLE
  5
9F
330
6F
100
AcDbEntity
  8
2-0
  6
Continuous
 62
     7
100
AcDbCircle
 10
3255.659538175486
 20
200.204166274297
 30
0.0
 40
72.000060490058
  0
CIRCLE
  5
A0
330
6F
100
AcDbEntity
  8
2-0
  6
Continuous
 62
     7
100
AcDbCircle
 10
3255.659538175486
 20
200.204166274297
 30
0.0
 40
72.417073811248
  0
CIRCLE
  5
A1
330
6F
100
AcDbEntity
  8
2-0
  6
Continuous
 62
     7
100
AcDbCircle
 10
3255.659538175486
 20
200.204166274297
 30
0.0
 40
72.834087132438
  0
CIRCLE
  5
A2
330
6F
100
AcDbEntity
  8
2-0
  6
Continuous
 62
     7
100
AcDbCircle
 10
3255.659538175486
 20
200.204166274297
 30
0.0
 40
73.251100453628
  0
CIRCLE
  5
A3
330
6F
100
AcDbEntity
  8
2-0
  6
Continuous
 62
     7
100
AcDbCircle
 10
3255.659538175486
 20
200.204166274297
 30
0.0
 40
73.459607114223
  0
CIRCLE
  5
A4
330
6F
100
AcDbEntity
  8
2-0
  6
Continuous
 62
     7
100
AcDbCircle
 10
3255.659538175486
 20
200.204166274297
 30
0.0
 40
73.04259379303299
  0
CIRCLE
  5
A5
330
6F
100
AcDbEntity
  8
2-0
  6
Continuous
 62
     7
100
AcDbCircle
 10
3255.659538175486
 20
200.204166274297
 30
0.0
 40
72.62558047184301
  0
CIRCLE
  5
A6
330
6F
100
AcDbEntity
  8
2-0
  6
Continuous
 62
     7
100
AcDbCircle
 10
3255.659538175486
 20
200.204166274297
 30
0.0
 40
72.20856715065299
  0
CIRCLE
  5
A7
330
6F
100
AcDbEntity
  8
2-0
  6
Continuous
 62
     7
100
AcDbCircle
 10
3255.659538175486
 20
200.204166274297
 30
0.0
 40
71.791553829463
  0
CIRCLE
  5
A8
330
6F
100
AcDbEntity
  8
2-0
  6
Continuous
 62
     7
100
AcDbCircle
 10
3255.659538175486
 20
200.204166274297
 30
0.0
 40
71.791553829463
  0
ARC
  5
A9
330
6F
100
AcDbEntity
  8
2-0
  6
Continuous
 62
     7
100
AcDbCircle
 10
3255.659538175486
 20
200.204166274297
 30
0.0
 40
63.45128740566099
100
AcDbArc
 50
319.753
 51
220.247
  0
CIRCLE
  5
AA
330
6F
100
AcDbEntity
  8
2-0
  6
Continuous
 62
     7
100
AcDbCircle
 10
3255.659538175486
 20
200.204166274297
 30
0.0
 40
71.374540508273
  0
ARC
  5
AB
330
6F
100
AcDbEntity
  8
2-0
  6
Continuous
 62
     7
100
AcDbCircle
 10
3255.659538175486
 20
200.204166274297
 30
0.0
 40
63.03427408447099
100
AcDbArc
 50
319.753
 51
220.247
  0
TEXT
  5
AC
330
6F
100
AcDbEntity
  8
2-0
 62
     7
100
AcDbText
 10
3216.455
 20
142.198
 30
0.0
 40
48.64
  1
A
100
AcDbText
  0
TEXT
  5
AD
330
6F
100
AcDbEntity
  8
2-0
 62
     7
100
AcDbText
 10
3258.946
 20
142.301
 30
0.0
 40
48.64
  1
I
100
AcDbText
  0
TEXT
  5
AE
330
6F
100
AcDbEntity
  8
2-0
 62
     7
100
AcDbText
 10
3269.344
 20
142.267
 30
0.0
 40
48.64
  1
O
100
AcDbText
  0
LINE
  5
AF
330
6F
100
AcDbEntity
  8
1-0
  6
Continuous
 62
     7
100
AcDbLine
 10
1088.094298
 20
1561.433442
 30
0.0
 11
1388.094298
 21
1561.433442
 31
0.0
  0
LINE
  5
B0
330
6F
100
AcDbEntity
  8
1-0
  6
Continuous
 62
     7
100
AcDbLine
 10
1088.094298
 20
1555.433442
 30
0.0
 11
1088.094298
 21
1561.433442
 31
0.0
  0
LINE
  5
B1
330
6F
100
AcDbEntity
  8
1-0
  6
Continuous
 62
     7
100
AcDbLine
 10
1094.094298
 20
1224.433442
 30
0.0
 11
1094.094298
 21
1552.433442
 31
0.0
  0
LINE
  5
B2
330
6F
100
AcDbEntity
  8
1-0
  6
Continuous
 62
     7
100
AcDbLine
 10
1388.094298
 20
1561.433442
 30
0.0
 11
1688.094298
 21
1561.433442
 31
0.0
  0
LINE
  5
B3
330
6F
100
AcDbEntity
  8
1-0
  6
Continuous
 62
     7
100
AcDbLine
 10
1387.094298
 20
1546.433442
 30
0.0
 11
1673.094298
 21
1546.433442
 31
0.0
  0
LINE
  5
B4
330
6F
100
AcDbEntity
  8
1-0
  6
Continuous
 62
     7
100
AcDbLine
 10
1688.094298
 20
1561.433442
 30
0.0
 11
1688.094298
 21
1221.433442
 31
0.0
  0
LINE
  5
B5
330
6F
100
AcDbEntity
  8
1-0
  6
Continuous
 62
     7
100
AcDbLine
 10
1688.094298
 20
1221.433442
 30
0.0
 11
1688.094298
 21
1561.433442
 31
0.0
  0
LINE
  5
B6
330
6F
100
AcDbEntity
  8
1-0
  6
Continuous
 62
     7
100
AcDbLine
 10
1673.094298
 20
1218.433442
 30
0.0
 11
1673.094298
 21
1561.433442
 31
0.0
  0
LINE
  5
B7
330
6F
100
AcDbEntity
  8
1-0
  6
Continuous
 62
     7
100
AcDbLine
 10
1395.594298
 20
1228.933442
 30
0.0
 11
1395.594298
 21
1546.433442
 31
0.0
  0
LINE
  5
B8
330
6F
100
AcDbEntity
  8
1-0
  6
Continuous
 62
     7
100
AcDbLine
 10
1103.094298
 20
1213.933442
 30
0.0
 11
1389.094298
 21
1213.933442
 31
0.0
  0
LINE
  5
B9
330
6F
100
AcDbEntity
  8
1-0
  6
Continuous
 62
     7
100
AcDbLine
 10
1388.094298
 20
881.4334419999999
 30
0.0
 11
1088.094298
 21
881.4334419999999
 31
0.0
  0
LINE
  5
BA
330
6F
100
AcDbEntity
  8
1-0
  6
Continuous
 62
     7
100
AcDbLine
 10
1088.094298
 20
881.4334419999999
 30
0.0
 11
1388.094298
 21
881.4334419999999
 31
0.0
  0
LINE
  5
BB
330
6F
100
AcDbEntity
  8
1-0
  6
Continuous
 62
     7
100
AcDbLine
 10
1103.094298
 20
896.433442
 30
0.0
 11
1389.094298
 21
896.433442
 31
0.0
  0
LINE
  5
BC
330
6F
100
AcDbEntity
  8
1-0
  6
Continuous
 62
     7
100
AcDbLine
 10
1088.094298
 20
881.4334419999999
 30
0.0
 11
1088.094298
 21
1221.433442
 31
0.0
  0
LINE
  5
BD
330
6F
100
AcDbEntity
  8
1-0
  6
Continuous
 62
     7
100
AcDbLine
 10
1103.094298
 20
881.4334419999999
 30
0.0
 11
1103.094298
 21
1224.433442
 31
0.0
  0
LINE
  5
BE
330
6F
100
AcDbEntity
  8
1-0
  6
Continuous
 62
     7
100
AcDbLine
 10
1387.094298
 20
1228.933442
 30
0.0
 11
1673.094298
 21
1228.933442
 31
0.0
  0
LINE
  5
BF
330
6F
100
AcDbEntity
  8
1-0
  6
Continuous
 62
     7
100
AcDbLine
 10
1688.094298
 20
1221.433442
 30
0.0
 11
1688.094298
 21
881.4334419999999
 31
0.0
  0
LINE
  5
C0
330
6F
100
AcDbEntity
  8
1-0
  6
Continuous
 62
     7
100
AcDbLine
 10
1688.094298
 20
881.4334419999999
 30
0.0
 11
1388.094298
 21
881.4334419999999
 31
0.0
  0
LINE
  5
C1
330
6F
100
AcDbEntity
  8
1-0
  6
Continuous
 62
     7
100
AcDbLine
 10
1388.094298
 20
881.4334419999999
 30
0.0
 11
1688.094298
 21
881.4334419999999
 31
0.0
  0
LINE
  5
C2
330
6F
100
AcDbEntity
  8
1-0
  6
Continuous
 62
     7
100
AcDbLine
 10
1688.094298
 20
881.4334419999999
 30
0.0
 11
1688.094298
 21
1221.433442
 31
0.0
  0
LINE
  5
C3
330
6F
100
AcDbEntity
  8
1-0
  6
Continuous
 62
     7
100
AcDbLine
 10
1682.094298
 20
890.4334419999999
 30
0.0
 11
1682.094298
 21
1218.433442
 31
0.0
  0
LINE
  5
C4
330
6F
100
AcDbEntity
  8
1-0
  6
Continuous
 62
     7
100
AcDbLine
 10
1380.594298
 20
896.433442
 30
0.0
 11
1380.594298
 21
1213.933442
 31
0.0
  0
LINE
  5
C5
330
6F
100
AcDbEntity
  8
9-0
  6
Continuous
 62
     4
100
AcDbLine
 10
1088.094298
 20
1581.433442
 30
0.0
 11
1088.094298
 21
1740.175321
 31
0.0
  0
LINE
  5
C6
330
6F
100
AcDbEntity
  8
9-0
  6
Continuous
 62
     4
100
AcDbLine
 10
1688.094298
 20
1581.433442
 30
0.0
 11
1688.094298
 21
1740.175321
 31
0.0
  0
TEXT
  5
C7
330
6F
100
AcDbEntity
  8
9-0
 62
     4
100
AcDbText
 10
1357.317
 20
1740.795
 30
0.0
 40
36.288
  1
600
100
AcDbText
  0
LINE
  5
C8
330
6F
100
AcDbEntity
  8
9-0
  6
Continuous
 62
     4
100
AcDbLine
 10
1688.094298275224
 20
1740.175321118375
 30
0.0
 11
1088.094298275224
 21
1740.175321118375
 31
0.0
  0
CIRCLE
  5
C9
330
6F
100
AcDbEntity
  8
9-0
  6
Continuous
 62
     4
100
AcDbCircle
 10
1688.094298275224
 20
1740.175321118375
 30
0.0
 40
0.25
  0
CIRCLE
  5
CA
330
6F
100
AcDbEntity
  8
9-0
  6
Continuous
 62
     4
100
AcDbCircle
 10
1688.094298275224
 20
1740.175321118375
 30
0.0
 40
0.1875
  0
CIRCLE
  5
CB
330
6F
100
AcDbEntity
  8
9-0
  6
Continuous
 62
     4
100
AcDbCircle
 10
1688.094298275224
 20
1740.175321118375
 30
0.0
 40
0.125
  0
CIRCLE
  5
CC
330
6F
100
AcDbEntity
  8
9-0
  6
Continuous
 62
     4
100
AcDbCircle
 10
1688.094298275224
 20
1740.175321118375
 30
0.0
 40
0.0625
  0
CIRCLE
  5
CD
330
6F
100
AcDbEntity
  8
9-0
  6
Continuous
 62
     4
100
AcDbCircle
 10
1088.094298275224
 20
1740.175321118375
 30
0.0
 40
0.25
  0
CIRCLE
  5
CE
330
6F
100
AcDbEntity
  8
9-0
  6
Continuous
 62
     4
100
AcDbCircle
 10
1088.094298275224
 20
1740.175321118375
 30
0.0
 40
0.1875
  0
CIRCLE
  5
CF
330
6F
100
AcDbEntity
  8
9-0
  6
Continuous
 62
     4
100
AcDbCircle
 10
1088.094298275224
 20
1740.175321118375
 30
0.0
 40
0.125
  0
CIRCLE
  5
D0
330
6F
100
AcDbEntity
  8
9-0
  6
Continuous
 62
     4
100
AcDbCircle
 10
1088.094298275224
 20
1740.175321118375
 30
0.0
 40
0.0625
  0
LINE
  5
D1
330
6F
100
AcDbEntity
  8
9-0
  6
Continuous
 62
     4
100
AcDbLine
 10
1068.094298
 20
1561.433442
 30
0.0
 11
913.5234099999999
 21
1561.433442
 31
0.0
  0
LINE
  5
D2
330
6F
100
AcDbEntity
  8
9-0
  6
Continuous
 62
     4
100
AcDbLine
 10
1068.094298
 20
881.4334419999999
 30
0.0
 11
913.5234099999999
 21
881.4334419999999
 31
0.0
  0
TEXT
  5
D3
330
6F
100
AcDbEntity
  8
9-0
 62
     4
100
AcDbText
 10
912.903
 20
1187.833
 30
0.0
 40
36.288
  1
680
 50
90.0
100
AcDbText
  0
LINE
  5
D4
330
6F
100
AcDbEntity
  8
9-0
  6
Continuous
 62
     4
100
AcDbLine
 10
913.5234099762211
 20
881.4334423312379
 30
0.0
 11
913.5234099762211
 21
1561.433442331238
 31
0.0
  0
CIRCLE
  5
D5
330
6F
100
AcDbEntity
  8
9-0
  6
Continuous
 62
     4
100
AcDbCircle
 10
913.5234099762211
 20
881.4334423312379
 30
0.0
 40
0.25
  0
CIRCLE
  5
D6
330
6F
100
AcDbEntity
  8
9-0
  6
Continuous
 62
     4
100
AcDbCircle
 10
913.5234099762211
 20
881.4334423312379
 30
0.0
 40
0.1875
  0
CIRCLE
  5
D7
330
6F
100
AcDbEntity
  8
9-0
  6
Continuous
 62
     4
100
AcDbCircle
 10
913.5234099762211
 20
881.4334423312379
 30
0.0
 40
0.125
  0
CIRCLE
  5
D8
330
6F
100
AcDbEntity
  8
9-0
  6
Continuous
 62
     4
100
AcDbCircle
 10
913.5234099762211
 20
881.4334423312379
 30
0.0
 40
0.0625
  0
CIRCLE
  5
D9
330
6F
100
AcDbEntity
  8
9-0
  6
Continuous
 62
     4
100
AcDbCircle
 10
913.5234099762211
 20
1561.433442331238
 30
0.0
 40
0.25
  0
CIRCLE
  5
DA
330
6F
100
AcDbEntity
  8
9-0
  6
Continuous
 62
     4
100
AcDbCircle
 10
913.5234099762211
 20
1561.433442331238
 30
0.0
 40
0.1875
  0
CIRCLE
  5
DB
330
6F
100
AcDbEntity
  8
9-0
  6
Continuous
 62
     4
100
AcDbCircle
 10
913.5234099762211
 20
1561.433442331238
 30
0.0
 40
0.125
  0
CIRCLE
  5
DC
330
6F
100
AcDbEntity
  8
9-0
  6
Continuous
 62
     4
100
AcDbCircle
 10
913.5234099762211
 20
1561.433442331238
 30
0.0
 40
0.0625
  0
LINE
  5
DD
330
6F
100
AcDbEntity
  8
1-0
  6
Continuous
 62
     7
100
AcDbLine
 10
1088.094298
 20
1561.433442
 30
0.0
 11
1088.094298
 21
1555.433442
 31
0.0
  0
LINE
  5
DE
330
6F
100
AcDbEntity
  8
1-0
  6
Continuous
 62
     7
100
AcDbLine
 10
1088.094298
 20
1555.433442
 30
0.0
 11
1088.094298
 21
1221.433442
 31
0.0
  0
LINE
  5
DF
330
6F
100
AcDbEntity
  8
9-0
  6
Continuous
 62
     4
100
AcDbLine
 10
1702.094298
 20
1218.433442
 30
0.0
 11
1793.355936
 21
1218.433442
 31
0.0
  0
LINE
  5
E0
330
6F
100
AcDbEntity
  8
9-0
  6
Continuous
 62
     4
100
AcDbLine
 10
1702.094298
 20
890.4334419999999
 30
0.0
 11
1793.355936
 21
890.4334419999999
 31
0.0
  0
TEXT
  5
E1
330
6F
100
AcDbEntity
  8
9-0
 62
     4
100
AcDbText
 10
1792.736
 20
1020.833
 30
0.0
 40
36.288
  1
328
 50
90.0
100
AcDbText
  0
LINE
  5
E2
330
6F
100
AcDbEntity
  8
9-0
  6
Continuous
 62
     4
100
AcDbLine
 10
1793.355935663073
 20
890.4334423312379
 30
0.0
 11
1793.355935663073
 21
1218.433442331238
 31
0.0
  0
CIRCLE
  5
E3
330
6F
100
AcDbEntity
  8
9-0
  6
Continuous
 62
     4
100
AcDbCircle
 10
1793.355935663073
 20
890.4334423312379
 30
0.0
 40
0.25
  0
CIRCLE
  5
E4
330
6F
100
AcDbEntity
  8
9-0
  6
Continuous
 62
     4
100
AcDbCircle
 10
1793.355935663073
 20
890.4334423312379
 30
0.0
 40
0.1875
  0
CIRCLE
  5
E5
330
6F
100
AcDbEntity
  8
9-0
  6
Continuous
 62
     4
100
AcDbCircle
 10
1793.355935663073
 20
890.4334423312379
 30
0.0
 40
0.125
  0
CIRCLE
  5
E6
330
6F
100
AcDbEntity
  8
9-0
  6
Continuous
 62
     4
100
AcDbCircle
 10
1793.355935663073
 20
890.4334423312379
 30
0.0
 40
0.0625
  0
CIRCLE
  5
E7
330
6F
100
AcDbEntity
  8
9-0
  6
Continuous
 62
     4
100
AcDbCircle
 10
1793.355935663073
 20
1218.433442331238
 30
0.0
 40
0.25
  0
CIRCLE
  5
E8
330
6F
100
AcDbEntity
  8
9-0
  6
Continuous
 62
     4
100
AcDbCircle
 10
1793.355935663073
 20
1218.433442331238
 30
0.0
 40
0.1875
  0
CIRCLE
  5
E9
330
6F
100
AcDbEntity
  8
9-0
  6
Continuous
 62
     4
100
AcDbCircle
 10
1793.355935663073
 20
1218.433442331238
 30
0.0
 40
0.125
  0
CIRCLE
  5
EA
330
6F
100
AcDbEntity
  8
9-0
  6
Continuous
 62
     4
100
AcDbCircle
 10
1793.355935663073
 20
1218.433442331238
 30
0.0
 40
0.0625
  0
LINE
  5
EB
330
6F
100
AcDbEntity
  8
9-0
  6
Continuous
 62
     4
100
AcDbLine
 10
1389.094298
 20
870.433442
 30
0.0
 11
1389.094298
 21
780.008218
 31
0.0
  0
LINE
  5
EC
330
6F
100
AcDbEntity
  8
9-0
  6
Continuous
 62
     4
100
AcDbLine
 10
1682.094298
 20
870.433442
 30
0.0
 11
1682.094298
 21
780.008218
 31
0.0
  0
TEXT
  5
ED
330
6F
100
AcDbEntity
  8
9-0
 62
     4
100
AcDbText
 10
1504.817
 20
780.628
 30
0.0
 40
36.288
  1
293
100
AcDbText
  0
LINE
  5
EE
330
6F
100
AcDbEntity
  8
9-0
  6
Continuous
 62
     4
100
AcDbLine
 10
1682.094298275224
 20
780.0082183656099
 30
0.0
 11
1389.094298275224
 21
780.0082183656099
 31
0.0
  0
CIRCLE
  5
EF
330
6F
100
AcDbEntity
  8
9-0
  6
Continuous
 62
     4
100
AcDbCircle
 10
1682.094298275224
 20
780.0082183656099
 30
0.0
 40
0.25
  0
CIRCLE
  5
F0
330
6F
100
AcDbEntity
  8
9-0
  6
Continuous
 62
     4
100
AcDbCircle
 10
1682.094298275224
 20
780.0082183656099
 30
0.0
 40
0.1875
  0
CIRCLE
  5
F1
330
6F
100
AcDbEntity
  8
9-0
  6
Continuous
 62
     4
100
AcDbCircle
 10
1682.094298275224
 20
780.0082183656099
 30
0.0
 40
0.125
  0
CIRCLE
  5
F2
330
6F
100
AcDbEntity
  8
9-0
  6
Continuous
 62
     4
100
AcDbCircle
 10
1682.094298275224
 20
780.0082183656099
 30
0.0
 40
0.0625
  0
CIRCLE
  5
F3
330
6F
100
AcDbEntity
  8
9-0
  6
Continuous
 62
     4
100
AcDbCircle
 10
1389.094298275224
 20
780.0082183656099
 30
0.0
 40
0.25
  0
CIRCLE
  5
F4
330
6F
100
AcDbEntity
  8
9-0
  6
Continuous
 62
     4
100
AcDbCircle
 10
1389.094298275224
 20
780.0082183656099
 30
0.0
 40
0.1875
  0
CIRCLE
  5
F5
330
6F
100
AcDbEntity
  8
9-0
  6
Continuous
 62
     4
100
AcDbCircle
 10
1389.094298275224
 20
780.0082183656099
 30
0.0
 40
0.125
  0
CIRCLE
  5
F6
330
6F
100
AcDbEntity
  8
9-0
  6
Continuous
 62
     4
100
AcDbCircle
 10
1389.094298275224
 20
780.0082183656099
 30
0.0
 40
0.0625
  0
LINE
  5
F7
330
6F
100
AcDbEntity
  8
1-0
  6
Continuous
 62
     7
100
AcDbLine
 10
1103.094298
 20
1561.433442
 30
0.0
 11
1103.094298
 21
1552.433442
 31
0.0
  0
LINE
  5
F8
330
6F
100
AcDbEntity
  8
1-0
  6
Continuous
 62
     7
100
AcDbLine
 10
1389.094298
 20
1218.433442
 30
0.0
 11
1682.094298
 21
1218.433442
 31
0.0
  0
LINE
  5
F9
330
6F
100
AcDbEntity
  8
1-0
  6
Continuous
 62
     7
100
AcDbLine
 10
1389.094298
 20
890.4334419999999
 30
0.0
 11
1682.094298
 21
890.4334419999999
 31
0.0
  0
LINE
  5
FA
330
6F
100
AcDbEntity
  8
1-0
  6
Continuous
 62
     7
100
AcDbLine
 10
1094.094298
 20
1224.433442
 30
0.0
 11
1387.094298
 21
1224.433442
 31
0.0
  0
LINE
  5
FB
330
6F
100
AcDbEntity
  8
1-0
  6
Continuous
 62
     7
100
AcDbLine
 10
1094.094298
 20
1552.433442
 30
0.0
 11
1387.094298
 21
1552.433442
 31
0.0
  0
LINE
  5
FC
330
6F
100
AcDbEntity
  8
1-0
  6
Continuous
 62
     7
100
AcDbLine
 10
1673.094298
 20
881.4334419999999
 30
0.0
 11
1673.094298
 21
890.4334419999999
 31
0.0
  0
LINE
  5
FD
330
6F
100
AcDbEntity
  8
1-0
  6
Continuous
 62
     7
100
AcDbLine
 10
1389.094298
 20
890.4334419999999
 30
0.0
 11
1389.094298
 21
1218.433442
 31
0.0
  0
LINE
  5
FE
330
6F
100
AcDbEntity
  8
1-0
  6
Continuous
 62
     7
100
AcDbLine
 10
1387.094298
 20
1224.433442
 30
0.0
 11
1387.094298
 21
1552.433442
 31
0.0
  0
LINE
  5
FF
330
6F
100
AcDbEntity
  8
2-0
  6
CENTER
 62
     7
100
AcDbLine
 10
1682.094298
 20
1054.433442
 30
0.0
 11
1389.094298
 21
890.4334419999999
 31
0.0
  0
LINE
  5
100
330
6F
100
AcDbEntity
  8
2-0
  6
CENTER
 62
     7
100
AcDbLine
 10
1389.094298
 20
1218.433442
 30
0.0
 11
1682.094298
 21
1054.433442
 31
0.0
  0
LINE
  5
101
330
6F
100
AcDbEntity
  8
2-0
  6
CENTER
 62
     7
100
AcDbLine
 10
1094.094298
 20
1388.433442
 30
0.0
 11
1387.094298
 21
1224.433442
 31
0.0
  0
LINE
  5
102
330
6F
100
AcDbEntity
  8
2-0
  6
CENTER
 62
     7
100
AcDbLine
 10
1387.094298
 20
1552.433442
 30
0.0
 11
1094.094298
 21
1388.433442
 31
0.0
  0
LINE
  5
103
330
6F
100
AcDbEntity
  8
1-0
  6
Continuous
 62
     7
100
AcDbLine
 10
2489.727697
 20
1561.433442
 30
0.0
 11
2489.727697
 21
881.4334419999999
 31
0.0
  0
LINE
  5
104
330
6F
100
AcDbEntity
  8
1-0
  6
Continuous
 62
     7
100
AcDbLine
 10
2489.727697
 20
881.4334419999999
 30
0.0
 11
2731.727697
 21
881.4334419999999
 31
0.0
  0
LINE
  5
105
330
6F
100
AcDbEntity
  8
1-0
  6
Continuous
 62
     7
100
AcDbLine
 10
2731.727697
 20
1561.433442
 30
0.0
 11
2489.727697
 21
1561.433442
 31
0.0
  0
LINE
  5
106
330
6F
100
AcDbEntity
  8
1-0
  6
Continuous
 62
     7
100
AcDbLine
 10
2504.727697
 20
1546.433442
 30
0.0
 11
2504.727697
 21
896.433442
 31
0.0
  0
LINE
  5
107
330
6F
100
AcDbEntity
  8
1-0
  6
Continuous
 62
     7
100
AcDbLine
 10
2734.727697
 20
890.4334419999999
 30
0.0
 11
2734.727697
 21
1552.433442
 31
0.0
  0
LINE
  5
108
330
6F
100
AcDbEntity
  8
1-0
  6
Continuous
 62
     7
100
AcDbLine
 10
2749.727697
 20
1224.433442
 30
0.0
 11
2749.727697
 21
1552.433442
 31
0.0
  0
LINE
  5
109
330
6F
100
AcDbEntity
  8
1-0
  6
Continuous
 62
     7
100
AcDbLine
 10
2734.727697
 20
1552.433442
 30
0.0
 11
2749.727697
 21
1552.433442
 31
0.0
  0
LINE
  5
10A
330
6F
100
AcDbEntity
  8
1-0
  6
Continuous
 62
     7
100
AcDbLine
 10
2749.727697
 20
1552.433442
 30
0.0
 11
2749.727697
 21
1224.433442
 31
0.0
  0
LINE
  5
10B
330
6F
100
AcDbEntity
  8
1-0
  6
Continuous
 62
     7
100
AcDbLine
 10
2749.727697
 20
1224.433442
 30
0.0
 11
2734.727697
 21
1224.433442
 31
0.0
  0
LINE
  5
10C
330
6F
100
AcDbEntity
  8
1-0
  6
Continuous
 62
     7
100
AcDbLine
 10
2734.727697
 20
890.4334419999999
 30
0.0
 11
2749.727697
 21
890.4334419999999
 31
0.0
  0
LINE
  5
10D
330
6F
100
AcDbEntity
  8
1-0
  6
Continuous
 62
     7
100
AcDbLine
 10
2749.334042
 20
1218.433442
 30
0.0
 11
2734.727697
 21
1218.433442
 31
0.0
  0
LINE
  5
10E
330
6F
100
AcDbEntity
  8
1-0
  6
DASHED2
 62
     7
100
AcDbLine
 10
2504.727697
 20
1228.933442
 30
0.0
 11
2731.727697
 21
1228.933442
 31
0.0
  0
LINE
  5
10F
330
6F
100
AcDbEntity
  8
1-0
  6
DASHED2
 62
     7
100
AcDbLine
 10
2504.727697
 20
1213.933442
 30
0.0
 11
2731.727697
 21
1213.933442
 31
0.0
  0
LINE
  5
110
330
6F
100
AcDbEntity
  8
1-0
  6
Continuous
 62
     7
100
AcDbLine
 10
2731.727697
 20
881.4334419999999
 30
0.0
 11
2731.727697
 21
1561.433442
 31
0.0
  0
LINE
  5
111
330
6F
100
AcDbEntity
  8
1-0
  6
Continuous
 62
     7
100
AcDbLine
 10
2734.727697
 20
1221.433442
 30
0.0
 11
2734.727697
 21
1212.284201
 31
0.0
  0
LINE
  5
112
330
6F
100
AcDbEntity
  8
9-0
  6
Continuous
 62
     4
100
AcDbLine
 10
2489.727697
 20
861.433442
 30
0.0
 11
2489.727697
 21
801.5389649999999
 31
0.0
  0
LINE
  5
113
330
6F
100
AcDbEntity
  8
9-0
  6
Continuous
 62
     4
100
AcDbLine
 10
2731.727697
 20
861.433442
 30
0.0
 11
2731.727697
 21
801.5389649999999
 31
0.0
  0
TEXT
  5
114
330
6F
100
AcDbEntity
  8
9-0
 62
     4
100
AcDbText
 10
2579.95
 20
802.1589999999999
 30
0.0
 40
36.288
  1
242
100
AcDbText
  0
LINE
  5
115
330
6F
100
AcDbEntity
  8
9-0
  6
Continuous
 62
     4
100
AcDbLine
 10
2731.727697481689
 20
801.538964513227
 30
0.0
 11
2489.727697481689
 21
801.538964513227
 31
0.0
  0
CIRCLE
  5
116
330
6F
100
AcDbEntity
  8
9-0
  6
Continuous
 62
     4
100
AcDbCircle
 10
2731.727697481689
 20
801.538964513227
 30
0.0
 40
0.25
  0
CIRCLE
  5
117
330
6F
100
AcDbEntity
  8
9-0
  6
Continuous
 62
     4
100
AcDbCircle
 10
2731.727697481689
 20
801.538964513227
 30
0.0
 40
0.1875
  0
CIRCLE
  5
118
330
6F
100
AcDbEntity
  8
9-0
  6
Continuous
 62
     4
100
AcDbCircle
 10
2731.727697481689
 20
801.538964513227
 30
0.0
 40
0.125
  0
CIRCLE
  5
119
330
6F
100
AcDbEntity
  8
9-0
  6
Continuous
 62
     4
100
AcDbCircle
 10
2731.727697481689
 20
801.538964513227
 30
0.0
 40
0.0625
  0
CIRCLE
  5
11A
330
6F
100
AcDbEntity
  8
9-0
  6
Continuous
 62
     4
100
AcDbCircle
 10
2489.727697481689
 20
801.538964513227
 30
0.0
 40
0.25
  0
CIRCLE
  5
11B
330
6F
100
AcDbEntity
  8
9-0
  6
Continuous
 62
     4
100
AcDbCircle
 10
2489.727697481689
 20
801.538964513227
 30
0.0
 40
0.1875
  0
CIRCLE
  5
11C
330
6F
100
AcDbEntity
  8
9-0
  6
Continuous
 62
     4
100
AcDbCircle
 10
2489.727697481689
 20
801.538964513227
 30
0.0
 40
0.125
  0
CIRCLE
  5
11D
330
6F
100
AcDbEntity
  8
9-0
  6
Continuous
 62
     4
100
AcDbCircle
 10
2489.727697481689
 20
801.538964513227
 30
0.0
 40
0.0625
  0
LINE
  5
11E
330
6F
100
AcDbEntity
  8
D-0
  6
Continuous
 62
     5
100
AcDbLine
 10
2818.834209
 20
2558.755015
 30
0.0
 11
2818.834209
 21
2158.755015
 31
0.0
  0
LINE
  5
11F
330
6F
100
AcDbEntity
  8
D-0
  6
Continuous
 62
     5
100
AcDbLine
 10
2626.423257
 20
2558.755015
 30
0.0
 11
2626.423257
 21
2108.755015
 31
0.0
  0
LINE
  5
120
330
6F
100
AcDbEntity
  8
D-0
  6
Continuous
 62
     5
100
AcDbLine
 10
2970.306635
 20
2558.755015
 30
0.0
 11
2970.306635
 21
2108.755015
 31
0.0
  0
LINE
  5
121
330
6F
100
AcDbEntity
  8
D-0
  6
Continuous
 62
     5
100
AcDbLine
 10
3650.657649
 20
2558.755015
 30
0.0
 11
3650.657649
 21
2108.755015
 31
0.0
  0
TEXT
  5
122
330
6F
100
AcDbEntity
  8
D-0
 62
     5
100
AcDbText
 10
3000.434
 20
2471.201
 30
0.0
 40
25.92
  1
クリーンイーゴスＭＤＦ
100
AcDbText
  0
TEXT
  5
123
330
6F
100
AcDbEntity
  8
D-0
 62
     5
100
AcDbText
 10
2838.773
 20
2471.201
 30
0.0
 40
25.92
  1
背板
100
AcDbText
  0
LINE
  5
124
330
6F
100
AcDbEntity
  8
D-0
  6
Continuous
 62
     5
100
AcDbLine
 10
2626.423257
 20
2158.755015
 30
0.0
 11
3650.657649
 21
2158.755015
 31
0.0
  0
LINE
  5
125
330
6F
100
AcDbEntity
  8
D-0
  6
Continuous
 62
     5
100
AcDbLine
 10
2626.423257
 20
2108.755015
 30
0.0
 11
3650.657649
 21
2108.755015
 31
0.0
  0
TEXT
  5
126
330
6F
100
AcDbEntity
  8
D-0
 62
     5
100
AcDbText
 10
3000.434
 20
2271.201
 30
0.0
 40
25.92
  1
ウレタンコート化粧ボード（PB)
100
AcDbText
  0
TEXT
  5
127
330
6F
100
AcDbEntity
  8
D-0
 62
     5
100
AcDbText
 10
3000.434
 20
2221.201
 30
0.0
 40
25.92
  1
木口テープ巻き
100
AcDbText
  0
TEXT
  5
128
330
6F
100
AcDbEntity
  8
D-0
 62
     5
100
AcDbText
 10
3000.434
 20
2371.201
 30
0.0
 40
25.92
  1
プレコート（PB）
100
AcDbText
  0
TEXT
  5
129
330
6F
100
AcDbEntity
  8
D-0
 62
     5
100
AcDbText
 10
3000.434
 20
2421.201
 30
0.0
 40
25.92
  1
ウレタンコート化粧ボード（PB)
100
AcDbText
  0
LINE
  5
12A
330
6F
100
AcDbEntity
  8
D-0
  6
Continuous
 62
     5
100
AcDbLine
 10
2626.423257
 20
2408.755015
 30
0.0
 11
3650.657649
 21
2408.755015
 31
0.0
  0
TEXT
  5
12B
330
6F
100
AcDbEntity
  8
D-0
 62
     5
100
AcDbText
 10
2838.773
 20
2221.201
 30
0.0
 40
25.92
  1
木口
100
AcDbText
  0
TEXT
  5
12C
330
6F
100
AcDbEntity
  8
D-0
 62
     5
100
AcDbText
 10
2666.014
 20
2121.201
 30
0.0
 40
25.92
  1
丁番
100
AcDbText
  0
TEXT
  5
12D
330
6F
100
AcDbEntity
  8
D-0
 62
     5
100
AcDbText
 10
2666.014
 20
2371.201
 30
0.0
 40
25.92
  1
扉
100
AcDbText
  0
TEXT
  5
12E
330
6F
100
AcDbEntity
  8
D-0
 62
     5
100
AcDbText
 10
2838.773
 20
2271.201
 30
0.0
 40
25.92
  1
裏
100
AcDbText
  0
TEXT
  5
12F
330
6F
100
AcDbEntity
  8
D-0
 62
     5
100
AcDbText
 10
2838.773
 20
2371.201
 30
0.0
 40
25.92
  1
表
100
AcDbText
  0
TEXT
  5
130
330
6F
100
AcDbEntity
  8
D-0
 62
     5
100
AcDbText
 10
2838.773
 20
2421.201
 30
0.0
 40
25.92
  1
地板
100
AcDbText
  0
TEXT
  5
131
330
6F
100
AcDbEntity
  8
D-0
 62
     5
100
AcDbText
 10
3000.434
 20
2521.201
 30
0.0
 40
25.92
  1
ウレタンコート化粧ボード（PB)
100
AcDbText
  0
LINE
  5
132
330
6F
100
AcDbEntity
  8
D-0
  6
Continuous
 62
     5
100
AcDbLine
 10
2626.423257
 20
2558.755015
 30
0.0
 11
3650.657649
 21
2558.755015
 31
0.0
  0
TEXT
  5
133
330
6F
100
AcDbEntity
  8
D-0
 62
     5
100
AcDbText
 10
2666.014
 20
2521.201
 30
0.0
 40
25.92
  1
木部本体
100
AcDbText
  0
TEXT
  5
134
330
6F
100
AcDbEntity
  8
D-0
 62
     5
100
AcDbText
 10
2838.773
 20
2521.201
 30
0.0
 40
25.92
  1
側板
100
AcDbText
  0
TEXT
  5
135
330
6F
100
AcDbEntity
  8
D-0
 62
     5
100
AcDbText
 10
3000.434
 20
2321.201
 30
0.0
 40
25.92
  1
(ミディアムウッド色）
100
AcDbText
  0
TEXT
  5
136
330
6F
100
AcDbEntity
  8
D-0
 62
     5
100
AcDbText
 10
2623.831
 20
2022.135
 30
0.0
 40
25.92
  1
※　弊社製品はすべてF☆☆☆☆に対応しております。
100
AcDbText
  0
TEXT
  5
137
330
6F
100
AcDbEntity
  8
D-0
 62
     5
100
AcDbText
 10
3005.06
 20
2119.877
 30
0.0
 40
25.92
  1
スライドヒンジ
100
AcDbText
  0
TEXT
  5
138
330
6F
100
AcDbEntity
  8
D-0
 62
     5
100
AcDbText
 10
2837.548
 20
2173.695
 30
0.0
 40
25.92
  1
ラッチ
100
AcDbText
  0
TEXT
  5
139
330
6F
100
AcDbEntity
  8
D-0
 62
     5
100
AcDbText
 10
2999.256
 20
2175.151
 30
0.0
 40
25.92
  1
プッシュラッチ
100
AcDbText
  0
LINE
  5
13A
330
6F
100
AcDbEntity
  8
1-0
  6
Continuous
 62
     7
100
AcDbLine
 10
2730.727697
 20
1054.433442
 30
0.0
 11
2730.727697
 21
1073.433442
 31
0.0
  0
LINE
  5
13B
330
6F
100
AcDbEntity
  8
1-0
  6
Continuous
 62
     7
100
AcDbLine
 10
2730.727697
 20
1054.433442
 30
0.0
 11
2730.727697
 21
1035.433442
 31
0.0
  0
LINE
  5
13C
330
6F
100
AcDbEntity
  8
1-0
  6
Continuous
 62
     7
100
AcDbLine
 10
2730.727697
 20
1073.433442
 30
0.0
 11
2734.727697
 21
1073.433442
 31
0.0
  0
LINE
  5
13D
330
6F
100
AcDbEntity
  8
1-0
  6
Continuous
 62
     7
100
AcDbLine
 10
2730.727697
 20
1035.433442
 30
0.0
 11
2734.727697
 21
1035.433442
 31
0.0
  0
LINE
  5
13E
330
6F
100
AcDbEntity
  8
1-0
  6
Continuous
 62
     7
100
AcDbLine
 10
2730.727697
 20
1388.433442
 30
0.0
 11
2730.727697
 21
1407.433442
 31
0.0
  0
LINE
  5
13F
330
6F
100
AcDbEntity
  8
1-0
  6
Continuous
 62
     7
100
AcDbLine
 10
2730.727697
 20
1388.433442
 30
0.0
 11
2730.727697
 21
1369.433442
 31
0.0
  0
LINE
  5
140
330
6F
100
AcDbEntity
  8
1-0
  6
Continuous
 62
     7
100
AcDbLine
 10
2730.727697
 20
1407.433442
 30
0.0
 11
2734.727697
 21
1407.433442
 31
0.0
  0
LINE
  5
141
330
6F
100
AcDbEntity
  8
1-0
  6
Continuous
 62
     7
100
AcDbLine
 10
2730.727697
 20
1369.433442
 30
0.0
 11
2734.727697
 21
1369.433442
 31
0.0
  0
LINE
  5
142
330
6F
100
AcDbEntity
  8
1-0
  6
Continuous
 62
     7
100
AcDbLine
 10
1088.094298
 20
2127.487727
 30
0.0
 11
1088.094298
 21
2369.487727
 31
0.0
  0
LINE
  5
143
330
6F
100
AcDbEntity
  8
1-0
  6
Continuous
 62
     7
100
AcDbLine
 10
1688.094298
 20
2127.487727
 30
0.0
 11
1688.094298
 21
2369.487727
 31
0.0
  0
LINE
  5
144
330
6F
100
AcDbEntity
  8
1-0
  6
Continuous
 62
     7
100
AcDbLine
 10
1088.094298
 20
2127.487727
 30
0.0
 11
1688.094298
 21
2127.487727
 31
0.0
  0
LINE
  5
145
330
6F
100
AcDbEntity
  8
1-0
  6
Continuous
 62
     7
100
AcDbLine
 10
1088.094298
 20
2369.487727
 30
0.0
 11
1688.094298
 21
2369.487727
 31
0.0
  0
LINE
  5
146
330
6F
100
AcDbEntity
  8
1-0
  6
Continuous
 62
     7
100
AcDbLine
 10
1103.094298
 20
2127.487727
 30
0.0
 11
1103.094298
 21
2369.487727
 31
0.0
  0
LINE
  5
147
330
6F
100
AcDbEntity
  8
1-0
  6
Continuous
 62
     7
100
AcDbLine
 10
1673.094298
 20
2127.487727
 30
0.0
 11
1673.094298
 21
2369.487727
 31
0.0
  0
LINE
  5
148
330
6F
100
AcDbEntity
  8
1-0
  6
DASHED2
 62
     7
100
AcDbLine
 10
1103.094298
 20
2354.487727
 30
0.0
 11
1673.094298
 21
2354.487727
 31
0.0
  0
LINE
  5
149
330
6F
100
AcDbEntity
  8
1-0
  6
DASHED2
 62
     7
100
AcDbLine
 10
1395.594298
 20
2127.487727
 30
0.0
 11
1395.594298
 21
2231.856404
 31
0.0
  0
LINE
  5
14A
330
6F
100
AcDbEntity
  8
1-0
  6
DASHED2
 62
     7
100
AcDbLine
 10
1395.594298
 20
2231.856404
 30
0.0
 11
1395.594298
 21
2354.487727
 31
0.0
  0
LINE
  5
14B
330
6F
100
AcDbEntity
  8
1-0
  6
DASHED2
 62
     7
100
AcDbLine
 10
1380.594298
 20
2127.487727
 30
0.0
 11
1380.594298
 21
2354.487727
 31
0.0
  0
LINE
  5
14C
330
6F
100
AcDbEntity
  8
1-0
  6
Continuous
 62
     7
100
AcDbLine
 10
2749.727697
 20
1224.433442
 30
0.0
 11
2749.727697
 21
1552.433442
 31
0.0
  0
LINE
  5
14D
330
6F
100
AcDbEntity
  8
9-0
  6
Continuous
 62
     4
100
AcDbLine
 10
2489.727697
 20
861.433442
 30
0.0
 11
2489.727697
 21
727.7351529999999
 31
0.0
  0
LINE
  5
14E
330
6F
100
AcDbEntity
  8
9-0
  6
Continuous
 62
     4
100
AcDbLine
 10
2749.727697
 20
861.433442
 30
0.0
 11
2749.727697
 21
727.7351529999999
 31
0.0
  0
TEXT
  5
14F
330
6F
100
AcDbEntity
  8
9-0
 62
     4
100
AcDbText
 10
2588.95
 20
728.3549999999999
 30
0.0
 40
36.288
  1
260
100
AcDbText
  0
LINE
  5
150
330
6F
100
AcDbEntity
  8
9-0
  6
Continuous
 62
     4
100
AcDbLine
 10
2749.727697481689
 20
727.735153094207
 30
0.0
 11
2489.727697481689
 21
727.735153094207
 31
0.0
  0
CIRCLE
  5
151
330
6F
100
AcDbEntity
  8
9-0
  6
Continuous
 62
     4
100
AcDbCircle
 10
2749.727697481689
 20
727.735153094207
 30
0.0
 40
0.25
  0
CIRCLE
  5
152
330
6F
100
AcDbEntity
  8
9-0
  6
Continuous
 62
     4
100
AcDbCircle
 10
2749.727697481689
 20
727.735153094207
 30
0.0
 40
0.1875
  0
CIRCLE
  5
153
330
6F
100
AcDbEntity
  8
9-0
  6
Continuous
 62
     4
100
AcDbCircle
 10
2749.727697481689
 20
727.735153094207
 30
0.0
 40
0.125
  0
CIRCLE
  5
154
330
6F
100
AcDbEntity
  8
9-0
  6
Continuous
 62
     4
100
AcDbCircle
 10
2749.727697481689
 20
727.735153094207
 30
0.0
 40
0.0625
  0
CIRCLE
  5
155
330
6F
100
AcDbEntity
  8
9-0
  6
Continuous
 62
     4
100
AcDbCircle
 10
2489.727697481689
 20
727.735153094207
 30
0.0
 40
0.25
  0
CIRCLE
  5
156
330
6F
100
AcDbEntity
  8
9-0
  6
Continuous
 62
     4
100
AcDbCircle
 10
2489.727697481689
 20
727.735153094207
 30
0.0
 40
0.1875
  0
CIRCLE
  5
157
330
6F
100
AcDbEntity
  8
9-0
  6
Continuous
 62
     4
100
AcDbCircle
 10
2489.727697481689
 20
727.735153094207
 30
0.0
 40
0.125
  0
CIRCLE
  5
158
330
6F
100
AcDbEntity
  8
9-0
  6
Continuous
 62
     4
100
AcDbCircle
 10
2489.727697481689
 20
727.735153094207
 30
0.0
 40
0.0625
  0
LINE
  5
159
330
6F
100
AcDbEntity
  8
2-0
  6
DASHED2
 62
     7
100
AcDbLine
 10
1103.094298
 20
2354.487727
 30
0.0
 11
1148.094298
 21
2369.487727
 31
0.0
  0
LINE
  5
15A
330
6F
100
AcDbEntity
  8
2-0
  6
DASHED2
 62
     7
100
AcDbLine
 10
1148.094298
 20
2369.487727
 30
0.0
 11
1148.094298
 21
2354.487727
 31
0.0
  0
LINE
  5
15B
330
6F
100
AcDbEntity
  8
2-0
  6
DASHED2
 62
     7
100
AcDbLine
 10
1628.094298
 20
2354.487727
 30
0.0
 11
1673.094298
 21
2369.487727
 31
0.0
  0
LINE
  5
15C
330
6F
100
AcDbEntity
  8
2-0
  6
DASHED2
 62
     7
100
AcDbLine
 10
1673.094298
 20
2369.487727
 30
0.0
 11
1673.094298
 21
2354.487727
 31
0.0
  0
LINE
  5
15D
330
6F
100
AcDbEntity
  8
2-0
  6
DASHED2
 62
     7
100
AcDbLine
 10
1628.094298
 20
2369.487727
 30
0.0
 11
1628.094298
 21
2354.487727
 31
0.0
  0
LINE
  5
15E
330
6F
100
AcDbEntity
  8
1-0
  6
Continuous
 62
     7
100
AcDbLine
 10
1363.094298
 20
2354.487727
 30
0.0
 11
1363.094298
 21
2369.487727
 31
0.0
  0
LINE
  5
15F
330
6F
100
AcDbEntity
  8
1-0
  6
Continuous
 62
     7
100
AcDbLine
 10
1413.094298
 20
2354.487727
 30
0.0
 11
1413.094298
 21
2369.487727
 31
0.0
  0
LINE
  5
160
330
6F
100
AcDbEntity
  8
2-0
  6
DASHED2
 62
     7
100
AcDbLine
 10
1363.094298
 20
2354.487727
 30
0.0
 11
1413.094298
 21
2369.487727
 31
0.0
  0
LINE
  5
161
330
6F
100
AcDbEntity
  8
1-0
  6
Continuous
 62
     7
100
AcDbLine
 10
2731.727697
 20
1546.433442
 30
0.0
 11
2489.727697
 21
1546.433442
 31
0.0
  0
LINE
  5
162
330
6F
100
AcDbEntity
  8
1-0
  6
Continuous
 62
     7
100
AcDbLine
 10
2489.727697
 20
896.433442
 30
0.0
 11
2731.727697
 21
896.433442
 31
0.0
  0
LINE
  5
163
330
6F
100
AcDbEntity
  8
2-0
  6
DASHED2
 62
     7
100
AcDbLine
 10
2489.727697
 20
896.433442
 30
0.0
 11
2504.727697
 21
941.4334420000001
 31
0.0
  0
LINE
  5
164
330
6F
100
AcDbEntity
  8
2-0
  6
DASHED2
 62
     7
100
AcDbLine
 10
2489.727697
 20
941.4334420000001
 30
0.0
 11
2504.727697
 21
941.4334420000001
 31
0.0
  0
LINE
  5
165
330
6F
100
AcDbEntity
  8
2-0
  6
DASHED2
 62
     7
100
AcDbLine
 10
2489.727697
 20
1501.433442
 30
0.0
 11
2504.727697
 21
1546.433442
 31
0.0
  0
LINE
  5
166
330
6F
100
AcDbEntity
  8
2-0
  6
DASHED2
 62
     7
100
AcDbLine
 10
2489.727697
 20
1546.433442
 30
0.0
 11
2504.727697
 21
1546.433442
 31
0.0
  0
LINE
  5
167
330
6F
100
AcDbEntity
  8
2-0
  6
DASHED2
 62
     7
100
AcDbLine
 10
2489.727697
 20
1501.433442
 30
0.0
 11
2504.727697
 21
1501.433442
 31
0.0
  0
LINE
  5
168
330
6F
100
AcDbEntity
  8
1-0
  6
Continuous
 62
     7
100
AcDbLine
 10
2504.727697
 20
1228.933442
 30
0.0
 11
2504.727697
 21
1213.933442
 31
0.0
  0
LINE
  5
169
330
6F
100
AcDbEntity
  8
1-0
  6
Continuous
 62
     7
100
AcDbLine
 10
2504.727697
 20
1196.433442
 30
0.0
 11
2489.727697
 21
1196.433442
 31
0.0
  0
LINE
  5
16A
330
6F
100
AcDbEntity
  8
1-0
  6
Continuous
 62
     7
100
AcDbLine
 10
2504.727697
 20
1246.433442
 30
0.0
 11
2489.727697
 21
1246.433442
 31
0.0
  0
LINE
  5
16B
330
6F
100
AcDbEntity
  8
2-0
  6
DASHED2
 62
     7
100
AcDbLine
 10
2489.727697
 20
1196.433442
 30
0.0
 11
2504.727697
 21
1246.433442
 31
0.0
  0
LINE
  5
16C
330
6F
100
AcDbEntity
  8
9-0
  6
Continuous
 62
     4
100
AcDbLine
 10
1708.094298
 20
2369.487727
 30
0.0
 11
1782.280053
 21
2369.487727
 31
0.0
  0
LINE
  5
16D
330
6F
100
AcDbEntity
  8
9-0
  6
Continuous
 62
     4
100
AcDbLine
 10
1708.094298
 20
2127.487727
 30
0.0
 11
1782.280053
 21
2127.487727
 31
0.0
  0
TEXT
  5
16E
330
6F
100
AcDbEntity
  8
9-0
 62
     4
100
AcDbText
 10
1781.66
 20
2214.888
 30
0.0
 40
36.288
  1
242
 50
90.0
100
AcDbText
  0
LINE
  5
16F
330
6F
100
AcDbEntity
  8
9-0
  6
Continuous
 62
     4
100
AcDbLine
 10
1782.280053072701
 20
2127.48772658002
 30
0.0
 11
1782.280053072701
 21
2369.48772658002
 31
0.0
  0
CIRCLE
  5
170
330
6F
100
AcDbEntity
  8
9-0
  6
Continuous
 62
     4
100
AcDbCircle
 10
1782.280053072701
 20
2127.48772658002
 30
0.0
 40
0.25
  0
CIRCLE
  5
171
330
6F
100
AcDbEntity
  8
9-0
  6
Continuous
 62
     4
100
AcDbCircle
 10
1782.280053072701
 20
2127.48772658002
 30
0.0
 40
0.1875
  0
CIRCLE
  5
172
330
6F
100
AcDbEntity
  8
9-0
  6
Continuous
 62
     4
100
AcDbCircle
 10
1782.280053072701
 20
2127.48772658002
 30
0.0
 40
0.125
  0
CIRCLE
  5
173
330
6F
100
AcDbEntity
  8
9-0
  6
Continuous
 62
     4
100
AcDbCircle
 10
1782.280053072701
 20
2127.48772658002
 30
0.0
 40
0.0625
  0
CIRCLE
  5
174
330
6F
100
AcDbEntity
  8
9-0
  6
Continuous
 62
     4
100
AcDbCircle
 10
1782.280053072701
 20
2369.48772658002
 30
0.0
 40
0.25
  0
CIRCLE
  5
175
330
6F
100
AcDbEntity
  8
9-0
  6
Continuous
 62
     4
100
AcDbCircle
 10
1782.280053072701
 20
2369.48772658002
 30
0.0
 40
0.1875
  0
CIRCLE
  5
176
330
6F
100
AcDbEntity
  8
9-0
  6
Continuous
 62
     4
100
AcDbCircle
 10
1782.280053072701
 20
2369.48772658002
 30
0.0
 40
0.125
  0
CIRCLE
  5
177
330
6F
100
AcDbEntity
  8
9-0
  6
Continuous
 62
     4
100
AcDbCircle
 10
1782.280053072701
 20
2369.48772658002
 30
0.0
 40
0.0625
  0
LINE
  5
178
330
6F
100
AcDbEntity
  8
1-0
  6
Continuous
 62
     7
100
AcDbLine
 10
1094.094298
 20
2124.487727
 30
0.0
 11
1387.094298
 21
2124.487727
 31
0.0
  0
LINE
  5
179
330
6F
100
AcDbEntity
  8
1-0
  6
Continuous
 62
     7
100
AcDbLine
 10
1094.094298
 20
2109.487727
 30
0.0
 11
1387.094298
 21
2109.487727
 31
0.0
  0
LINE
  5
17A
330
6F
100
AcDbEntity
  8
1-0
  6
Continuous
 62
     7
100
AcDbLine
 10
1389.094298
 20
2124.487727
 30
0.0
 11
1682.094298
 21
2124.487727
 31
0.0
  0
LINE
  5
17B
330
6F
100
AcDbEntity
  8
1-0
  6
Continuous
 62
     7
100
AcDbLine
 10
1389.094298
 20
2109.487727
 30
0.0
 11
1682.094298
 21
2109.487727
 31
0.0
  0
LINE
  5
17C
330
6F
100
AcDbEntity
  8
1-0
  6
Continuous
 62
     7
100
AcDbLine
 10
1682.094298
 20
2124.487727
 30
0.0
 11
1682.094298
 21
2109.487727
 31
0.0
  0
LINE
  5
17D
330
6F
100
AcDbEntity
  8
1-0
  6
Continuous
 62
     7
100
AcDbLine
 10
1389.094298
 20
2124.487727
 30
0.0
 11
1389.094298
 21
2109.487727
 31
0.0
  0
LINE
  5
17E
330
6F
100
AcDbEntity
  8
1-0
  6
Continuous
 62
     7
100
AcDbLine
 10
1387.094298
 20
2124.487727
 30
0.0
 11
1387.094298
 21
2109.487727
 31
0.0
  0
LINE
  5
17F
330
6F
100
AcDbEntity
  8
1-0
  6
Continuous
 62
     7
100
AcDbLine
 10
1094.094298
 20
2124.487727
 30
0.0
 11
1094.094298
 21
2109.487727
 31
0.0
  0
LINE
  5
180
330
6F
100
AcDbEntity
  8
9-0
  6
Continuous
 62
     4
100
AcDbLine
 10
1068.094298
 20
2369.487727
 30
0.0
 11
1003.563301
 21
2369.487727
 31
0.0
  0
LINE
  5
181
330
6F
100
AcDbEntity
  8
9-0
  6
Continuous
 62
     4
100
AcDbLine
 10
1068.094298
 20
2109.487727
 30
0.0
 11
1003.563301
 21
2109.487727
 31
0.0
  0
TEXT
  5
182
330
6F
100
AcDbEntity
  8
9-0
 62
     4
100
AcDbText
 10
1002.943
 20
2205.888
 30
0.0
 40
36.288
  1
260
 50
90.0
100
AcDbText
  0
LINE
  5
183
330
6F
100
AcDbEntity
  8
9-0
  6
Continuous
 62
     4
100
AcDbLine
 10
1003.563301297593
 20
2109.487726580019
 30
0.0
 11
1003.563301297593
 21
2369.487726580019
 31
0.0
  0
CIRCLE
  5
184
330
6F
100
AcDbEntity
  8
9-0
  6
Continuous
 62
     4
100
AcDbCircle
 10
1003.563301297593
 20
2109.487726580019
 30
0.0
 40
0.25
  0
CIRCLE
  5
185
330
6F
100
AcDbEntity
  8
9-0
  6
Continuous
 62
     4
100
AcDbCircle
 10
1003.563301297593
 20
2109.487726580019
 30
0.0
 40
0.1875
  0
CIRCLE
  5
186
330
6F
100
AcDbEntity
  8
9-0
  6
Continuous
 62
     4
100
AcDbCircle
 10
1003.563301297593
 20
2109.487726580019
 30
0.0
 40
0.125
  0
CIRCLE
  5
187
330
6F
100
AcDbEntity
  8
9-0
  6
Continuous
 62
     4
100
AcDbCircle
 10
1003.563301297593
 20
2109.487726580019
 30
0.0
 40
0.0625
  0
CIRCLE
  5
188
330
6F
100
AcDbEntity
  8
9-0
  6
Continuous
 62
     4
100
AcDbCircle
 10
1003.563301297593
 20
2369.487726580019
 30
0.0
 40
0.25
  0
CIRCLE
  5
189
330
6F
100
AcDbEntity
  8
9-0
  6
Continuous
 62
     4
100
AcDbCircle
 10
1003.563301297593
 20
2369.487726580019
 30
0.0
 40
0.1875
  0
CIRCLE
  5
18A
330
6F
100
AcDbEntity
  8
9-0
  6
Continuous
 62
     4
100
AcDbCircle
 10
1003.563301297593
 20
2369.487726580019
 30
0.0
 40
0.125
  0
CIRCLE
  5
18B
330
6F
100
AcDbEntity
  8
9-0
  6
Continuous
 62
     4
100
AcDbCircle
 10
1003.563301297593
 20
2369.487726580019
 30
0.0
 40
0.0625
  0
LINE
  5
18C
330
6F
100
AcDbEntity
  8
1-0
  6
Continuous
 62
     7
100
AcDbLine
 10
2734.727697
 20
1073.433442
 30
0.0
 11
2734.727697
 21
1035.433442
 31
0.0
  0
LINE
  5
18D
330
6F
100
AcDbEntity
  8
1-0
  6
Continuous
 62
     7
100
AcDbLine
 10
2734.727697
 20
1035.433442
 30
0.0
 11
2734.727697
 21
1054.433442
 31
0.0
  0
LINE
  5
18E
330
6F
100
AcDbEntity
  8
1-0
  6
Continuous
 62
     7
100
AcDbLine
 10
2734.727697
 20
1407.433442
 30
0.0
 11
2734.727697
 21
1369.433442
 31
0.0
  0
LINE
  5
18F
330
6F
100
AcDbEntity
  8
1-0
  6
DASHED2
 62
     7
100
AcDbLine
 10
1387.094298
 20
1398.933442
 30
0.0
 11
1371.094298
 21
1398.933442
 31
0.0
  0
LINE
  5
190
330
6F
100
AcDbEntity
  8
1-0
  6
DASHED2
 62
     7
100
AcDbLine
 10
1387.094298
 20
1377.933442
 30
0.0
 11
1371.094298
 21
1377.933442
 31
0.0
  0
LINE
  5
191
330
6F
100
AcDbEntity
  8
1-0
  6
DASHED2
 62
     7
100
AcDbLine
 10
1371.094298
 20
1398.933442
 30
0.0
 11
1371.094298
 21
1377.933442
 31
0.0
  0
LINE
  5
192
330
6F
100
AcDbEntity
  8
1-0
  6
DASHED2
 62
     7
100
AcDbLine
 10
1389.094298
 20
1064.933442
 30
0.0
 11
1389.094298
 21
1043.933442
 31
0.0
  0
LINE
  5
193
330
6F
100
AcDbEntity
  8
1-0
  6
DASHED2
 62
     7
100
AcDbLine
 10
1389.094298
 20
1043.933442
 30
0.0
 11
1405.094298
 21
1043.933442
 31
0.0
  0
LINE
  5
194
330
6F
100
AcDbEntity
  8
1-0
  6
DASHED2
 62
     7
100
AcDbLine
 10
1389.094298
 20
1064.933442
 30
0.0
 11
1405.094298
 21
1064.933442
 31
0.0
  0
LINE
  5
195
330
6F
100
AcDbEntity
  8
1-0
  6
DASHED2
 62
     7
100
AcDbLine
 10
1405.094298
 20
1064.933442
 30
0.0
 11
1405.094298
 21
1043.933442
 31
0.0
  0
LINE
  5
196
330
6F
100
AcDbEntity
  8
1-0
  6
Continuous
 62
     4
100
AcDbLine
 10
1088.094298
 20
2389.487727
 30
0.0
 11
1088.094298
 21
2438.821657
 31
0.0
  0
LINE
  5
197
330
6F
100
AcDbEntity
  8
1-0
  6
Continuous
 62
     4
100
AcDbLine
 10
1103.094298
 20
2389.487727
 30
0.0
 11
1103.094298
 21
2438.821657
 31
0.0
  0
LINE
  5
198
330
6F
100
AcDbEntity
  8
1-0
  6
Continuous
 62
     4
100
AcDbLine
 10
1078.094298
 20
2438.821657
 30
0.0
 11
1068.094298
 21
2438.821657
 31
0.0
  0
LINE
  5
199
330
6F
100
AcDbEntity
  8
1-0
  6
Continuous
 62
     4
100
AcDbLine
 10
1113.094298
 20
2438.821657
 30
0.0
 11
1123.094298
 21
2438.821657
 31
0.0
  0
LINE
  5
19A
330
6F
100
AcDbEntity
  8
1-0
  6
Continuous
 62
     4
100
AcDbLine
 10
1095.594298
 20
2438.821657
 30
0.0
 11
1067.416082
 21
2470.9817
 31
0.0
  0
LINE
  5
19B
330
6F
100
AcDbEntity
  8
1-0
  6
Continuous
 62
     4
100
AcDbLine
 10
1067.416082
 20
2470.9817
 30
0.0
 11
1009.040447
 21
2470.9817
 31
0.0
  0
TEXT
  5
19C
330
6F
100
AcDbEntity
  8
1-0
 62
     4
100
AcDbText
 10
1018.651
 20
2471.602000000001
 30
0.0
 40
36.288
  1
15
100
AcDbText
  0
LINE
  5
19D
330
6F
100
AcDbEntity
  8
1-0
  6
Continuous
 62
     4
100
AcDbLine
 10
1088.094298
 20
2438.821657
 30
0.0
 11
1103.094298
 21
2438.821657
 31
0.0
  0
LINE
  5
19E
330
6F
100
AcDbEntity
  8
1-0
  6
Continuous
 62
     4
100
AcDbLine
 10
1088.094298
 20
2438.821657
 30
0.0
 11
1103.094298
 21
2438.821657
 31
0.0
  0
CIRCLE
  5
19F
330
6F
100
AcDbEntity
  8
1-0
  6
Continuous
 62
     4
100
AcDbCircle
 10
1088.094298275224
 20
2438.821657250076
 30
0.0
 40
0.25
  0
CIRCLE
  5
1A0
330
6F
100
AcDbEntity
  8
1-0
  6
Continuous
 62
     4
100
AcDbCircle
 10
1088.094298275224
 20
2438.821657250076
 30
0.0
 40
0.1875
  0
CIRCLE
  5
1A1
330
6F
100
AcDbEntity
  8
1-0
  6
Continuous
 62
     4
100
AcDbCircle
 10
1088.094298275224
 20
2438.821657250076
 30
0.0
 40
0.125
  0
CIRCLE
  5
1A2
330
6F
100
AcDbEntity
  8
1-0
  6
Continuous
 62
     4
100
AcDbCircle
 10
1088.094298275224
 20
2438.821657250076
 30
0.0
 40
0.0625
  0
ARC
  5
1A3
330
6F
100
AcDbEntity
  8
1-0
 62
     4
100
AcDbCircle
 10
1088.094298275224
 20
2438.826657250076
 30
0.0
 40
2.5
100
AcDbArc
 50
0.1145914065300158
 51
180.114591405945
  0
LINE
  5
1A4
330
6F
100
AcDbEntity
  8
1-0
 62
     4
100
AcDbLine
 10
1083.094298275224
 20
2438.821657250076
 30
0.0
 11
1078.094298275224
 21
2438.821657250076
 31
0.0
  0
CIRCLE
  5
1A5
330
6F
100
AcDbEntity
  8
1-0
  6
Continuous
 62
     4
100
AcDbCircle
 10
1103.094298275224
 20
2438.821657250076
 30
0.0
 40
0.25
  0
CIRCLE
  5
1A6
330
6F
100
AcDbEntity
  8
1-0
  6
Continuous
 62
     4
100
AcDbCircle
 10
1103.094298275224
 20
2438.821657250076
 30
0.0
 40
0.1875
  0
CIRCLE
  5
1A7
330
6F
100
AcDbEntity
  8
1-0
  6
Continuous
 62
     4
100
AcDbCircle
 10
1103.094298275224
 20
2438.821657250076
 30
0.0
 40
0.125
  0
CIRCLE
  5
1A8
330
6F
100
AcDbEntity
  8
1-0
  6
Continuous
 62
     4
100
AcDbCircle
 10
1103.094298275224
 20
2438.821657250076
 30
0.0
 40
0.0625
  0
ARC
  5
1A9
330
6F
100
AcDbEntity
  8
1-0
 62
     4
100
AcDbCircle
 10
1103.094298275224
 20
2438.816657250076
 30
0.0
 40
2.5
100
AcDbArc
 50
180.1145914065301
 51
0.1145914059449637
  0
LINE
  5
1AA
330
6F
100
AcDbEntity
  8
1-0
 62
     4
100
AcDbLine
 10
1108.094298275224
 20
2438.821657250127
 30
0.0
 11
1113.094298275224
 21
2438.821657250178
 31
0.0
  0
LINE
  5
1AB
330
6F
100
AcDbEntity
  8
1-0
  6
Continuous
 62
     4
100
AcDbLine
 10
1103.094298
 20
2389.487727
 30
0.0
 11
1103.094298
 21
2438.821657
 31
0.0
  0
LINE
  5
1AC
330
6F
100
AcDbEntity
  8
1-0
  6
Continuous
 62
     4
100
AcDbLine
 10
1148.094298
 20
2389.487727
 30
0.0
 11
1148.094298
 21
2438.821657
 31
0.0
  0
TEXT
  5
1AD
330
6F
100
AcDbEntity
  8
1-0
 62
     4
100
AcDbText
 10
1146.465
 20
2471.942
 30
0.0
 40
36.288
  1
45
100
AcDbText
  0
LINE
  5
1AE
330
6F
100
AcDbEntity
  8
1-0
  6
Continuous
 62
     4
100
AcDbLine
 10
1148.094298275224
 20
2438.821657250076
 30
0.0
 11
1103.094298275224
 21
2438.821657250076
 31
0.0
  0
CIRCLE
  5
1AF
330
6F
100
AcDbEntity
  8
1-0
  6
Continuous
 62
     4
100
AcDbCircle
 10
1148.094298275224
 20
2438.821657250076
 30
0.0
 40
0.25
  0
CIRCLE
  5
1B0
330
6F
100
AcDbEntity
  8
1-0
  6
Continuous
 62
     4
100
AcDbCircle
 10
1148.094298275224
 20
2438.821657250076
 30
0.0
 40
0.1875
  0
CIRCLE
  5
1B1
330
6F
100
AcDbEntity
  8
1-0
  6
Continuous
 62
     4
100
AcDbCircle
 10
1148.094298275224
 20
2438.821657250076
 30
0.0
 40
0.125
  0
CIRCLE
  5
1B2
330
6F
100
AcDbEntity
  8
1-0
  6
Continuous
 62
     4
100
AcDbCircle
 10
1148.094298275224
 20
2438.821657250076
 30
0.0
 40
0.0625
  0
CIRCLE
  5
1B3
330
6F
100
AcDbEntity
  8
1-0
  6
Continuous
 62
     4
100
AcDbCircle
 10
1103.094298275224
 20
2438.821657250076
 30
0.0
 40
0.25
  0
CIRCLE
  5
1B4
330
6F
100
AcDbEntity
  8
1-0
  6
Continuous
 62
     4
100
AcDbCircle
 10
1103.094298275224
 20
2438.821657250076
 30
0.0
 40
0.1875
  0
CIRCLE
  5
1B5
330
6F
100
AcDbEntity
  8
1-0
  6
Continuous
 62
     4
100
AcDbCircle
 10
1103.094298275224
 20
2438.821657250076
 30
0.0
 40
0.125
  0
CIRCLE
  5
1B6
330
6F
100
AcDbEntity
  8
1-0
  6
Continuous
 62
     4
100
AcDbCircle
 10
1103.094298275224
 20
2438.821657250076
 30
0.0
 40
0.0625
  0
LINE
  5
1B7
330
6F
100
AcDbEntity
  8
1-0
  6
Continuous
 62
     4
100
AcDbLine
 10
1628.094298
 20
2389.487727
 30
0.0
 11
1628.094298
 21
2438.821657
 31
0.0
  0
LINE
  5
1B8
330
6F
100
AcDbEntity
  8
1-0
  6
Continuous
 62
     4
100
AcDbLine
 10
1673.094298
 20
2389.487727
 30
0.0
 11
1673.094298
 21
2438.821657
 31
0.0
  0
LINE
  5
1B9
330
6F
100
AcDbEntity
  8
1-0
  6
Continuous
 62
     4
100
AcDbLine
 10
1638.094298
 20
2438.821657
 30
0.0
 11
1663.094298
 21
2438.821657
 31
0.0
  0
LINE
  5
1BA
330
6F
100
AcDbEntity
  8
1-0
  6
Continuous
 62
     4
100
AcDbLine
 10
1650.594298
 20
2438.821657
 30
0.0
 11
1610.418157
 21
2472.898017
 31
0.0
  0
LINE
  5
1BB
330
6F
100
AcDbEntity
  8
1-0
  6
Continuous
 62
     4
100
AcDbLine
 10
1610.418157
 20
2472.898017
 30
0.0
 11
1549.022218
 21
2472.898017
 31
0.0
  0
TEXT
  5
1BC
330
6F
100
AcDbEntity
  8
1-0
 62
     4
100
AcDbText
 10
1560.143
 20
2473.518
 30
0.0
 40
36.288
  1
45
100
AcDbText
  0
CIRCLE
  5
1BD
330
6F
100
AcDbEntity
  8
1-0
  6
Continuous
 62
     4
100
AcDbCircle
 10
1628.094298275224
 20
2438.821657250076
 30
0.0
 40
0.25
  0
CIRCLE
  5
1BE
330
6F
100
AcDbEntity
  8
1-0
  6
Continuous
 62
     4
100
AcDbCircle
 10
1628.094298275224
 20
2438.821657250076
 30
0.0
 40
0.1875
  0
CIRCLE
  5
1BF
330
6F
100
AcDbEntity
  8
1-0
  6
Continuous
 62
     4
100
AcDbCircle
 10
1628.094298275224
 20
2438.821657250076
 30
0.0
 40
0.125
  0
CIRCLE
  5
1C0
330
6F
100
AcDbEntity
  8
1-0
  6
Continuous
 62
     4
100
AcDbCircle
 10
1628.094298275224
 20
2438.821657250076
 30
0.0
 40
0.0625
  0
ARC
  5
1C1
330
6F
100
AcDbEntity
  8
1-0
 62
     4
100
AcDbCircle
 10
1628.094298275224
 20
2438.816657250076
 30
0.0
 40
2.5
100
AcDbArc
 50
180.1145914065301
 51
0.1145914059449637
  0
LINE
  5
1C2
330
6F
100
AcDbEntity
  8
1-0
 62
     4
100
AcDbLine
 10
1633.094298275224
 20
2438.821657250127
 30
0.0
 11
1638.094298275224
 21
2438.821657250178
 31
0.0
  0
CIRCLE
  5
1C3
330
6F
100
AcDbEntity
  8
1-0
  6
Continuous
 62
     4
100
AcDbCircle
 10
1673.094298275224
 20
2438.821657250076
 30
0.0
 40
0.25
  0
CIRCLE
  5
1C4
330
6F
100
AcDbEntity
  8
1-0
  6
Continuous
 62
     4
100
AcDbCircle
 10
1673.094298275224
 20
2438.821657250076
 30
0.0
 40
0.1875
  0
CIRCLE
  5
1C5
330
6F
100
AcDbEntity
  8
1-0
  6
Continuous
 62
     4
100
AcDbCircle
 10
1673.094298275224
 20
2438.821657250076
 30
0.0
 40
0.125
  0
CIRCLE
  5
1C6
330
6F
100
AcDbEntity
  8
1-0
  6
Continuous
 62
     4
100
AcDbCircle
 10
1673.094298275224
 20
2438.821657250076
 30
0.0
 40
0.0625
  0
ARC
  5
1C7
330
6F
100
AcDbEntity
  8
1-0
 62
     4
100
AcDbCircle
 10
1673.094298275224
 20
2438.826657250076
 30
0.0
 40
2.5
100
AcDbArc
 50
0.1145914065300158
 51
180.114591405945
  0
LINE
  5
1C8
330
6F
100
AcDbEntity
  8
1-0
 62
     4
100
AcDbLine
 10
1668.094298275224
 20
2438.821657250076
 30
0.0
 11
1663.094298275224
 21
2438.821657250076
 31
0.0
  0
LINE
  5
1C9
330
6F
100
AcDbEntity
  8
1-0
  6
Continuous
 62
     4
100
AcDbLine
 10
1673.094298
 20
2389.487727
 30
0.0
 11
1673.094298
 21
2438.821657
 31
0.0
  0
LINE
  5
1CA
330
6F
100
AcDbEntity
  8
1-0
  6
Continuous
 62
     4
100
AcDbLine
 10
1688.094298
 20
2389.487727
 30
0.0
 11
1688.094298
 21
2438.821657
 31
0.0
  0
TEXT
  5
1CB
330
6F
100
AcDbEntity
  8
1-0
 62
     4
100
AcDbText
 10
1699.955
 20
2471.942
 30
0.0
 40
36.288
  1
15
100
AcDbText
  0
LINE
  5
1CC
330
6F
100
AcDbEntity
  8
1-0
  6
Continuous
 62
     4
100
AcDbLine
 10
1688.094298275224
 20
2438.821657250076
 30
0.0
 11
1673.094298275224
 21
2438.821657250076
 31
0.0
  0
CIRCLE
  5
1CD
330
6F
100
AcDbEntity
  8
1-0
  6
Continuous
 62
     4
100
AcDbCircle
 10
1688.094298275224
 20
2438.821657250076
 30
0.0
 40
0.25
  0
CIRCLE
  5
1CE
330
6F
100
AcDbEntity
  8
1-0
  6
Continuous
 62
     4
100
AcDbCircle
 10
1688.094298275224
 20
2438.821657250076
 30
0.0
 40
0.1875
  0
CIRCLE
  5
1CF
330
6F
100
AcDbEntity
  8
1-0
  6
Continuous
 62
     4
100
AcDbCircle
 10
1688.094298275224
 20
2438.821657250076
 30
0.0
 40
0.125
  0
CIRCLE
  5
1D0
330
6F
100
AcDbEntity
  8
1-0
  6
Continuous
 62
     4
100
AcDbCircle
 10
1688.094298275224
 20
2438.821657250076
 30
0.0
 40
0.0625
  0
CIRCLE
  5
1D1
330
6F
100
AcDbEntity
  8
1-0
  6
Continuous
 62
     4
100
AcDbCircle
 10
1673.094298275224
 20
2438.821657250076
 30
0.0
 40
0.25
  0
CIRCLE
  5
1D2
330
6F
100
AcDbEntity
  8
1-0
  6
Continuous
 62
     4
100
AcDbCircle
 10
1673.094298275224
 20
2438.821657250076
 30
0.0
 40
0.1875
  0
CIRCLE
  5
1D3
330
6F
100
AcDbEntity
  8
1-0
  6
Continuous
 62
     4
100
AcDbCircle
 10
1673.094298275224
 20
2438.821657250076
 30
0.0
 40
0.125
  0
CIRCLE
  5
1D4
330
6F
100
AcDbEntity
  8
1-0
  6
Continuous
 62
     4
100
AcDbCircle
 10
1673.094298275224
 20
2438.821657250076
 30
0.0
 40
0.0625
  0
LINE
  5
1D5
330
6F
100
AcDbEntity
  8
1-0
  6
Continuous
 62
     4
100
AcDbLine
 10
1363.094298
 20
2389.487727
 30
0.0
 11
1363.094298
 21
2437.684982
 31
0.0
  0
LINE
  5
1D6
330
6F
100
AcDbEntity
  8
1-0
  6
Continuous
 62
     4
100
AcDbLine
 10
1413.094298
 20
2389.487727
 30
0.0
 11
1413.094298
 21
2437.684982
 31
0.0
  0
TEXT
  5
1D7
330
6F
100
AcDbEntity
  8
1-0
 62
     4
100
AcDbText
 10
1409.142
 20
2470.805
 30
0.0
 40
36.288
  1
50
100
AcDbText
  0
LINE
  5
1D8
330
6F
100
AcDbEntity
  8
1-0
  6
Continuous
 62
     4
100
AcDbLine
 10
1413.094298275224
 20
2437.684982206604
 30
0.0
 11
1363.094298275224
 21
2437.684982206604
 31
0.0
  0
CIRCLE
  5
1D9
330
6F
100
AcDbEntity
  8
1-0
  6
Continuous
 62
     4
100
AcDbCircle
 10
1413.094298275224
 20
2437.684982206604
 30
0.0
 40
0.25
  0
CIRCLE
  5
1DA
330
6F
100
AcDbEntity
  8
1-0
  6
Continuous
 62
     4
100
AcDbCircle
 10
1413.094298275224
 20
2437.684982206604
 30
0.0
 40
0.1875
  0
CIRCLE
  5
1DB
330
6F
100
AcDbEntity
  8
1-0
  6
Continuous
 62
     4
100
AcDbCircle
 10
1413.094298275224
 20
2437.684982206604
 30
0.0
 40
0.125
  0
CIRCLE
  5
1DC
330
6F
100
AcDbEntity
  8
1-0
  6
Continuous
 62
     4
100
AcDbCircle
 10
1413.094298275224
 20
2437.684982206604
 30
0.0
 40
0.0625
  0
CIRCLE
  5
1DD
330
6F
100
AcDbEntity
  8
1-0
  6
Continuous
 62
     4
100
AcDbCircle
 10
1363.094298275224
 20
2437.684982206604
 30
0.0
 40
0.25
  0
CIRCLE
  5
1DE
330
6F
100
AcDbEntity
  8
1-0
  6
Continuous
 62
     4
100
AcDbCircle
 10
1363.094298275224
 20
2437.684982206604
 30
0.0
 40
0.1875
  0
CIRCLE
  5
1DF
330
6F
100
AcDbEntity
  8
1-0
  6
Continuous
 62
     4
100
AcDbCircle
 10
1363.094298275224
 20
2437.684982206604
 30
0.0
 40
0.125
  0
CIRCLE
  5
1E0
330
6F
100
AcDbEntity
  8
1-0
  6
Continuous
 62
     4
100
AcDbCircle
 10
1363.094298275224
 20
2437.684982206604
 30
0.0
 40
0.0625
  0
LINE
  5
1E1
330
6F
100
AcDbEntity
  8
1-0
  6
Continuous
 62
     4
100
AcDbLine
 10
1088.094298
 20
2389.487727
 30
0.0
 11
1088.094298
 21
2620.065621
 31
0.0
  0
LINE
  5
1E2
330
6F
100
AcDbEntity
  8
1-0
  6
Continuous
 62
     4
100
AcDbLine
 10
1388.094298
 20
2389.487727
 30
0.0
 11
1388.094298
 21
2620.065621
 31
0.0
  0
TEXT
  5
1E3
330
6F
100
AcDbEntity
  8
1-0
 62
     4
100
AcDbText
 10
1207.317
 20
2620.686
 30
0.0
 40
36.288
  1
300
100
AcDbText
  0
LINE
  5
1E4
330
6F
100
AcDbEntity
  8
1-0
  6
Continuous
 62
     4
100
AcDbLine
 10
1388.094298275224
 20
2620.065621344766
 30
0.0
 11
1088.094298275224
 21
2620.065621344766
 31
0.0
  0
CIRCLE
  5
1E5
330
6F
100
AcDbEntity
  8
1-0
  6
Continuous
 62
     4
100
AcDbCircle
 10
1388.094298275224
 20
2620.065621344766
 30
0.0
 40
0.25
  0
CIRCLE
  5
1E6
330
6F
100
AcDbEntity
  8
1-0
  6
Continuous
 62
     4
100
AcDbCircle
 10
1388.094298275224
 20
2620.065621344766
 30
0.0
 40
0.1875
  0
CIRCLE
  5
1E7
330
6F
100
AcDbEntity
  8
1-0
  6
Continuous
 62
     4
100
AcDbCircle
 10
1388.094298275224
 20
2620.065621344766
 30
0.0
 40
0.125
  0
CIRCLE
  5
1E8
330
6F
100
AcDbEntity
  8
1-0
  6
Continuous
 62
     4
100
AcDbCircle
 10
1388.094298275224
 20
2620.065621344766
 30
0.0
 40
0.0625
  0
CIRCLE
  5
1E9
330
6F
100
AcDbEntity
  8
1-0
  6
Continuous
 62
     4
100
AcDbCircle
 10
1088.094298275224
 20
2620.065621344766
 30
0.0
 40
0.25
  0
CIRCLE
  5
1EA
330
6F
100
AcDbEntity
  8
1-0
  6
Continuous
 62
     4
100
AcDbCircle
 10
1088.094298275224
 20
2620.065621344766
 30
0.0
 40
0.1875
  0
CIRCLE
  5
1EB
330
6F
100
AcDbEntity
  8
1-0
  6
Continuous
 62
     4
100
AcDbCircle
 10
1088.094298275224
 20
2620.065621344766
 30
0.0
 40
0.125
  0
CIRCLE
  5
1EC
330
6F
100
AcDbEntity
  8
1-0
  6
Continuous
 62
     4
100
AcDbCircle
 10
1088.094298275224
 20
2620.065621344766
 30
0.0
 40
0.0625
  0
LINE
  5
1ED
330
6F
100
AcDbEntity
  8
1-0
  6
Continuous
 62
     4
100
AcDbLine
 10
1388.094298
 20
2389.487727
 30
0.0
 11
1388.094298
 21
2620.065621
 31
0.0
  0
LINE
  5
1EE
330
6F
100
AcDbEntity
  8
1-0
  6
Continuous
 62
     4
100
AcDbLine
 10
1688.094298
 20
2389.487727
 30
0.0
 11
1688.094298
 21
2620.065621
 31
0.0
  0
TEXT
  5
1EF
330
6F
100
AcDbEntity
  8
1-0
 62
     4
100
AcDbText
 10
1507.317
 20
2620.686
 30
0.0
 40
36.288
  1
300
100
AcDbText
  0
LINE
  5
1F0
330
6F
100
AcDbEntity
  8
1-0
  6
Continuous
 62
     4
100
AcDbLine
 10
1688.094298275224
 20
2620.065621344766
 30
0.0
 11
1388.094298275224
 21
2620.065621344766
 31
0.0
  0
CIRCLE
  5
1F1
330
6F
100
AcDbEntity
  8
1-0
  6
Continuous
 62
     4
100
AcDbCircle
 10
1688.094298275224
 20
2620.065621344766
 30
0.0
 40
0.25
  0
CIRCLE
  5
1F2
330
6F
100
AcDbEntity
  8
1-0
  6
Continuous
 62
     4
100
AcDbCircle
 10
1688.094298275224
 20
2620.065621344766
 30
0.0
 40
0.1875
  0
CIRCLE
  5
1F3
330
6F
100
AcDbEntity
  8
1-0
  6
Continuous
 62
     4
100
AcDbCircle
 10
1688.094298275224
 20
2620.065621344766
 30
0.0
 40
0.125
  0
CIRCLE
  5
1F4
330
6F
100
AcDbEntity
  8
1-0
  6
Continuous
 62
     4
100
AcDbCircle
 10
1688.094298275224
 20
2620.065621344766
 30
0.0
 40
0.0625
  0
CIRCLE
  5
1F5
330
6F
100
AcDbEntity
  8
1-0
  6
Continuous
 62
     4
100
AcDbCircle
 10
1388.094298275224
 20
2620.065621344766
 30
0.0
 40
0.25
  0
CIRCLE
  5
1F6
330
6F
100
AcDbEntity
  8
1-0
  6
Continuous
 62
     4
100
AcDbCircle
 10
1388.094298275224
 20
2620.065621344766
 30
0.0
 40
0.1875
  0
CIRCLE
  5
1F7
330
6F
100
AcDbEntity
  8
1-0
  6
Continuous
 62
     4
100
AcDbCircle
 10
1388.094298275224
 20
2620.065621344766
 30
0.0
 40
0.125
  0
CIRCLE
  5
1F8
330
6F
100
AcDbEntity
  8
1-0
  6
Continuous
 62
     4
100
AcDbCircle
 10
1388.094298275224
 20
2620.065621344766
 30
0.0
 40
0.0625
  0
LINE
  5
1F9
330
6F
100
AcDbEntity
  8
1-0
  6
Continuous
 62
     4
100
AcDbLine
 10
1395.594298
 20
1581.433442
 30
0.0
 11
1395.594298
 21
1631.283246
 31
0.0
  0
LINE
  5
1FA
330
6F
100
AcDbEntity
  8
1-0
  6
Continuous
 62
     4
100
AcDbLine
 10
1673.094298
 20
1581.433442
 30
0.0
 11
1673.094298
 21
1631.283246
 31
0.0
  0
TEXT
  5
1FB
330
6F
100
AcDbEntity
  8
1-0
 62
     4
100
AcDbText
 10
1481.167
 20
1631.903
 30
0.0
 40
36.288
  1
277.5
100
AcDbText
  0
LINE
  5
1FC
330
6F
100
AcDbEntity
  8
1-0
  6
Continuous
 62
     4
100
AcDbLine
 10
1673.094298275224
 20
1631.283245817573
 30
0.0
 11
1395.594298275224
 21
1631.283245817573
 31
0.0
  0
CIRCLE
  5
1FD
330
6F
100
AcDbEntity
  8
1-0
  6
Continuous
 62
     4
100
AcDbCircle
 10
1673.094298275224
 20
1631.283245817573
 30
0.0
 40
0.25
  0
CIRCLE
  5
1FE
330
6F
100
AcDbEntity
  8
1-0
  6
Continuous
 62
     4
100
AcDbCircle
 10
1673.094298275224
 20
1631.283245817573
 30
0.0
 40
0.1875
  0
CIRCLE
  5
1FF
330
6F
100
AcDbEntity
  8
1-0
  6
Continuous
 62
     4
100
AcDbCircle
 10
1673.094298275224
 20
1631.283245817573
 30
0.0
 40
0.125
  0
CIRCLE
  5
200
330
6F
100
AcDbEntity
  8
1-0
  6
Continuous
 62
     4
100
AcDbCircle
 10
1673.094298275224
 20
1631.283245817573
 30
0.0
 40
0.0625
  0
CIRCLE
  5
201
330
6F
100
AcDbEntity
  8
1-0
  6
Continuous
 62
     4
100
AcDbCircle
 10
1395.594298275224
 20
1631.283245817573
 30
0.0
 40
0.25
  0
CIRCLE
  5
202
330
6F
100
AcDbEntity
  8
1-0
  6
Continuous
 62
     4
100
AcDbCircle
 10
1395.594298275224
 20
1631.283245817573
 30
0.0
 40
0.1875
  0
CIRCLE
  5
203
330
6F
100
AcDbEntity
  8
1-0
  6
Continuous
 62
     4
100
AcDbCircle
 10
1395.594298275224
 20
1631.283245817573
 30
0.0
 40
0.125
  0
CIRCLE
  5
204
330
6F
100
AcDbEntity
  8
1-0
  6
Continuous
 62
     4
100
AcDbCircle
 10
1395.594298275224
 20
1631.283245817573
 30
0.0
 40
0.0625
  0
LINE
  5
205
330
6F
100
AcDbEntity
  8
1-0
  6
Continuous
 62
     7
100
AcDbLine
 10
2749.334042
 20
1218.433442
 30
0.0
 11
2749.727697
 21
890.4334419999999
 31
0.0
  0
LINE
  5
206
330
6F
100
AcDbEntity
  8
1-0
  6
Continuous
 62
     4
100
AcDbLine
 10
2769.727697
 20
1561.433442
 30
0.0
 11
2858.025966000001
 21
1561.433442
 31
0.0
  0
LINE
  5
207
330
6F
100
AcDbEntity
  8
1-0
  6
Continuous
 62
     4
100
AcDbLine
 10
2769.727697
 20
1552.433442
 30
0.0
 11
2858.025966000001
 21
1552.433442
 31
0.0
  0
TEXT
  5
208
330
6F
100
AcDbEntity
  8
1-0
 62
     4
100
AcDbText
 10
2924.906
 20
1584.867
 30
0.0
 40
36.288
  1
9
 50
90.0
100
AcDbText
  0
LINE
  5
209
330
6F
100
AcDbEntity
  8
1-0
  6
Continuous
 62
     4
100
AcDbLine
 10
2858.02596609011
 20
1552.433442331238
 30
0.0
 11
2858.02596609011
 21
1561.433442331238
 31
0.0
  0
CIRCLE
  5
20A
330
6F
100
AcDbEntity
  8
1-0
  6
Continuous
 62
     4
100
AcDbCircle
 10
2858.02596609011
 20
1552.433442331238
 30
0.0
 40
0.25
  0
CIRCLE
  5
20B
330
6F
100
AcDbEntity
  8
1-0
  6
Continuous
 62
     4
100
AcDbCircle
 10
2858.02596609011
 20
1552.433442331238
 30
0.0
 40
0.1875
  0
CIRCLE
  5
20C
330
6F
100
AcDbEntity
  8
1-0
  6
Continuous
 62
     4
100
AcDbCircle
 10
2858.02596609011
 20
1552.433442331238
 30
0.0
 40
0.125
  0
CIRCLE
  5
20D
330
6F
100
AcDbEntity
  8
1-0
  6
Continuous
 62
     4
100
AcDbCircle
 10
2858.02596609011
 20
1552.433442331238
 30
0.0
 40
0.0625
  0
CIRCLE
  5
20E
330
6F
100
AcDbEntity
  8
1-0
  6
Continuous
 62
     4
100
AcDbCircle
 10
2858.02596609011
 20
1561.433442331238
 30
0.0
 40
0.25
  0
CIRCLE
  5
20F
330
6F
100
AcDbEntity
  8
1-0
  6
Continuous
 62
     4
100
AcDbCircle
 10
2858.02596609011
 20
1561.433442331238
 30
0.0
 40
0.1875
  0
CIRCLE
  5
210
330
6F
100
AcDbEntity
  8
1-0
  6
Continuous
 62
     4
100
AcDbCircle
 10
2858.02596609011
 20
1561.433442331238
 30
0.0
 40
0.125
  0
CIRCLE
  5
211
330
6F
100
AcDbEntity
  8
1-0
  6
Continuous
 62
     4
100
AcDbCircle
 10
2858.02596609011
 20
1561.433442331238
 30
0.0
 40
0.0625
  0
LINE
  5
212
330
6F
100
AcDbEntity
  8
1-0
  6
Continuous
 62
     4
100
AcDbLine
 10
2769.727697
 20
1552.433442
 30
0.0
 11
2858.025966000001
 21
1552.433442
 31
0.0
  0
LINE
  5
213
330
6F
100
AcDbEntity
  8
1-0
  6
Continuous
 62
     4
100
AcDbLine
 10
2769.727697
 20
1224.433442
 30
0.0
 11
2858.025966000001
 21
1224.433442
 31
0.0
  0
TEXT
  5
214
330
6F
100
AcDbEntity
  8
1-0
 62
     4
100
AcDbText
 10
2857.406
 20
1354.833
 30
0.0
 40
36.288
  1
328
 50
90.0
100
AcDbText
  0
LINE
  5
215
330
6F
100
AcDbEntity
  8
1-0
  6
Continuous
 62
     4
100
AcDbLine
 10
2858.025966090111
 20
1224.433442331238
 30
0.0
 11
2858.025966090111
 21
1552.433442331238
 31
0.0
  0
CIRCLE
  5
216
330
6F
100
AcDbEntity
  8
1-0
  6
Continuous
 62
     4
100
AcDbCircle
 10
2858.025966090111
 20
1224.433442331238
 30
0.0
 40
0.25
  0
CIRCLE
  5
217
330
6F
100
AcDbEntity
  8
1-0
  6
Continuous
 62
     4
100
AcDbCircle
 10
2858.025966090111
 20
1224.433442331238
 30
0.0
 40
0.1875
  0
CIRCLE
  5
218
330
6F
100
AcDbEntity
  8
1-0
  6
Continuous
 62
     4
100
AcDbCircle
 10
2858.025966090111
 20
1224.433442331238
 30
0.0
 40
0.125
  0
CIRCLE
  5
219
330
6F
100
AcDbEntity
  8
1-0
  6
Continuous
 62
     4
100
AcDbCircle
 10
2858.025966090111
 20
1224.433442331238
 30
0.0
 40
0.0625
  0
CIRCLE
  5
21A
330
6F
100
AcDbEntity
  8
1-0
  6
Continuous
 62
     4
100
AcDbCircle
 10
2858.025966090111
 20
1552.433442331238
 30
0.0
 40
0.25
  0
CIRCLE
  5
21B
330
6F
100
AcDbEntity
  8
1-0
  6
Continuous
 62
     4
100
AcDbCircle
 10
2858.025966090111
 20
1552.433442331238
 30
0.0
 40
0.1875
  0
CIRCLE
  5
21C
330
6F
100
AcDbEntity
  8
1-0
  6
Continuous
 62
     4
100
AcDbCircle
 10
2858.025966090111
 20
1552.433442331238
 30
0.0
 40
0.125
  0
CIRCLE
  5
21D
330
6F
100
AcDbEntity
  8
1-0
  6
Continuous
 62
     4
100
AcDbCircle
 10
2858.025966090111
 20
1552.433442331238
 30
0.0
 40
0.0625
  0
LINE
  5
21E
330
6F
100
AcDbEntity
  8
1-0
  6
Continuous
 62
     4
100
AcDbLine
 10
2769.727697
 20
1224.433442
 30
0.0
 11
2858.025966000001
 21
1224.433442
 31
0.0
  0
LINE
  5
21F
330
6F
100
AcDbEntity
  8
1-0
  6
Continuous
 62
     4
100
AcDbLine
 10
2769.334042
 20
1218.433442
 30
0.0
 11
2858.025966000001
 21
1218.433442
 31
0.0
  0
TEXT
  5
220
330
6F
100
AcDbEntity
  8
1-0
 62
     4
100
AcDbText
 10
2924.906
 20
1249.367
 30
0.0
 40
36.288
  1
6
 50
90.0
100
AcDbText
  0
LINE
  5
221
330
6F
100
AcDbEntity
  8
1-0
  6
Continuous
 62
     4
100
AcDbLine
 10
2858.025966090113
 20
1218.433442331238
 30
0.0
 11
2858.025966090113
 21
1224.433442331238
 31
0.0
  0
CIRCLE
  5
222
330
6F
100
AcDbEntity
  8
1-0
  6
Continuous
 62
     4
100
AcDbCircle
 10
2858.025966090113
 20
1218.433442331238
 30
0.0
 40
0.25
  0
CIRCLE
  5
223
330
6F
100
AcDbEntity
  8
1-0
  6
Continuous
 62
     4
100
AcDbCircle
 10
2858.025966090113
 20
1218.433442331238
 30
0.0
 40
0.1875
  0
CIRCLE
  5
224
330
6F
100
AcDbEntity
  8
1-0
  6
Continuous
 62
     4
100
AcDbCircle
 10
2858.025966090113
 20
1218.433442331238
 30
0.0
 40
0.125
  0
CIRCLE
  5
225
330
6F
100
AcDbEntity
  8
1-0
  6
Continuous
 62
     4
100
AcDbCircle
 10
2858.025966090113
 20
1218.433442331238
 30
0.0
 40
0.0625
  0
CIRCLE
  5
226
330
6F
100
AcDbEntity
  8
1-0
  6
Continuous
 62
     4
100
AcDbCircle
 10
2858.025966090113
 20
1224.433442331238
 30
0.0
 40
0.25
  0
CIRCLE
  5
227
330
6F
100
AcDbEntity
  8
1-0
  6
Continuous
 62
     4
100
AcDbCircle
 10
2858.025966090113
 20
1224.433442331238
 30
0.0
 40
0.1875
  0
CIRCLE
  5
228
330
6F
100
AcDbEntity
  8
1-0
  6
Continuous
 62
     4
100
AcDbCircle
 10
2858.025966090113
 20
1224.433442331238
 30
0.0
 40
0.125
  0
CIRCLE
  5
229
330
6F
100
AcDbEntity
  8
1-0
  6
Continuous
 62
     4
100
AcDbCircle
 10
2858.025966090113
 20
1224.433442331238
 30
0.0
 40
0.0625
  0
LINE
  5
22A
330
6F
100
AcDbEntity
  8
1-0
  6
Continuous
 62
     4
100
AcDbLine
 10
2769.334042
 20
1218.433442
 30
0.0
 11
2858.025966000001
 21
1218.433442
 31
0.0
  0
LINE
  5
22B
330
6F
100
AcDbEntity
  8
1-0
  6
Continuous
 62
     4
100
AcDbLine
 10
2769.727697
 20
890.4334419999999
 30
0.0
 11
2858.025966000001
 21
890.4334419999999
 31
0.0
  0
TEXT
  5
22C
330
6F
100
AcDbEntity
  8
1-0
 62
     4
100
AcDbText
 10
2857.406
 20
1020.833
 30
0.0
 40
36.288
  1
328
 50
90.0
100
AcDbText
  0
LINE
  5
22D
330
6F
100
AcDbEntity
  8
1-0
  6
Continuous
 62
     4
100
AcDbLine
 10
2858.025966090115
 20
890.4334423312379
 30
0.0
 11
2858.025966090115
 21
1218.433442331238
 31
0.0
  0
CIRCLE
  5
22E
330
6F
100
AcDbEntity
  8
1-0
  6
Continuous
 62
     4
100
AcDbCircle
 10
2858.025966090115
 20
890.4334423312379
 30
0.0
 40
0.25
  0
CIRCLE
  5
22F
330
6F
100
AcDbEntity
  8
1-0
  6
Continuous
 62
     4
100
AcDbCircle
 10
2858.025966090115
 20
890.4334423312379
 30
0.0
 40
0.1875
  0
CIRCLE
  5
230
330
6F
100
AcDbEntity
  8
1-0
  6
Continuous
 62
     4
100
AcDbCircle
 10
2858.025966090115
 20
890.4334423312379
 30
0.0
 40
0.125
  0
CIRCLE
  5
231
330
6F
100
AcDbEntity
  8
1-0
  6
Continuous
 62
     4
100
AcDbCircle
 10
2858.025966090115
 20
890.4334423312379
 30
0.0
 40
0.0625
  0
CIRCLE
  5
232
330
6F
100
AcDbEntity
  8
1-0
  6
Continuous
 62
     4
100
AcDbCircle
 10
2858.025966090115
 20
1218.433442331238
 30
0.0
 40
0.25
  0
CIRCLE
  5
233
330
6F
100
AcDbEntity
  8
1-0
  6
Continuous
 62
     4
100
AcDbCircle
 10
2858.025966090115
 20
1218.433442331238
 30
0.0
 40
0.1875
  0
CIRCLE
  5
234
330
6F
100
AcDbEntity
  8
1-0
  6
Continuous
 62
     4
100
AcDbCircle
 10
2858.025966090115
 20
1218.433442331238
 30
0.0
 40
0.125
  0
CIRCLE
  5
235
330
6F
100
AcDbEntity
  8
1-0
  6
Continuous
 62
     4
100
AcDbCircle
 10
2858.025966090115
 20
1218.433442331238
 30
0.0
 40
0.0625
  0
LINE
  5
236
330
6F
100
AcDbEntity
  8
1-0
  6
Continuous
 62
     4
100
AcDbLine
 10
2769.727697
 20
890.4334419999999
 30
0.0
 11
2858.025966000001
 21
890.4334419999999
 31
0.0
  0
LINE
  5
237
330
6F
100
AcDbEntity
  8
1-0
  6
Continuous
 62
     4
100
AcDbLine
 10
2769.727697
 20
881.4334419999999
 30
0.0
 11
2858.025966000001
 21
881.4334419999999
 31
0.0
  0
TEXT
  5
238
330
6F
100
AcDbEntity
  8
1-0
 62
     4
100
AcDbText
 10
2924.906
 20
913.8669999999999
 30
0.0
 40
36.288
  1
9
 50
90.0
100
AcDbText
  0
LINE
  5
239
330
6F
100
AcDbEntity
  8
1-0
  6
Continuous
 62
     4
100
AcDbLine
 10
2858.025966090117
 20
881.4334423312379
 30
0.0
 11
2858.025966090117
 21
890.4334423312379
 31
0.0
  0
CIRCLE
  5
23A
330
6F
100
AcDbEntity
  8
1-0
  6
Continuous
 62
     4
100
AcDbCircle
 10
2858.025966090117
 20
881.4334423312379
 30
0.0
 40
0.25
  0
CIRCLE
  5
23B
330
6F
100
AcDbEntity
  8
1-0
  6
Continuous
 62
     4
100
AcDbCircle
 10
2858.025966090117
 20
881.4334423312379
 30
0.0
 40
0.1875
  0
CIRCLE
  5
23C
330
6F
100
AcDbEntity
  8
1-0
  6
Continuous
 62
     4
100
AcDbCircle
 10
2858.025966090117
 20
881.4334423312379
 30
0.0
 40
0.125
  0
CIRCLE
  5
23D
330
6F
100
AcDbEntity
  8
1-0
  6
Continuous
 62
     4
100
AcDbCircle
 10
2858.025966090117
 20
881.4334423312379
 30
0.0
 40
0.0625
  0
CIRCLE
  5
23E
330
6F
100
AcDbEntity
  8
1-0
  6
Continuous
 62
     4
100
AcDbCircle
 10
2858.025966090117
 20
890.4334423312379
 30
0.0
 40
0.25
  0
CIRCLE
  5
23F
330
6F
100
AcDbEntity
  8
1-0
  6
Continuous
 62
     4
100
AcDbCircle
 10
2858.025966090117
 20
890.4334423312379
 30
0.0
 40
0.1875
  0
CIRCLE
  5
240
330
6F
100
AcDbEntity
  8
1-0
  6
Continuous
 62
     4
100
AcDbCircle
 10
2858.025966090117
 20
890.4334423312379
 30
0.0
 40
0.125
  0
CIRCLE
  5
241
330
6F
100
AcDbEntity
  8
1-0
  6
Continuous
 62
     4
100
AcDbCircle
 10
2858.025966090117
 20
890.4334423312379
 30
0.0
 40
0.0625
  0
LINE
  5
242
330
6F
100
AcDbEntity
  8
9-0
  6
Continuous
 62
     4
100
AcDbLine
 10
2731.727697
 20
861.433442
 30
0.0
 11
2731.727697
 21
801.5389649999999
 31
0.0
  0
LINE
  5
243
330
6F
100
AcDbEntity
  8
9-0
  6
Continuous
 62
     4
100
AcDbLine
 10
2734.727697
 20
861.433442
 30
0.0
 11
2734.727697
 21
801.5389649999999
 31
0.0
  0
LINE
  5
244
330
6F
100
AcDbEntity
  8
9-0
  6
Continuous
 62
     4
100
AcDbLine
 10
2721.727697
 20
801.5389649999999
 30
0.0
 11
2711.727697
 21
801.5389649999999
 31
0.0
  0
LINE
  5
245
330
6F
100
AcDbEntity
  8
9-0
  6
Continuous
 62
     4
100
AcDbLine
 10
2744.727697
 20
801.5389649999999
 30
0.0
 11
2754.727697
 21
801.5389649999999
 31
0.0
  0
LINE
  5
246
330
6F
100
AcDbEntity
  8
9-0
  6
Continuous
 62
     4
100
AcDbLine
 10
2733.227697
 20
801.5389649999999
 30
0.0
 11
2776.482914000001
 21
725.1773749999999
 31
0.0
  0
LINE
  5
247
330
6F
100
AcDbEntity
  8
9-0
  6
Continuous
 62
     4
100
AcDbLine
 10
2776.482914000001
 20
725.1773749999999
 30
0.0
 11
2814.604742
 21
725.1773749999999
 31
0.0
  0
TEXT
  5
248
330
6F
100
AcDbEntity
  8
9-0
 62
     4
100
AcDbText
 10
2787.166
 20
725.797
 30
0.0
 40
36.288
  1
3
100
AcDbText
  0
LINE
  5
249
330
6F
100
AcDbEntity
  8
9-0
  6
Continuous
 62
     4
100
AcDbLine
 10
2731.727697
 20
801.5389649999999
 30
0.0
 11
2734.727697
 21
801.5389649999999
 31
0.0
  0
LINE
  5
24A
330
6F
100
AcDbEntity
  8
9-0
  6
Continuous
 62
     4
100
AcDbLine
 10
2731.727697
 20
801.5389649999999
 30
0.0
 11
2734.727697
 21
801.5389649999999
 31
0.0
  0
CIRCLE
  5
24B
330
6F
100
AcDbEntity
  8
9-0
  6
Continuous
 62
     4
100
AcDbCircle
 10
2731.727697481689
 20
801.538964513227
 30
0.0
 40
0.25
  0
CIRCLE
  5
24C
330
6F
100
AcDbEntity
  8
9-0
  6
Continuous
 62
     4
100
AcDbCircle
 10
2731.727697481689
 20
801.538964513227
 30
0.0
 40
0.1875
  0
CIRCLE
  5
24D
330
6F
100
AcDbEntity
  8
9-0
  6
Continuous
 62
     4
100
AcDbCircle
 10
2731.727697481689
 20
801.538964513227
 30
0.0
 40
0.125
  0
CIRCLE
  5
24E
330
6F
100
AcDbEntity
  8
9-0
  6
Continuous
 62
     4
100
AcDbCircle
 10
2731.727697481689
 20
801.538964513227
 30
0.0
 40
0.0625
  0
ARC
  5
24F
330
6F
100
AcDbEntity
  8
9-0
 62
     4
100
AcDbCircle
 10
2731.727697481689
 20
801.543964513227
 30
0.0
 40
2.5
100
AcDbArc
 50
0.1145914065300158
 51
180.114591405945
  0
LINE
  5
250
330
6F
100
AcDbEntity
  8
9-0
 62
     4
100
AcDbLine
 10
2726.727697481689
 20
801.538964513227
 30
0.0
 11
2721.727697481689
 21
801.538964513227
 31
0.0
  0
CIRCLE
  5
251
330
6F
100
AcDbEntity
  8
9-0
  6
Continuous
 62
     4
100
AcDbCircle
 10
2734.727697481688
 20
801.538964513227
 30
0.0
 40
0.25
  0
CIRCLE
  5
252
330
6F
100
AcDbEntity
  8
9-0
  6
Continuous
 62
     4
100
AcDbCircle
 10
2734.727697481688
 20
801.538964513227
 30
0.0
 40
0.1875
  0
CIRCLE
  5
253
330
6F
100
AcDbEntity
  8
9-0
  6
Continuous
 62
     4
100
AcDbCircle
 10
2734.727697481688
 20
801.538964513227
 30
0.0
 40
0.125
  0
CIRCLE
  5
254
330
6F
100
AcDbEntity
  8
9-0
  6
Continuous
 62
     4
100
AcDbCircle
 10
2734.727697481688
 20
801.538964513227
 30
0.0
 40
0.0625
  0
ARC
  5
255
330
6F
100
AcDbEntity
  8
9-0
 62
     4
100
AcDbCircle
 10
2734.727697481688
 20
801.5339645132268
 30
0.0
 40
2.5
100
AcDbArc
 50
180.1145914065301
 51
0.1145914059449637
  0
LINE
  5
256
330
6F
100
AcDbEntity
  8
9-0
 62
     4
100
AcDbLine
 10
2739.727697481688
 20
801.5389645132781
 30
0.0
 11
2744.727697481688
 21
801.5389645133289
 31
0.0
  0
LINE
  5
257
330
6F
100
AcDbEntity
  8
9-0
  6
Continuous
 62
     4
100
AcDbLine
 10
2734.727697
 20
861.433442
 30
0.0
 11
2734.727697
 21
801.5389649999999
 31
0.0
  0
LINE
  5
258
330
6F
100
AcDbEntity
  8
9-0
  6
Continuous
 62
     4
100
AcDbLine
 10
2749.727697
 20
861.433442
 30
0.0
 11
2749.727697
 21
801.5389649999999
 31
0.0
  0
LINE
  5
259
330
6F
100
AcDbEntity
  8
9-0
  6
Continuous
 62
     4
100
AcDbLine
 10
2724.727697
 20
801.5389649999999
 30
0.0
 11
2714.727697
 21
801.5389649999999
 31
0.0
  0
LINE
  5
25A
330
6F
100
AcDbEntity
  8
9-0
  6
Continuous
 62
     4
100
AcDbLine
 10
2759.727697
 20
801.5389649999999
 30
0.0
 11
2769.727697
 21
801.5389649999999
 31
0.0
  0
LINE
  5
25B
330
6F
100
AcDbEntity
  8
9-0
  6
Continuous
 62
     4
100
AcDbLine
 10
2742.227697
 20
801.5389649999999
 30
0.0
 11
2821.491346
 21
772.0916069999999
 31
0.0
  0
LINE
  5
25C
330
6F
100
AcDbEntity
  8
9-0
  6
Continuous
 62
     4
100
AcDbLine
 10
2821.491346
 20
772.0916069999999
 30
0.0
 11
2879.866981000001
 21
772.0916069999999
 31
0.0
  0
TEXT
  5
25D
330
6F
100
AcDbEntity
  8
9-0
 62
     4
100
AcDbText
 10
2831.102
 20
772.712
 30
0.0
 40
36.288
  1
15
100
AcDbText
  0
LINE
  5
25E
330
6F
100
AcDbEntity
  8
9-0
  6
Continuous
 62
     4
100
AcDbLine
 10
2734.727697
 20
801.5389649999999
 30
0.0
 11
2749.727697
 21
801.5389649999999
 31
0.0
  0
LINE
  5
25F
330
6F
100
AcDbEntity
  8
9-0
  6
Continuous
 62
     4
100
AcDbLine
 10
2734.727697
 20
801.5389649999999
 30
0.0
 11
2749.727697
 21
801.5389649999999
 31
0.0
  0
CIRCLE
  5
260
330
6F
100
AcDbEntity
  8
9-0
  6
Continuous
 62
     4
100
AcDbCircle
 10
2734.727697481688
 20
801.538964513227
 30
0.0
 40
0.25
  0
CIRCLE
  5
261
330
6F
100
AcDbEntity
  8
9-0
  6
Continuous
 62
     4
100
AcDbCircle
 10
2734.727697481688
 20
801.538964513227
 30
0.0
 40
0.1875
  0
CIRCLE
  5
262
330
6F
100
AcDbEntity
  8
9-0
  6
Continuous
 62
     4
100
AcDbCircle
 10
2734.727697481688
 20
801.538964513227
 30
0.0
 40
0.125
  0
CIRCLE
  5
263
330
6F
100
AcDbEntity
  8
9-0
  6
Continuous
 62
     4
100
AcDbCircle
 10
2734.727697481688
 20
801.538964513227
 30
0.0
 40
0.0625
  0
ARC
  5
264
330
6F
100
AcDbEntity
  8
9-0
 62
     4
100
AcDbCircle
 10
2734.727697481688
 20
801.543964513227
 30
0.0
 40
2.5
100
AcDbArc
 50
0.1145914065300158
 51
180.114591405945
  0
LINE
  5
265
330
6F
100
AcDbEntity
  8
9-0
 62
     4
100
AcDbLine
 10
2729.727697481688
 20
801.538964513227
 30
0.0
 11
2724.727697481688
 21
801.538964513227
 31
0.0
  0
CIRCLE
  5
266
330
6F
100
AcDbEntity
  8
9-0
  6
Continuous
 62
     4
100
AcDbCircle
 10
2749.727697481689
 20
801.538964513227
 30
0.0
 40
0.25
  0
CIRCLE
  5
267
330
6F
100
AcDbEntity
  8
9-0
  6
Continuous
 62
     4
100
AcDbCircle
 10
2749.727697481689
 20
801.538964513227
 30
0.0
 40
0.1875
  0
CIRCLE
  5
268
330
6F
100
AcDbEntity
  8
9-0
  6
Continuous
 62
     4
100
AcDbCircle
 10
2749.727697481689
 20
801.538964513227
 30
0.0
 40
0.125
  0
CIRCLE
  5
269
330
6F
100
AcDbEntity
  8
9-0
  6
Continuous
 62
     4
100
AcDbCircle
 10
2749.727697481689
 20
801.538964513227
 30
0.0
 40
0.0625
  0
ARC
  5
26A
330
6F
100
AcDbEntity
  8
9-0
 62
     4
100
AcDbCircle
 10
2749.727697481689
 20
801.5339645132268
 30
0.0
 40
2.5
100
AcDbArc
 50
180.1145914065301
 51
0.1145914059449637
  0
LINE
  5
26B
330
6F
100
AcDbEntity
  8
9-0
 62
     4
100
AcDbLine
 10
2754.727697481689
 20
801.5389645132781
 30
0.0
 11
2759.727697481689
 21
801.5389645133289
 31
0.0
  0
LINE
  5
26C
330
6F
100
AcDbEntity
  8
9-0
  6
Continuous
 62
     4
100
AcDbLine
 10
1682.094298
 20
870.433442
 30
0.0
 11
1682.094298
 21
780.008218
 31
0.0
  0
LINE
  5
26D
330
6F
100
AcDbEntity
  8
9-0
  6
Continuous
 62
     4
100
AcDbLine
 10
1688.094298
 20
870.433442
 30
0.0
 11
1688.094298
 21
780.008218
 31
0.0
  0
TEXT
  5
26E
330
6F
100
AcDbEntity
  8
9-0
 62
     4
100
AcDbText
 10
1715.85
 20
713.128
 30
0.0
 40
36.288
  1
6
100
AcDbText
  0
LINE
  5
26F
330
6F
100
AcDbEntity
  8
9-0
  6
Continuous
 62
     4
100
AcDbLine
 10
1688.094298275224
 20
780.0082183656099
 30
0.0
 11
1682.094298275224
 21
780.0082183656099
 31
0.0
  0
CIRCLE
  5
270
330
6F
100
AcDbEntity
  8
9-0
  6
Continuous
 62
     4
100
AcDbCircle
 10
1688.094298275224
 20
780.0082183656099
 30
0.0
 40
0.25
  0
CIRCLE
  5
271
330
6F
100
AcDbEntity
  8
9-0
  6
Continuous
 62
     4
100
AcDbCircle
 10
1688.094298275224
 20
780.0082183656099
 30
0.0
 40
0.1875
  0
CIRCLE
  5
272
330
6F
100
AcDbEntity
  8
9-0
  6
Continuous
 62
     4
100
AcDbCircle
 10
1688.094298275224
 20
780.0082183656099
 30
0.0
 40
0.125
  0
CIRCLE
  5
273
330
6F
100
AcDbEntity
  8
9-0
  6
Continuous
 62
     4
100
AcDbCircle
 10
1688.094298275224
 20
780.0082183656099
 30
0.0
 40
0.0625
  0
CIRCLE
  5
274
330
6F
100
AcDbEntity
  8
9-0
  6
Continuous
 62
     4
100
AcDbCircle
 10
1682.094298275224
 20
780.0082183656099
 30
0.0
 40
0.25
  0
CIRCLE
  5
275
330
6F
100
AcDbEntity
  8
9-0
  6
Continuous
 62
     4
100
AcDbCircle
 10
1682.094298275224
 20
780.0082183656099
 30
0.0
 40
0.1875
  0
CIRCLE
  5
276
330
6F
100
AcDbEntity
  8
9-0
  6
Continuous
 62
     4
100
AcDbCircle
 10
1682.094298275224
 20
780.0082183656099
 30
0.0
 40
0.125
  0
CIRCLE
  5
277
330
6F
100
AcDbEntity
  8
9-0
  6
Continuous
 62
     4
100
AcDbCircle
 10
1682.094298275224
 20
780.0082183656099
 30
0.0
 40
0.0625
  0
TEXT
  5
278
330
6F
100
AcDbEntity
  8
D-0
 62
     5
100
AcDbText
 10
3981.508
 20
44.03699999999999
 30
0.0
 40
31.104
  1
2022.1
100
AcDbText
  0
ENDSEC
  0
SECTION
  2
OBJECTS
  0
DICTIONARY
  5
C
330
0
100
AcDbDictionary
281
     1
  3
ACAD_CIP_PREVIOUS_PRODUCT_INFO
350
27A
  3
ACAD_COLOR
350
62
  3
ACAD_DETAILVIEWSTYLE
350
69
  3
ACAD_GROUP
350
D
  3
ACAD_LAYOUT
350
61
  3
ACAD_MATERIAL
350
10
  3
ACAD_MLEADERSTYLE
350
65
  3
ACAD_MLINESTYLE
350
5E
  3
ACAD_PLOTSETTINGS
350
60
  3
ACAD_PLOTSTYLENAME
350
E
  3
ACAD_SCALELIST
350
42
  3
ACAD_SECTIONVIEWSTYLE
350
67
  3
ACAD_TABLESTYLE
350
63
  3
ACAD_VISUALSTYLE
350
29
  3
ACDB_RECOMPOSE_DATA
350
29C
  3
AcDbVariableDictionary
350
28F
  3
DWGPROPS
350
29D
  0
DICTIONARY
  5
27B
330
54
100
AcDbDictionary
280
     1
281
     1
  3
ADSK_XREC_LAYER_RECONCILED
360
27C
  0
DICTIONARY
  5
27D
330
7F
100
AcDbDictionary
280
     1
281
     1
  3
ADSK_XREC_LAYER_RECONCILED
360
27E
  0
DICTIONARY
  5
27F
330
80
100
AcDbDictionary
280
     1
281
     1
  3
ADSK_XREC_LAYER_RECONCILED
360
280
  0
DICTIONARY
  5
281
330
81
100
AcDbDictionary
280
     1
281
     1
  3
ADSK_XREC_LAYER_RECONCILED
360
282
  0
DICTIONARY
  5
283
330
82
100
AcDbDictionary
280
     1
281
     1
  3
ADSK_XREC_LAYER_RECONCILED
360
284
  0
DICTIONARY
  5
285
330
83
100
AcDbDictionary
280
     1
281
     1
  3
ADSK_XREC_LAYER_RECONCILED
360
286
  0
DICTIONARY
  5
287
330
84
100
AcDbDictionary
280
     1
281
     1
  3
ADSK_XREC_LAYER_RECONCILED
360
288
  0
DICTIONARY
  5
289
330
85
100
AcDbDictionary
280
     1
281
     1
  3
ADSK_XREC_LAYER_RECONCILED
360
28A
  0
DICTIONARY
  5
28B
330
86
100
AcDbDictionary
280
     1
281
     1
  3
ADSK_XREC_LAYER_RECONCILED
360
28C
  0
DICTIONARY
  5
28D
330
8C
100
AcDbDictionary
280
     1
281
     1
  3
ADSK_XREC_LAYER_RECONCILED
360
28E
  0
XRECORD
  5
27A
102
{ACAD_REACTORS
330
C
102
}
330
C
100
AcDbXrecord
280
     1
300
ACDLT
300
2020
300

  0
DICTIONARY
  5
62
102
{ACAD_REACTORS
330
C
102
}
330
C
100
AcDbDictionary
281
     1
  0
DICTIONARY
  5
69
102
{ACAD_REACTORS
330
C
102
}
330
C
100
AcDbDictionary
281
     1
  3
Imperial24
350
6A
  0
DICTIONARY
  5
D
102
{ACAD_REACTORS
330
C
102
}
330
C
100
AcDbDictionary
281
     1
  0
DICTIONARY
  5
61
102
{ACAD_REACTORS
330
C
102
}
330
C
100
AcDbDictionary
281
     1
  3
Model
350
72
  3
レイアウト1
350
6E
  0
DICTIONARY
  5
10
102
{ACAD_REACTORS
330
C
102
}
330
C
100
AcDbDictionary
281
     1
  3
ByBlock
350
19
  3
ByLayer
350
11
  3
Global
350
21
  0
DICTIONARY
  5
65
102
{ACAD_REACTORS
330
C
102
}
330
C
100
AcDbDictionary
281
     1
  3
Standard
350
66
  0
DICTIONARY
  5
5E
102
{ACAD_REACTORS
330
C
102
}
330
C
100
AcDbDictionary
281
     1
  3
Standard
350
5F
  0
DICTIONARY
  5
60
102
{ACAD_REACTORS
330
C
102
}
330
C
100
AcDbDictionary
281
     1
  0
ACDBDICTIONARYWDFLT
  5
E
102
{ACAD_REACTORS
330
C
102
}
330
C
100
AcDbDictionary
281
     1
  3
Normal
350
F
100
AcDbDictionaryWithDefault
340
F
  0
DICTIONARY
  5
42
102
{ACAD_REACTORS
330
C
102
}
330
C
100
AcDbDictionary
281
     1
  3
A0
350
43
  3
A1
350
44
  3
A2
350
45
  3
A3
350
46
  3
A4
350
47
  3
A5
350
48
  3
A6
350
49
  3
A7
350
4A
  3
A8
350
4B
  3
A9
350
4C
  3
B0
350
4D
  3
B1
350
4E
  3
B2
350
4F
  3
B3
350
50
  3
B4
350
51
  3
B5
350
52
  3
B6
350
53
  0
DICTIONARY
  5
67
102
{ACAD_REACTORS
330
C
102
}
330
C
100
AcDbDictionary
281
     1
  3
Imperial24
350
68
  0
DICTIONARY
  5
63
102
{ACAD_REACTORS
330
C
102
}
330
C
100
AcDbDictionary
281
     1
  3
Standard
350
64
  0
DICTIONARY
  5
29
102
{ACAD_REACTORS
330
C
102
}
330
C
100
AcDbDictionary
281
     1
  3
2dWireframe
350
2F
  3
Basic
350
2E
  3
Brighten
350
35
  3
ColorChange
350
39
  3
Conceptual
350
32
  3
Dim
350
34
  3
EdgeColorOff
350
41
  3
Facepattern
350
38
  3
Flat
350
2A
  3
FlatWithEdges
350
2B
  3
Gouraud
350
2C
  3
GouraudWithEdges
350
2D
  3
Hidden
350
31
  3
JitterOff
350
3F
  3
Linepattern
350
37
  3
OverhangOff
350
40
  3
Realistic
350
33
  3
Shaded
350
3E
  3
Shaded with edges
350
3D
  3
Shades of Gray
350
3A
  3
Sketchy
350
3B
  3
Thicken
350
36
  3
Wireframe
350
30
  3
X-Ray
350
3C
  0
XRECORD
  5
29C
102
{ACAD_REACTORS
330
C
102
}
330
C
100
AcDbXrecord
280
     1
 90
        1
330
64
  0
DICTIONARY
  5
28F
102
{ACAD_REACTORS
330
C
102
}
330
C
100
AcDbDictionary
281
     1
  3
CANNOSCALE
350
294
  3
CMLEADERSTYLE
350
291
  3
CTABLESTYLE
350
290
  3
CVIEWDETAILSTYLE
350
292
  3
CVIEWSECTIONSTYLE
350
293
  3
DIMASSOC
350
297
  3
INDEXCTL
350
296
  3
SORTENTS
350
295
  3
XCLIPFRAME
350
298
  0
XRECORD
  5
29D
102
{ACAD_REACTORS
330
C
102
}
330
C
100
AcDbXrecord
280
     1
  1
DWGPROPS COOKIE
  2

  3

  4

  6

  7

  8
suzuki
  9

300
=
301
=
302
=
303
=
304
=
305
=
306
=
307
=
308
=
309
=
 40
0.0001851851851852
 41
2459605.628761575
 42
2459605.628946759
  1

 90
        0
  0
XRECORD
  5
27C
102
{ACAD_REACTORS
330
27B
102
}
330
27B
100
AcDbXrecord
280
     1
290
     1
  0
XRECORD
  5
27E
102
{ACAD_REACTORS
330
27D
102
}
330
27D
100
AcDbXrecord
280
     1
290
     1
  0
XRECORD
  5
280
102
{ACAD_REACTORS
330
27F
102
}
330
27F
100
AcDbXrecord
280
     1
290
     1
  0
XRECORD
  5
282
102
{ACAD_REACTORS
330
281
102
}
330
281
100
AcDbXrecord
280
     1
290
     1
  0
XRECORD
  5
284
102
{ACAD_REACTORS
330
283
102
}
330
283
100
AcDbXrecord
280
     1
290
     1
  0
XRECORD
  5
286
102
{ACAD_REACTORS
330
285
102
}
330
285
100
AcDbXrecord
280
     1
290
     1
  0
XRECORD
  5
288
102
{ACAD_REACTORS
330
287
102
}
330
287
100
AcDbXrecord
280
     1
290
     1
  0
XRECORD
  5
28A
102
{ACAD_REACTORS
330
289
102
}
330
289
100
AcDbXrecord
280
     1
290
     1
  0
XRECORD
  5
28C
102
{ACAD_REACTORS
330
28B
102
}
330
28B
100
AcDbXrecord
280
     1
290
     1
  0
XRECORD
  5
28E
102
{ACAD_REACTORS
330
28D
102
}
330
28D
100
AcDbXrecord
280
     1
290
     1
  0
ACDBDETAILVIEWSTYLE
  5
6A
102
{ACAD_XDICTIONARY
360
2D5
102
}
102
{ACAD_REACTORS
330
69
102
}
330
69
100
AcDbModelDocViewStyle
 70
     0
  3
Imperial24
290
     0
100
AcDbDetailViewStyle
 70
     0
 71
     0
 90
        3
 71
     1
340
55
 40
0.24
340
0
 40
0.24
300

 40
0.36
280
     3
 71
     2
340
5C
 90
       25
 71
     3
340
55
 40
0.24
 90
        1
 40
0.75
 90
        1
300
%<\AcVar ViewType \f "%tc1">% %<\AcVar ViewDetailId>%\PSCALE %<\AcVar ViewScale \f "%sn">%
 71
     4
340
5C
 90
       25
340
5C
 90
       25
280
     0
  0
LAYOUT
  5
72
102
{ACAD_XDICTIONARY
360
2D9
102
}
102
{ACAD_REACTORS
330
61
102
}
330
61
100
AcDbPlotSettings
  1

  2
DocuCentre-V 4070
  4

  6

 40
0.0
 41
0.0
 42
0.0
 43
0.0
 44
0.0
 45
0.0
 46
0.0
 47
0.0
 48
0.0
 49
0.0
140
0.0
141
0.0
142
1.0
143
1.0
 70
  1712
 72
     0
 73
     0
 74
     0
  7

 75
     0
147
1.0
148
0.0
149
0.0
100
AcDbLayout
  1
Model
 70
     1
 71
     0
 10
0.0
 20
0.0
 11
12.0
 21
9.0
 12
0.0
 22
0.0
 32
0.0
 14
0.0
 24
0.0
 34
0.0
 15
0.0
 25
0.0
 35
0.0
146
0.0
 13
0.0
 23
0.0
 33
0.0
 16
1.0
 26
0.0
 36
0.0
 17
0.0
 27
1.0
 37
0.0
 76
     0
330
6F
331
8B
  0
LAYOUT
  5
6E
102
{ACAD_XDICTIONARY
360
2D7
102
}
102
{ACAD_REACTORS
330
61
102
}
330
61
100
AcDbPlotSettings
  1

  2
DocuCentre-V 4070
  4

  6

 40
0.0
 41
0.0
 42
0.0
 43
0.0
 44
0.0
 45
0.0
 46
0.0
 47
0.0
 48
0.0
 49
0.0
140
0.0
141
0.0
142
1.0
143
1.0
 70
   688
 72
     0
 73
     0
 74
     5
  7

 75
    16
147
1.0
148
0.0
149
0.0
100
AcDbLayout
  1
レイアウト1
 70
     1
 71
     1
 10
0.0
 20
0.0
 11
12.0
 21
9.0
 12
0.0
 22
0.0
 32
0.0
 14
1.000000000000000E+20
 24
1.000000000000000E+20
 34
1.000000000000000E+20
 15
-1.000000000000000E+20
 25
-1.000000000000000E+20
 35
-1.000000000000000E+20
146
0.0
 13
0.0
 23
0.0
 33
0.0
 16
1.0
 26
0.0
 36
0.0
 17
0.0
 27
1.0
 37
0.0
 76
     0
330
6B
  0
MATERIAL
  5
19
102
{ACAD_XDICTIONARY
360
1A
102
}
102
{ACAD_REACTORS
330
10
102
}
330
10
100
AcDbMaterial
  1
ByBlock
 72
     0
 43
0.0208333333333333
 43
0.0
 43
0.0
 43
0.0
 43
0.0
 43
0.0208333333333333
 43
0.0
 43
0.0
 43
0.0
 43
0.0
 43
1.0
 43
0.0
 43
0.0
 43
0.0
 43
0.0
 43
1.0
 77
     0
 47
0.0208333333333333
 47
0.0
 47
0.0
 47
0.0
 47
0.0
 47
0.0208333333333333
 47
0.0
 47
0.0
 47
0.0
 47
0.0
 47
1.0
 47
0.0
 47
0.0
 47
0.0
 47
0.0
 47
1.0
171
     0
 49
0.0208333333333333
 49
0.0
 49
0.0
 49
0.0
 49
0.0
 49
0.0208333333333333
 49
0.0
 49
0.0
 49
0.0
 49
0.0
 49
1.0
 49
0.0
 49
0.0
 49
0.0
 49
0.0
 49
1.0
175
     0
142
0.0208333333333333
142
0.0
142
0.0
142
0.0
142
0.0
142
0.0208333333333333
142
0.0
142
0.0
142
0.0
142
0.0
142
1.0
142
0.0
142
0.0
142
0.0
142
0.0
142
1.0
179
     0
144
0.0208333333333333
144
0.0
144
0.0
144
0.0
144
0.0
144
0.0208333333333333
144
0.0
144
0.0
144
0.0
144
0.0
144
1.0
144
0.0
144
0.0
144
0.0
144
0.0
144
1.0
147
0.0208333333333333
147
0.0
147
0.0
147
0.0
147
0.0
147
0.0208333333333333
147
0.0
147
0.0
147
0.0
147
0.0
147
1.0
147
0.0
147
0.0
147
0.0
147
0.0
147
1.0
  0
MATERIAL
  5
11
102
{ACAD_XDICTIONARY
360
12
102
}
102
{ACAD_REACTORS
330
10
102
}
330
10
100
AcDbMaterial
  1
ByLayer
 72
     0
 43
0.0208333333333333
 43
0.0
 43
0.0
 43
0.0
 43
0.0
 43
0.0208333333333333
 43
0.0
 43
0.0
 43
0.0
 43
0.0
 43
1.0
 43
0.0
 43
0.0
 43
0.0
 43
0.0
 43
1.0
 77
     0
 47
0.0208333333333333
 47
0.0
 47
0.0
 47
0.0
 47
0.0
 47
0.0208333333333333
 47
0.0
 47
0.0
 47
0.0
 47
0.0
 47
1.0
 47
0.0
 47
0.0
 47
0.0
 47
0.0
 47
1.0
171
     0
 49
0.0208333333333333
 49
0.0
 49
0.0
 49
0.0
 49
0.0
 49
0.0208333333333333
 49
0.0
 49
0.0
 49
0.0
 49
0.0
 49
1.0
 49
0.0
 49
0.0
 49
0.0
 49
0.0
 49
1.0
175
     0
142
0.0208333333333333
142
0.0
142
0.0
142
0.0
142
0.0
142
0.0208333333333333
142
0.0
142
0.0
142
0.0
142
0.0
142
1.0
142
0.0
142
0.0
142
0.0
142
0.0
142
1.0
179
     0
144
0.0208333333333333
144
0.0
144
0.0
144
0.0
144
0.0
144
0.0208333333333333
144
0.0
144
0.0
144
0.0
144
0.0
144
1.0
144
0.0
144
0.0
144
0.0
144
0.0
144
1.0
147
0.0208333333333333
147
0.0
147
0.0
147
0.0
147
0.0
147
0.0208333333333333
147
0.0
147
0.0
147
0.0
147
0.0
147
1.0
147
0.0
147
0.0
147
0.0
147
0.0
147
1.0
  0
MATERIAL
  5
21
102
{ACAD_XDICTIONARY
360
22
102
}
102
{ACAD_REACTORS
330
10
102
}
330
10
100
AcDbMaterial
  1
Global
 72
     0
 43
0.0208333333333333
 43
0.0
 43
0.0
 43
0.0
 43
0.0
 43
0.0208333333333333
 43
0.0
 43
0.0
 43
0.0
 43
0.0
 43
1.0
 43
0.0
 43
0.0
 43
0.0
 43
0.0
 43
1.0
 77
     0
 47
0.0208333333333333
 47
0.0
 47
0.0
 47
0.0
 47
0.0
 47
0.0208333333333333
 47
0.0
 47
0.0
 47
0.0
 47
0.0
 47
1.0
 47
0.0
 47
0.0
 47
0.0
 47
0.0
 47
1.0
171
     0
 49
0.0208333333333333
 49
0.0
 49
0.0
 49
0.0
 49
0.0
 49
0.0208333333333333
 49
0.0
 49
0.0
 49
0.0
 49
0.0
 49
1.0
 49
0.0
 49
0.0
 49
0.0
 49
0.0
 49
1.0
175
     0
142
0.0208333333333333
142
0.0
142
0.0
142
0.0
142
0.0
142
0.0208333333333333
142
0.0
142
0.0
142
0.0
142
0.0
142
1.0
142
0.0
142
0.0
142
0.0
142
0.0
142
1.0
179
     0
144
0.0208333333333333
144
0.0
144
0.0
144
0.0
144
0.0
144
0.0208333333333333
144
0.0
144
0.0
144
0.0
144
0.0
144
1.0
144
0.0
144
0.0
144
0.0
144
0.0
144
1.0
147
0.0208333333333333
147
0.0
147
0.0
147
0.0
147
0.0
147
0.0208333333333333
147
0.0
147
0.0
147
0.0
147
0.0
147
1.0
147
0.0
147
0.0
147
0.0
147
0.0
147
1.0
  0
MLEADERSTYLE
  5
66
102
{ACAD_REACTORS
330
65
102
}
330
65
100
AcDbMLeaderStyle
170
     2
171
     1
172
     0
 90
        2
 40
0.0
 41
0.0
173
     1
 91
-1056964608
340
5A
 92
       -2
290
     1
 42
0.09
291
     1
 43
0.36
  3
Standard
 44
0.18
300

342
55
174
     1
178
     6
175
     1
176
     0
 93
-1056964608
 45
0.18
292
     0
297
     0
 46
0.18
 94
-1056964608
 47
1.0
 49
1.0
140
1.0
293
     1
141
0.0
294
     1
177
     0
142
1.0
295
     0
296
     0
143
0.125
1001
ACAD_MLEADERVER
1070
     2
  0
MLINESTYLE
  5
5F
102
{ACAD_REACTORS
330
5E
102
}
330
5E
100
AcDbMlineStyle
  2
STANDARD
 70
     0
  3

 62
   256
 51
90.0
 52
90.0
 71
     2
 49
0.5
 62
   256
  6
BYLAYER
 49
-0.5
 62
   256
  6
BYLAYER
  0
ACDBPLACEHOLDER
  5
F
102
{ACAD_REACTORS
330
E
102
}
330
E
  0
SCALE
  5
43
102
{ACAD_REACTORS
330
42
102
}
330
42
100
AcDbScale
 70
     0
300
1:1
140
1.0
141
1.0
290
     1
  0
SCALE
  5
44
102
{ACAD_REACTORS
330
42
102
}
330
42
100
AcDbScale
 70
     0
300
1/128" = 1'-0"
140
0.0078125
141
12.0
290
     0
  0
SCALE
  5
45
102
{ACAD_REACTORS
330
42
102
}
330
42
100
AcDbScale
 70
     0
300
1/64" = 1'-0"
140
0.015625
141
12.0
290
     0
  0
SCALE
  5
46
102
{ACAD_REACTORS
330
42
102
}
330
42
100
AcDbScale
 70
     0
300
1/32" = 1'-0"
140
0.03125
141
12.0
290
     0
  0
SCALE
  5
47
102
{ACAD_REACTORS
330
42
102
}
330
42
100
AcDbScale
 70
     0
300
1/16" = 1'-0"
140
0.0625
141
12.0
290
     0
  0
SCALE
  5
48
102
{ACAD_REACTORS
330
42
102
}
330
42
100
AcDbScale
 70
     0
300
3/32" = 1'-0"
140
0.09375
141
12.0
290
     0
  0
SCALE
  5
49
102
{ACAD_REACTORS
330
42
102
}
330
42
100
AcDbScale
 70
     0
300
1/8" = 1'-0"
140
0.125
141
12.0
290
     0
  0
SCALE
  5
4A
102
{ACAD_REACTORS
330
42
102
}
330
42
100
AcDbScale
 70
     0
300
3/16" = 1'-0"
140
0.1875
141
12.0
290
     0
  0
SCALE
  5
4B
102
{ACAD_REACTORS
330
42
102
}
330
42
100
AcDbScale
 70
     0
300
1/4" = 1'-0"
140
0.25
141
12.0
290
     0
  0
SCALE
  5
4C
102
{ACAD_REACTORS
330
42
102
}
330
42
100
AcDbScale
 70
     0
300
3/8" = 1'-0"
140
0.375
141
12.0
290
     0
  0
SCALE
  5
4D
102
{ACAD_REACTORS
330
42
102
}
330
42
100
AcDbScale
 70
     0
300
1/2" = 1'-0"
140
0.5
141
12.0
290
     0
  0
SCALE
  5
4E
102
{ACAD_REACTORS
330
42
102
}
330
42
100
AcDbScale
 70
     0
300
3/4" = 1'-0"
140
0.75
141
12.0
290
     0
  0
SCALE
  5
4F
102
{ACAD_REACTORS
330
42
102
}
330
42
100
AcDbScale
 70
     0
300
1" = 1'-0"
140
1.0
141
12.0
290
     0
  0
SCALE
  5
50
102
{ACAD_REACTORS
330
42
102
}
330
42
100
AcDbScale
 70
     0
300
1-1/2" = 1'-0"
140
1.5
141
12.0
290
     0
  0
SCALE
  5
51
102
{ACAD_REACTORS
330
42
102
}
330
42
100
AcDbScale
 70
     0
300
3" = 1'-0"
140
3.0
141
12.0
290
     0
  0
SCALE
  5
52
102
{ACAD_REACTORS
330
42
102
}
330
42
100
AcDbScale
 70
     0
300
6" = 1'-0"
140
6.0
141
12.0
290
     0
  0
SCALE
  5
53
102
{ACAD_REACTORS
330
42
102
}
330
42
100
AcDbScale
 70
     0
300
1'-0" = 1'-0"
140
12.0
141
12.0
290
     0
  0
ACDBSECTIONVIEWSTYLE
  5
68
102
{ACAD_XDICTIONARY
360
2D3
102
}
102
{ACAD_REACTORS
330
67
102
}
330
67
100
AcDbModelDocViewStyle
 70
     0
  3
Imperial24
290
     0
100
AcDbSectionViewStyle
 70
     0
 71
     0
 90
       78
 71
     1
340
55
 40
0.24
340
0
340
0
 40
0.24
300
I, O, Q, S, X, Z
 40
0.48
 90
        3
 40
0.18
 90
        1
 71
     2
340
5C
 90
       25
340
5C
 90
       50
 40
0.24
 40
0.0
 40
0.24
 71
     3
340
55
 40
0.24
 90
        1
 40
0.75
 90
        1
300
%<\AcVar ViewType \f "%tc1">% %<\AcVar ViewSectionStartId>%-%<\AcVar ViewSectionEndId>%\PSCALE %<\AcVar ViewScale \f "%sn">%
 71
     4
300
ANSI31
 40
1.0
 90
        0
290
     0
290
     0
 90
        6
 40
0.0
 40
1.570796326794896
 40
0.2617993877991494
 40
1.308996938995747
 40
-0.2617993877991494
 40
1.832595714594046
  0
TABLESTYLE
  5
64
102
{ACAD_XDICTIONARY
360
29A
102
}
102
{ACAD_REACTORS
330
63
102
}
330
63
100
AcDbTableStyle
  3
Standard
 70
     0
 71
     0
 40
0.06
 41
0.06
280
     0
281
     0
  7
STANDARD
140
0.18
170
     2
 62
     0
 63
     7
283
     0
274
    -2
284
     1
 64
     0
275
    -2
285
     1
 65
     0
276
    -2
286
     1
 66
     0
277
    -2
287
     1
 67
     0
278
    -2
288
     1
 68
     0
279
    -2
289
     1
 69
     0
  7
STANDARD
140
0.25
170
     5
 62
     0
 63
     7
283
     0
274
    -2
284
     1
 64
     0
275
    -2
285
     1
 65
     0
276
    -2
286
     1
 66
     0
277
    -2
287
     1
 67
     0
278
    -2
288
     1
 68
     0
279
    -2
289
     1
 69
     0
  7
STANDARD
140
0.18
170
     5
 62
     0
 63
     7
283
     0
274
    -2
284
     1
 64
     0
275
    -2
285
     1
 65
     0
276
    -2
286
     1
 66
     0
277
    -2
287
     1
 67
     0
278
    -2
288
     1
 68
     0
279
    -2
289
     1
 69
     0
  0
VISUALSTYLE
  5
2F
102
{ACAD_XDICTIONARY
360
2AB
102
}
102
{ACAD_REACTORS
330
29
102
}
330
29
100
AcDbVisualStyle
  2
2dWireframe
 70
     4
 71
     0
 72
     2
 73
     0
 90
        0
 40
-0.6
 41
-30.0
 62
     5
 63
     7
 74
     1
 91
        4
 64
     7
 65
   257
 75
     1
175
     1
 42
1.0
 92
        0
 66
   257
 43
1.0
 76
     1
 77
     6
 78
     2
 67
     7
 79
     5
170
     0
171
     0
290
     0
174
     0
 93
        1
 44
0.0
173
     0
291
     0
 45
0.0
1001
ACAD
1000
AcDbSavedByObjectVersion
1070
     0
  0
VISUALSTYLE
  5
2E
102
{ACAD_XDICTIONARY
360
2A9
102
}
102
{ACAD_REACTORS
330
29
102
}
330
29
100
AcDbVisualStyle
  2
Basic
 70
     7
 71
     1
 72
     0
 73
     1
 90
        0
 40
-0.6
 41
-30.0
 62
     5
 63
     7
 74
     0
 91
        4
 64
     7
 65
   257
 75
     1
175
     1
 42
1.0
 92
        8
 66
     7
 43
1.0
 76
     1
 77
     6
 78
     2
 67
     7
 79
     5
170
     0
171
     0
290
     0
174
     0
 93
        1
 44
0.0
173
     0
291
     1
 45
0.0
1001
ACAD
1000
AcDbSavedByObjectVersion
1070
     0
  0
VISUALSTYLE
  5
35
102
{ACAD_XDICTIONARY
360
2B7
102
}
102
{ACAD_REACTORS
330
29
102
}
330
29
100
AcDbVisualStyle
  2
Brighten
 70
    12
 71
     2
 72
     2
 73
     0
 90
        0
 40
-0.6
 41
-30.0
 62
     5
 63
     7
 74
     1
 91
        4
 64
     7
 65
   257
 75
     1
175
     1
 42
1.0
 92
        8
 66
     7
 43
1.0
 76
     1
 77
     6
 78
     2
 67
     7
 79
     5
170
     0
171
     0
290
     0
174
     0
 93
        1
 44
50.0
173
     0
291
     1
 45
0.0
1001
ACAD
1000
AcDbSavedByObjectVersion
1070
     0
  0
VISUALSTYLE
  5
39
102
{ACAD_XDICTIONARY
360
2BF
102
}
102
{ACAD_REACTORS
330
29
102
}
330
29
100
AcDbVisualStyle
  2
ColorChange
 70
    16
 71
     2
 72
     2
 73
     3
 90
        0
 40
-0.6
 41
-30.0
 62
     5
 63
     8
 74
     1
 91
        4
 64
     7
 65
   257
 75
     1
175
     1
 42
1.0
 92
        8
 66
     8
 43
1.0
 76
     1
 77
     6
 78
     2
 67
     7
 79
     5
170
     0
171
     0
290
     0
174
     0
 93
        1
 44
0.0
173
     0
291
     1
 45
0.0
1001
ACAD
1000
AcDbSavedByObjectVersion
1070
     0
  0
VISUALSTYLE
  5
32
102
{ACAD_XDICTIONARY
360
2B1
102
}
102
{ACAD_REACTORS
330
29
102
}
330
29
100
AcDbVisualStyle
  2
Conceptual
 70
     9
 71
     3
 72
     2
 73
     0
 90
        0
 40
-0.6
 41
-30.0
 62
     5
 63
     7
 74
     2
 91
        2
 64
     7
 65
   257
 75
     1
175
     1
 42
179.0
 92
        8
 66
     7
 43
1.0
 76
     1
 77
     6
 78
     2
 67
     7
 79
     3
170
     0
171
     0
290
     0
174
     0
 93
        1
 44
0.0
173
     0
291
     0
 45
0.0
1001
ACAD
1000
AcDbSavedByObjectVersion
1070
     0
  0
VISUALSTYLE
  5
34
102
{ACAD_XDICTIONARY
360
2B5
102
}
102
{ACAD_REACTORS
330
29
102
}
330
29
100
AcDbVisualStyle
  2
Dim
 70
    11
 71
     2
 72
     2
 73
     0
 90
        0
 40
-0.6
 41
-30.0
 62
     5
 63
     7
 74
     1
 91
        4
 64
     7
 65
   257
 75
     1
175
     1
 42
1.0
 92
        8
 66
     7
 43
1.0
 76
     1
 77
     6
 78
     2
 67
     7
 79
     5
170
     0
171
     0
290
     0
174
     0
 93
        1
 44
-50.0
173
     0
291
     1
 45
0.0
1001
ACAD
1000
AcDbSavedByObjectVersion
1070
     0
  0
VISUALSTYLE
  5
41
102
{ACAD_XDICTIONARY
360
2CF
102
}
102
{ACAD_REACTORS
330
29
102
}
330
29
100
AcDbVisualStyle
  2
EdgeColorOff
 70
    22
 71
     2
 72
     2
 73
     0
 90
        0
 40
-0.6
 41
-30.0
 62
     5
 63
     7
 74
     1
 91
        4
 64
     7
 65
   257
 75
     1
175
     1
 42
1.0
 92
        8
 66
     7
 43
1.0
 76
     1
 77
     6
 78
     2
 67
     7
 79
     5
170
     0
171
     0
290
     0
174
     0
 93
        1
 44
0.0
173
     0
291
     1
 45
0.0
1001
ACAD
1000
AcDbSavedByObjectVersion
1070
     0
  0
VISUALSTYLE
  5
38
102
{ACAD_XDICTIONARY
360
2BD
102
}
102
{ACAD_REACTORS
330
29
102
}
330
29
100
AcDbVisualStyle
  2
Facepattern
 70
    15
 71
     2
 72
     2
 73
     0
 90
        0
 40
-0.6
 41
-30.0
 62
     5
 63
     7
 74
     1
 91
        4
 64
     7
 65
   257
 75
     1
175
     1
 42
1.0
 92
        8
 66
     7
 43
1.0
 76
     1
 77
     6
 78
     2
 67
     7
 79
     5
170
     0
171
     0
290
     0
174
     0
 93
        1
 44
0.0
173
     0
291
     1
 45
0.0
1001
ACAD
1000
AcDbSavedByObjectVersion
1070
     0
  0
VISUALSTYLE
  5
2A
102
{ACAD_XDICTIONARY
360
2A1
102
}
102
{ACAD_REACTORS
330
29
102
}
330
29
100
AcDbVisualStyle
  2
Flat
 70
     0
 71
     2
 72
     1
 73
     1
 90
        2
 40
-0.6
 41
30.0
 62
     5
 63
     7
 74
     0
 91
        0
 64
     7
 65
   257
 75
     1
175
     1
 42
1.0
 92
        8
 66
     7
 43
1.0
 76
     1
 77
     6
 78
     2
 67
     7
 79
     5
170
     0
171
     0
290
     0
174
     0
 93
       13
 44
0.0
173
     0
291
     1
 45
0.0
1001
ACAD
1000
AcDbSavedByObjectVersion
1070
     0
  0
VISUALSTYLE
  5
2B
102
{ACAD_XDICTIONARY
360
2A3
102
}
102
{ACAD_REACTORS
330
29
102
}
330
29
100
AcDbVisualStyle
  2
FlatWithEdges
 70
     1
 71
     2
 72
     1
 73
     1
 90
        2
 40
-0.6
 41
30.0
 62
     5
 63
     7
 74
     1
 91
        0
 64
     7
 65
   257
 75
     1
175
     1
 42
1.0
 92
        0
 66
   257
 43
1.0
 76
     1
 77
     6
 78
     2
 67
     7
 79
     5
170
     0
171
     0
290
     0
174
     0
 93
       13
 44
0.0
173
     0
291
     1
 45
0.0
1001
ACAD
1000
AcDbSavedByObjectVersion
1070
     0
  0
VISUALSTYLE
  5
2C
102
{ACAD_XDICTIONARY
360
2A5
102
}
102
{ACAD_REACTORS
330
29
102
}
330
29
100
AcDbVisualStyle
  2
Gouraud
 70
     2
 71
     2
 72
     2
 73
     1
 90
        2
 40
-0.6
 41
30.0
 62
     5
 63
     7
 74
     0
 91
        0
 64
     7
 65
   257
 75
     1
175
     1
 42
1.0
 92
        0
 66
     7
 43
1.0
 76
     1
 77
     6
 78
     2
 67
     7
 79
     5
170
     0
171
     0
290
     0
174
     0
 93
       13
 44
0.0
173
     0
291
     1
 45
0.0
1001
ACAD
1000
AcDbSavedByObjectVersion
1070
     0
  0
VISUALSTYLE
  5
2D
102
{ACAD_XDICTIONARY
360
2A7
102
}
102
{ACAD_REACTORS
330
29
102
}
330
29
100
AcDbVisualStyle
  2
GouraudWithEdges
 70
     3
 71
     2
 72
     2
 73
     1
 90
        2
 40
-0.6
 41
30.0
 62
     5
 63
     7
 74
     1
 91
        0
 64
     7
 65
   257
 75
     1
175
     1
 42
1.0
 92
        0
 66
   257
 43
1.0
 76
     1
 77
     6
 78
     2
 67
     7
 79
     5
170
     0
171
     0
290
     0
174
     0
 93
       13
 44
0.0
173
     0
291
     1
 45
0.0
1001
ACAD
1000
AcDbSavedByObjectVersion
1070
     0
  0
VISUALSTYLE
  5
31
102
{ACAD_XDICTIONARY
360
2AF
102
}
102
{ACAD_REACTORS
330
29
102
}
330
29
100
AcDbVisualStyle
  2
Hidden
 70
     6
 71
     1
 72
     2
 73
     2
 90
        0
 40
-0.6
 41
-30.0
 62
     5
 63
     7
 74
     2
 91
        2
 64
     7
 65
   257
 75
     2
175
     1
 42
40.0
 92
        0
 66
   257
 43
1.0
 76
     1
 77
     6
 78
     2
 67
     7
 79
     3
170
     0
171
     0
290
     0
174
     0
 93
        1
 44
0.0
173
     0
291
     0
 45
0.0
1001
ACAD
1000
AcDbSavedByObjectVersion
1070
     0
  0
VISUALSTYLE
  5
3F
102
{ACAD_XDICTIONARY
360
2CB
102
}
102
{ACAD_REACTORS
330
29
102
}
330
29
100
AcDbVisualStyle
  2
JitterOff
 70
    20
 71
     2
 72
     2
 73
     0
 90
        0
 40
-0.6
 41
-30.0
 62
     5
 63
     7
 74
     1
 91
        4
 64
     7
 65
   257
 75
     1
175
     1
 42
1.0
 92
       10
 66
     7
 43
1.0
 76
     1
 77
     6
 78
     2
 67
     7
 79
     5
170
     0
171
     0
290
     0
174
     0
 93
        1
 44
0.0
173
     0
291
     1
 45
0.0
1001
ACAD
1000
AcDbSavedByObjectVersion
1070
     0
  0
VISUALSTYLE
  5
37
102
{ACAD_XDICTIONARY
360
2BB
102
}
102
{ACAD_REACTORS
330
29
102
}
330
29
100
AcDbVisualStyle
  2
Linepattern
 70
    14
 71
     2
 72
     2
 73
     0
 90
        0
 40
-0.6
 41
-30.0
 62
     5
 63
     7
 74
     1
 91
        4
 64
     7
 65
   257
 75
     7
175
     7
 42
1.0
 92
        8
 66
     7
 43
1.0
 76
     1
 77
     6
 78
     2
 67
     7
 79
     5
170
     0
171
     0
290
     0
174
     0
 93
        1
 44
0.0
173
     0
291
     1
 45
0.0
1001
ACAD
1000
AcDbSavedByObjectVersion
1070
     0
  0
VISUALSTYLE
  5
40
102
{ACAD_XDICTIONARY
360
2CD
102
}
102
{ACAD_REACTORS
330
29
102
}
330
29
100
AcDbVisualStyle
  2
OverhangOff
 70
    21
 71
     2
 72
     2
 73
     0
 90
        0
 40
-0.6
 41
-30.0
 62
     5
 63
     7
 74
     1
 91
        4
 64
     7
 65
   257
 75
     1
175
     1
 42
1.0
 92
        9
 66
     7
 43
1.0
 76
     1
 77
     6
 78
     2
 67
     7
 79
     5
170
     0
171
     0
290
     0
174
     0
 93
        1
 44
0.0
173
     0
291
     1
 45
0.0
1001
ACAD
1000
AcDbSavedByObjectVersion
1070
     0
  0
VISUALSTYLE
  5
33
102
{ACAD_XDICTIONARY
360
2B3
102
}
102
{ACAD_REACTORS
330
29
102
}
330
29
100
AcDbVisualStyle
  2
Realistic
 70
     8
 71
     2
 72
     3
 73
     0
 90
        2
 40
-0.6
 41
30.0
 62
     5
 63
     7
 74
     0
 91
        0
 64
     7
 65
   257
 75
     1
175
     1
 42
1.0
 92
        8
 66
   257
 43
1.0
 76
     1
 77
     6
 78
     2
 67
     7
 79
     3
170
     0
171
     0
290
     0
174
     0
 93
       13
 44
0.0
173
     0
291
     0
 45
0.0
1001
ACAD
1000
AcDbSavedByObjectVersion
1070
     0
  0
VISUALSTYLE
  5
3E
102
{ACAD_XDICTIONARY
360
2C9
102
}
102
{ACAD_REACTORS
330
29
102
}
330
29
100
AcDbVisualStyle
  2
Shaded
 70
    27
 71
     2
 72
     2
 73
     1
 90
        2
 40
-0.6
 41
30.0
 62
     5
 63
     7
 74
     0
 91
        4
 64
     7
 65
   257
 75
     1
175
     1
 42
1.0
 92
        8
 66
   257
 43
1.0
 76
     1
 77
     6
 78
     2
 67
     8
 79
     3
170
     0
171
     0
290
     0
174
     0
 93
        5
 44
0.0
173
     0
291
     0
 45
0.0
1001
ACAD
1000
AcDbSavedByObjectVersion
1070
     0
  0
VISUALSTYLE
  5
3D
102
{ACAD_XDICTIONARY
360
2C7
102
}
102
{ACAD_REACTORS
330
29
102
}
330
29
100
AcDbVisualStyle
  2
Shaded with edges
 70
    26
 71
     2
 72
     2
 73
     1
 90
        2
 40
-0.6
 41
30.0
 62
     5
 63
     7
 74
     1
 91
        2
 64
     7
 65
   257
 75
     2
175
     1
 42
1.0
 92
        8
 66
   257
 43
1.0
 76
     1
 77
     6
 78
     2
 67
     7
 79
     3
170
     0
171
     0
290
     0
174
     0
 93
        5
 44
0.0
173
     0
291
     0
 45
0.0
1001
ACAD
1000
AcDbSavedByObjectVersion
1070
     0
  0
VISUALSTYLE
  5
3A
102
{ACAD_XDICTIONARY
360
2C1
102
}
102
{ACAD_REACTORS
330
29
102
}
330
29
100
AcDbVisualStyle
  2
Shades of Gray
 70
    23
 71
     2
 72
     2
 73
     3
 90
        0
 40
-0.6
 41
-30.0
 62
     5
 63
     7
 74
     2
 91
        2
 64
     7
 65
     7
 75
     1
175
     1
 42
40.0
 92
        8
 66
     7
 43
1.0
 76
     1
 77
     6
 78
     2
 67
     7
 79
     3
170
     0
171
     0
290
     0
174
     0
 93
        1
 44
0.0
173
     0
291
     0
 45
0.0
1001
ACAD
1000
AcDbSavedByObjectVersion
1070
     0
  0
VISUALSTYLE
  5
3B
102
{ACAD_XDICTIONARY
360
2C3
102
}
102
{ACAD_REACTORS
330
29
102
}
330
29
100
AcDbVisualStyle
  2
Sketchy
 70
    24
 71
     1
 72
     2
 73
     2
 90
        0
 40
-0.6
 41
-30.0
 62
     5
 63
     7
 74
     2
 91
        2
 64
     7
 65
     7
 75
     1
175
     1
 42
40.0
 92
       11
 66
     7
 43
1.0
 76
     1
 77
     6
 78
     2
 67
     7
 79
     6
170
     0
171
     0
290
     0
174
     0
 93
        1
 44
0.0
173
     0
291
     0
 45
0.0
1001
ACAD
1000
AcDbSavedByObjectVersion
1070
     0
  0
VISUALSTYLE
  5
36
102
{ACAD_XDICTIONARY
360
2B9
102
}
102
{ACAD_REACTORS
330
29
102
}
330
29
100
AcDbVisualStyle
  2
Thicken
 70
    13
 71
     2
 72
     2
 73
     0
 90
        0
 40
-0.6
 41
-30.0
 62
     5
 63
     7
 74
     1
 91
        4
 64
     7
 65
   257
 75
     1
175
     1
 42
1.0
 92
       12
 66
     7
 43
1.0
 76
     1
 77
     6
 78
     2
 67
     7
 79
     5
170
     0
171
     0
290
     0
174
     0
 93
        1
 44
0.0
173
     0
291
     1
 45
0.0
1001
ACAD
1000
AcDbSavedByObjectVersion
1070
     0
  0
VISUALSTYLE
  5
30
102
{ACAD_XDICTIONARY
360
2AD
102
}
102
{ACAD_REACTORS
330
29
102
}
330
29
100
AcDbVisualStyle
  2
Wireframe
 70
     5
 71
     0
 72
     2
 73
     0
 90
        0
 40
-0.6
 41
-30.0
 62
     5
 63
     7
 74
     1
 91
        4
 64
     7
 65
   257
 75
     1
175
     1
 42
1.0
 92
        0
 66
   257
 43
1.0
 76
     1
 77
     6
 78
     2
 67
     7
 79
     3
170
     0
171
     0
290
     0
174
     0
 93
        1
 44
0.0
173
     0
291
     0
 45
0.0
1001
ACAD
1000
AcDbSavedByObjectVersion
1070
     0
  0
VISUALSTYLE
  5
3C
102
{ACAD_XDICTIONARY
360
2C5
102
}
102
{ACAD_REACTORS
330
29
102
}
330
29
100
AcDbVisualStyle
  2
X-Ray
 70
    25
 71
     2
 72
     2
 73
     1
 90
        1
 40
0.5
 41
-30.0
 62
     5
 63
     7
 74
     1
 91
        0
 64
     7
 65
   257
 75
     1
175
     1
 42
1.0
 92
        8
 66
     7
 43
1.0
 76
     1
 77
     6
 78
     2
 67
     7
 79
     3
170
     0
171
     0
290
     0
174
     0
 93
       13
 44
0.0
173
     0
291
     0
 45
0.0
1001
ACAD
1000
AcDbSavedByObjectVersion
1070
     0
  0
DICTIONARYVAR
  5
294
102
{ACAD_REACTORS
330
28F
102
}
330
28F
100
DictionaryVariables
280
     0
  1
1:1
  0
DICTIONARYVAR
  5
291
102
{ACAD_REACTORS
330
28F
102
}
330
28F
100
DictionaryVariables
280
     0
  1
STANDARD
  0
DICTIONARYVAR
  5
290
102
{ACAD_REACTORS
330
28F
102
}
330
28F
100
DictionaryVariables
280
     0
  1
STANDARD
  0
DICTIONARYVAR
  5
292
102
{ACAD_REACTORS
330
28F
102
}
330
28F
100
DictionaryVariables
280
     0
  1
Imperial24
  0
DICTIONARYVAR
  5
293
102
{ACAD_REACTORS
330
28F
102
}
330
28F
100
DictionaryVariables
280
     0
  1
Imperial24
  0
DICTIONARYVAR
  5
297
102
{ACAD_REACTORS
330
28F
102
}
330
28F
100
DictionaryVariables
280
     0
  1
1
  0
DICTIONARYVAR
  5
296
102
{ACAD_REACTORS
330
28F
102
}
330
28F
100
DictionaryVariables
280
     0
  1
0
  0
DICTIONARYVAR
  5
295
102
{ACAD_REACTORS
330
28F
102
}
330
28F
100
DictionaryVariables
280
     0
  1
127
  0
DICTIONARYVAR
  5
298
102
{ACAD_REACTORS
330
28F
102
}
330
28F
100
DictionaryVariables
280
     0
  1
2
  0
DICTIONARY
  5
2D5
330
6A
100
AcDbDictionary
280
     1
281
     1
  3
ACAD_XREC_ROUNDTRIP
360
2D6
  0
DICTIONARY
  5
2D9
330
72
100
AcDbDictionary
280
     1
281
     1
  3
ACAD_XREC_ROUNDTRIP
360
2DA
  0
DICTIONARY
  5
2D7
330
6E
100
AcDbDictionary
280
     1
281
     1
  3
ACAD_XREC_ROUNDTRIP
360
2D8
  0
DICTIONARY
  5
1A
330
19
100
AcDbDictionary
280
     1
281
     1
  3
ACAD_XREC_ROUNDTRIP
360
29F
  3
BUMPTILE
360
1C
  3
DIFFUSETILE
360
1B
  3
OPACITYTILE
360
1F
  3
REFLECTIONTILE
360
1E
  3
REFRACTIONTILE
360
20
  3
SPECULARTILE
360
1D
  0
DICTIONARY
  5
12
330
11
100
AcDbDictionary
280
     1
281
     1
  3
ACAD_XREC_ROUNDTRIP
360
29E
  3
BUMPTILE
360
14
  3
DIFFUSETILE
360
13
  3
OPACITYTILE
360
17
  3
REFLECTIONTILE
360
16
  3
REFRACTIONTILE
360
18
  3
SPECULARTILE
360
15
  0
DICTIONARY
  5
22
330
21
100
AcDbDictionary
280
     1
281
     1
  3
ACAD_XREC_ROUNDTRIP
360
2A0
  3
BUMPTILE
360
24
  3
DIFFUSETILE
360
23
  3
OPACITYTILE
360
27
  3
REFLECTIONTILE
360
26
  3
REFRACTIONTILE
360
28
  3
SPECULARTILE
360
25
  0
DICTIONARY
  5
2D3
330
68
100
AcDbDictionary
280
     1
281
     1
  3
ACAD_XREC_ROUNDTRIP
360
2D4
  0
DICTIONARY
  5
29A
330
64
100
AcDbDictionary
280
     1
281
     1
  3
ACAD_ROUNDTRIP_2008_TABLESTYLE_CELLSTYLEMAP
360
29B
  3
ACAD_XREC_ROUNDTRIP
360
2D1
  0
DICTIONARY
  5
2AB
330
2F
100
AcDbDictionary
280
     1
281
     1
  3
ACAD_XREC_ROUNDTRIP
360
2AC
  0
DICTIONARY
  5
2A9
330
2E
100
AcDbDictionary
280
     1
281
     1
  3
ACAD_XREC_ROUNDTRIP
360
2AA
  0
DICTIONARY
  5
2B7
330
35
100
AcDbDictionary
280
     1
281
     1
  3
ACAD_XREC_ROUNDTRIP
360
2B8
  0
DICTIONARY
  5
2BF
330
39
100
AcDbDictionary
280
     1
281
     1
  3
ACAD_XREC_ROUNDTRIP
360
2C0
  0
DICTIONARY
  5
2B1
330
32
100
AcDbDictionary
280
     1
281
     1
  3
ACAD_XREC_ROUNDTRIP
360
2B2
  0
DICTIONARY
  5
2B5
330
34
100
AcDbDictionary
280
     1
281
     1
  3
ACAD_XREC_ROUNDTRIP
360
2B6
  0
DICTIONARY
  5
2CF
330
41
100
AcDbDictionary
280
     1
281
     1
  3
ACAD_XREC_ROUNDTRIP
360
2D0
  0
DICTIONARY
  5
2BD
330
38
100
AcDbDictionary
280
     1
281
     1
  3
ACAD_XREC_ROUNDTRIP
360
2BE
  0
DICTIONARY
  5
2A1
330
2A
100
AcDbDictionary
280
     1
281
     1
  3
ACAD_XREC_ROUNDTRIP
360
2A2
  0
DICTIONARY
  5
2A3
330
2B
100
AcDbDictionary
280
     1
281
     1
  3
ACAD_XREC_ROUNDTRIP
360
2A4
  0
DICTIONARY
  5
2A5
330
2C
100
AcDbDictionary
280
     1
281
     1
  3
ACAD_XREC_ROUNDTRIP
360
2A6
  0
DICTIONARY
  5
2A7
330
2D
100
AcDbDictionary
280
     1
281
     1
  3
ACAD_XREC_ROUNDTRIP
360
2A8
  0
DICTIONARY
  5
2AF
330
31
100
AcDbDictionary
280
     1
281
     1
  3
ACAD_XREC_ROUNDTRIP
360
2B0
  0
DICTIONARY
  5
2CB
330
3F
100
AcDbDictionary
280
     1
281
     1
  3
ACAD_XREC_ROUNDTRIP
360
2CC
  0
DICTIONARY
  5
2BB
330
37
100
AcDbDictionary
280
     1
281
     1
  3
ACAD_XREC_ROUNDTRIP
360
2BC
  0
DICTIONARY
  5
2CD
330
40
100
AcDbDictionary
280
     1
281
     1
  3
ACAD_XREC_ROUNDTRIP
360
2CE
  0
DICTIONARY
  5
2B3
330
33
100
AcDbDictionary
280
     1
281
     1
  3
ACAD_XREC_ROUNDTRIP
360
2B4
  0
DICTIONARY
  5
2C9
330
3E
100
AcDbDictionary
280
     1
281
     1
  3
ACAD_XREC_ROUNDTRIP
360
2CA
  0
DICTIONARY
  5
2C7
330
3D
100
AcDbDictionary
280
     1
281
     1
  3
ACAD_XREC_ROUNDTRIP
360
2C8
  0
DICTIONARY
  5
2C1
330
3A
100
AcDbDictionary
280
     1
281
     1
  3
ACAD_XREC_ROUNDTRIP
360
2C2
  0
DICTIONARY
  5
2C3
330
3B
100
AcDbDictionary
280
     1
281
     1
  3
ACAD_XREC_ROUNDTRIP
360
2C4
  0
DICTIONARY
  5
2B9
330
36
100
AcDbDictionary
280
     1
281
     1
  3
ACAD_XREC_ROUNDTRIP
360
2BA
  0
DICTIONARY
  5
2AD
330
30
100
AcDbDictionary
280
     1
281
     1
  3
ACAD_XREC_ROUNDTRIP
360
2AE
  0
DICTIONARY
  5
2C5
330
3C
100
AcDbDictionary
280
     1
281
     1
  3
ACAD_XREC_ROUNDTRIP
360
2C6
  0
XRECORD
  5
2D6
102
{ACAD_REACTORS
330
2D5
102
}
330
2D5
100
AcDbXrecord
280
     1
102
DISPLAYNAME
  1
Imperial24
102
FLAGS
 90
        0
  0
XRECORD
  5
2DA
102
{ACAD_REACTORS
330
2D9
102
}
330
2D9
100
AcDbXrecord
280
     1
102
SHADEPLOT
 70
     0
102
SHADEPLOTRESLEVEL
 70
     2
102
SHADEPLOTCUSTOMDPI
 70
   300
  0
XRECORD
  5
2D8
102
{ACAD_REACTORS
330
2D7
102
}
330
2D7
100
AcDbXrecord
280
     1
102
SHADEPLOT
 70
     0
102
SHADEPLOTRESLEVEL
 70
     2
102
SHADEPLOTCUSTOMDPI
 70
   300
  0
XRECORD
  5
29F
102
{ACAD_REACTORS
330
1A
102
}
330
1A
100
AcDbXrecord
280
     1
102
MATERIAL
148
0.0
149
0.0
149
0.0
 93
        0
 94
      127
282
     0
 72
     0
 77
     0
171
     0
175
     0
179
     0
273
     0
  0
XRECORD
  5
1C
102
{ACAD_REACTORS
330
1A
102
}
330
1A
100
AcDbXrecord
280
     1
270
     1
271
     1
  0
XRECORD
  5
1B
102
{ACAD_REACTORS
330
1A
102
}
330
1A
100
AcDbXrecord
280
     1
270
     1
271
     1
  0
XRECORD
  5
1F
102
{ACAD_REACTORS
330
1A
102
}
330
1A
100
AcDbXrecord
280
     1
270
     1
271
     1
  0
XRECORD
  5
1E
102
{ACAD_REACTORS
330
1A
102
}
330
1A
100
AcDbXrecord
280
     1
270
     1
271
     1
  0
XRECORD
  5
20
102
{ACAD_REACTORS
330
1A
102
}
330
1A
100
AcDbXrecord
280
     1
270
     1
271
     1
  0
XRECORD
  5
1D
102
{ACAD_REACTORS
330
1A
102
}
330
1A
100
AcDbXrecord
280
     1
270
     1
271
     1
  0
XRECORD
  5
29E
102
{ACAD_REACTORS
330
12
102
}
330
12
100
AcDbXrecord
280
     1
102
MATERIAL
148
0.0
149
0.0
149
0.0
 93
        0
 94
      127
282
     0
 72
     0
 77
     0
171
     0
175
     0
179
     0
273
     0
  0
XRECORD
  5
14
102
{ACAD_REACTORS
330
12
102
}
330
12
100
AcDbXrecord
280
     1
270
     1
271
     1
  0
XRECORD
  5
13
102
{ACAD_REACTORS
330
12
102
}
330
12
100
AcDbXrecord
280
     1
270
     1
271
     1
  0
XRECORD
  5
17
102
{ACAD_REACTORS
330
12
102
}
330
12
100
AcDbXrecord
280
     1
270
     1
271
     1
  0
XRECORD
  5
16
102
{ACAD_REACTORS
330
12
102
}
330
12
100
AcDbXrecord
280
     1
270
     1
271
     1
  0
XRECORD
  5
18
102
{ACAD_REACTORS
330
12
102
}
330
12
100
AcDbXrecord
280
     1
270
     1
271
     1
  0
XRECORD
  5
15
102
{ACAD_REACTORS
330
12
102
}
330
12
100
AcDbXrecord
280
     1
270
     1
271
     1
  0
XRECORD
  5
2A0
102
{ACAD_REACTORS
330
22
102
}
330
22
100
AcDbXrecord
280
     1
102
MATERIAL
148
0.0
149
0.0
149
0.0
 93
        0
 94
      127
282
     0
 72
     0
 77
     0
171
     0
175
     0
179
     0
273
     0
  0
XRECORD
  5
24
102
{ACAD_REACTORS
330
22
102
}
330
22
100
AcDbXrecord
280
     1
270
     1
271
     1
  0
XRECORD
  5
23
102
{ACAD_REACTORS
330
22
102
}
330
22
100
AcDbXrecord
280
     1
270
     1
271
     1
  0
XRECORD
  5
27
102
{ACAD_REACTORS
330
22
102
}
330
22
100
AcDbXrecord
280
     1
270
     1
271
     1
  0
XRECORD
  5
26
102
{ACAD_REACTORS
330
22
102
}
330
22
100
AcDbXrecord
280
     1
270
     1
271
     1
  0
XRECORD
  5
28
102
{ACAD_REACTORS
330
22
102
}
330
22
100
AcDbXrecord
280
     1
270
     1
271
     1
  0
XRECORD
  5
25
102
{ACAD_REACTORS
330
22
102
}
330
22
100
AcDbXrecord
280
     1
270
     1
271
     1
  0
XRECORD
  5
2D4
102
{ACAD_REACTORS
330
2D3
102
}
330
2D3
100
AcDbXrecord
280
     1
102
DISPLAYNAME
  1
Imperial24
102
FLAGS
 90
        0
  0
CELLSTYLEMAP
  5
29B
102
{ACAD_REACTORS
330
29A
102
}
330
29A
100
AcDbCellStyleMap
 90
        3
300
CELLSTYLE
  1
TABLEFORMAT_BEGIN
 90
        5
170
     1
 91
        0
 92
    32768
 62
   257
 93
        1
300
CONTENTFORMAT
  1
CONTENTFORMAT_BEGIN
 90
        0
 91
        0
 92
      512
 93
        0
300

 40
0.0
140
1.0
 94
        5
 62
     0
340
55
144
0.25
309
CONTENTFORMAT_END
171
     0
 94
        0
309
TABLEFORMAT_END
  1
CELLSTYLE_BEGIN
 90
        1
 91
        1
300
_TITLE
309
CELLSTYLE_END
300
CELLSTYLE
  1
TABLEFORMAT_BEGIN
 90
        5
170
     1
 91
        0
 92
        0
 62
   257
 93
        1
300
CONTENTFORMAT
  1
CONTENTFORMAT_BEGIN
 90
        0
 91
        0
 92
      512
 93
        0
300

 40
0.0
140
1.0
 94
        5
 62
     0
340
55
144
0.18
309
CONTENTFORMAT_END
171
     0
 94
        0
309
TABLEFORMAT_END
  1
CELLSTYLE_BEGIN
 90
        2
 91
        1
300
_HEADER
309
CELLSTYLE_END
300
CELLSTYLE
  1
TABLEFORMAT_BEGIN
 90
        5
170
     1
 91
        0
 92
        0
 62
   257
 93
        1
300
CONTENTFORMAT
  1
CONTENTFORMAT_BEGIN
 90
        0
 91
        0
 92
      512
 93
        0
300

 40
0.0
140
1.0
 94
        2
 62
     0
340
55
144
0.18
309
CONTENTFORMAT_END
171
     0
 94
        0
309
TABLEFORMAT_END
  1
CELLSTYLE_BEGIN
 90
        3
 91
        2
300
_DATA
309
CELLSTYLE_END
  0
XRECORD
  5
2D1
102
{ACAD_REACTORS
330
29A
102
}
330
29A
100
AcDbXrecord
280
     1
102
ACAD_ROUNDTRIP_PRE2007_TABLESTYLE
 90
      512
 91
        0
  1

 92
      512
 93
        0
  2

 94
      512
 95
        0
  3

  0
XRECORD
  5
2AC
102
{ACAD_REACTORS
330
2AB
102
}
330
2AB
100
AcDbXrecord
280
     1
102
RTVSPost2010Prop28
280
     1
102
RTVSPost2010PropOp28
 70
     1
102
RTVSPost2010Prop29
280
     1
102
RTVSPost2010PropOp29
 70
     1
102
RTVSPost2010Prop30
280
     0
102
RTVSPost2010PropOp30
 70
     1
102
RTVSPost2010Prop31
280
     0
102
RTVSPost2010PropOp31
 70
     1
102
RTVSPost2010Prop32
280
     0
102
RTVSPost2010PropOp32
 70
     1
102
RTVSPost2010Prop33
280
     0
102
RTVSPost2010PropOp33
 70
     1
102
RTVSPost2010Prop34
280
     0
102
RTVSPost2010PropOp34
 70
     1
102
RTVSPost2010Prop35
280
     0
102
RTVSPost2010PropOp35
 70
     1
102
RTVSPost2010Prop36
280
     0
102
RTVSPost2010PropOp36
 70
     1
102
RTVSPost2010Prop37
 90
       50
102
RTVSPost2010PropOp37
 70
     1
102
RTVSPost2010Prop38
140
0.0
102
RTVSPost2010PropOp38
 70
     1
102
RTVSPost2010Prop39
140
1.0
102
RTVSPost2010PropOp39
 70
     1
102
RTVSPost2010Prop40
 90
        0
102
RTVSPost2010PropOp40
 70
     1
102
RTVSPost2010Prop41ColorIndex
 90
       18
102
RTVSPost2010Prop41ColorRGB
 90
        0
102
RTVSPost2010PropOp41
 70
     1
102
RTVSPost2010Prop42
 90
       50
102
RTVSPost2010PropOp42
 70
     1
102
RTVSPost2010Prop43
 90
        3
102
RTVSPost2010PropOp43
 70
     1
102
RTVSPost2010Prop44ColorIndex
 90
        5
102
RTVSPost2010Prop44ColorRGB
 90
      255
102
RTVSPost2010PropOp44
 70
     1
102
RTVSPost2010Prop45
280
     0
102
RTVSPost2010PropOp45
 70
     1
102
RTVSPost2010Prop46
 90
       50
102
RTVSPost2010PropOp46
 70
     1
102
RTVSPost2010Prop47
 90
       50
102
RTVSPost2010PropOp47
 70
     1
102
RTVSPost2010Prop48
 90
       50
102
RTVSPost2010PropOp48
 70
     1
102
RTVSPost2010Prop49
280
     0
102
RTVSPost2010PropOp49
 70
     1
102
RTVSPost2010Prop50
 90
       50
102
RTVSPost2010PropOp50
 70
     1
102
RTVSPost2010Prop51ColorIndex
 90
      256
102
RTVSPost2010Prop51ColorRGB
 90
-16777216
102
RTVSPost2010PropOp51
 70
     0
102
RTVSPost2010Prop52
140
1.0
102
RTVSPost2010PropOp52
 70
     0
102
RTVSPost2010Prop53
 90
        2
102
RTVSPost2010PropOp53
 70
     1
102
RTVSPost2010Prop54
  1
strokes_ogs.tif
102
RTVSPost2010PropOp54
 70
     1
102
RTVSPost2010Prop55
280
     0
102
RTVSPost2010PropOp55
 70
     1
102
RTVSPost2010Prop56
140
1.0
102
RTVSPost2010PropOp56
 70
     1
102
RTVSPost2010Prop57
140
1.0
102
RTVSPost2010PropOp57
 70
     1
102
RTVSPropertyOp0
 70
     1
102
RTVSPropertyOp1
 70
     1
102
RTVSPropertyOp2
 70
     1
102
RTVSPropertyOp3
 70
     1
102
RTVSPropertyOp4
 70
     1
102
RTVSPropertyOp5
 70
     1
102
RTVSPropertyOp6
 70
     1
102
RTVSPropertyOp7
 70
     1
102
RTVSPropertyOp8
 70
     1
102
RTVSPropertyOp9
 70
     1
102
RTVSPropertyOp10
 70
     1
102
RTVSPropertyOp11
 70
     1
102
RTVSPropertyOp12
 70
     1
102
RTVSPropertyOp13
 70
     1
102
RTVSPropertyOp14
 70
     1
102
RTVSPropertyOp15
 70
     1
102
RTVSPropertyOp16
 70
     1
102
RTVSPropertyOp17
 70
     1
102
RTVSPropertyOp18
 70
     1
102
RTVSPropertyOp19
 70
     1
102
RTVSPropertyOp20
 70
     1
102
RTVSPropertyOp21
 70
     1
102
RTVSPropertyOp22
 70
     1
102
RTVSPropertyOp23
 70
     1
102
RTVSPropertyOp24
 70
     1
102
RTVSPropertyOp25
 70
     1
102
RTVSPropertyOp26
 70
     1
102
RTVSPropertyOp27
 70
     1
102
RTVSPropertyOp28
 70
     1
102
RTVSPropertyOp29
 70
     1
102
RTVSPropertyOp30
 70
     1
102
RTVSPropertyOp31
 70
     1
102
RTVSPropertyOp32
 70
     1
102
RTVSPropertyOp33
 70
     1
102
RTVSPropertyOp34
 70
     1
102
RTVSPropertyOp35
 70
     1
102
RTVSPropertyOp36
 70
     1
102
RTVSPropertyOp37
 70
     1
102
RTVSPropertyOp38
 70
     1
102
RTVSPropertyOp39
 70
     1
102
RTVSPropertyOp40
 70
     1
102
RTVSPropertyOp41
 70
     1
102
RTVSPropertyOp42
 70
     1
102
RTVSPropertyOp43
 70
     1
102
RTVSPropertyOp44
 70
     1
102
RTVSPropertyOp45
 70
     1
102
RTVSPropertyOp46
 70
     1
102
RTVSPropertyOp47
 70
     1
102
RTVSPropertyOp48
 70
     1
102
RTVSPropertyOp49
 70
     1
102
RTVSPropertyOp50
 70
     1
102
RTVSPropertyOp51
 70
     0
102
RTVSPropertyOp52
 70
     0
102
RTVSPropertyOp53
 70
     1
102
RTVSPropertyOp54
 70
     1
102
RTVSPropertyOp55
 70
     1
102
RTVSPropertyOp56
 70
     1
102
RTVSPropertyOp57
 70
     1
102
RTVSPropertyOp58
 70
     1
102
RTVSPropertyOp59
 70
     1
102
RTVSPropertyOp60
 70
     1
102
RTVSPropertyOp61
 70
     1
102
RTVSPropertyOp62
 70
     1
  0
XRECORD
  5
2AA
102
{ACAD_REACTORS
330
2A9
102
}
330
2A9
100
AcDbXrecord
280
     1
102
RTVSPost2010Prop28
280
     0
102
RTVSPost2010PropOp28
 70
     1
102
RTVSPost2010Prop29
280
     1
102
RTVSPost2010PropOp29
 70
     1
102
RTVSPost2010Prop30
280
     1
102
RTVSPost2010PropOp30
 70
     1
102
RTVSPost2010Prop31
280
     0
102
RTVSPost2010PropOp31
 70
     1
102
RTVSPost2010Prop32
280
     0
102
RTVSPost2010PropOp32
 70
     1
102
RTVSPost2010Prop33
280
     0
102
RTVSPost2010PropOp33
 70
     1
102
RTVSPost2010Prop34
280
     0
102
RTVSPost2010PropOp34
 70
     1
102
RTVSPost2010Prop35
280
     0
102
RTVSPost2010PropOp35
 70
     1
102
RTVSPost2010Prop36
280
     0
102
RTVSPost2010PropOp36
 70
     1
102
RTVSPost2010Prop37
 90
       50
102
RTVSPost2010PropOp37
 70
     1
102
RTVSPost2010Prop38
140
0.0
102
RTVSPost2010PropOp38
 70
     1
102
RTVSPost2010Prop39
140
1.0
102
RTVSPost2010PropOp39
 70
     1
102
RTVSPost2010Prop40
 90
        0
102
RTVSPost2010PropOp40
 70
     1
102
RTVSPost2010Prop41ColorIndex
 90
       18
102
RTVSPost2010Prop41ColorRGB
 90
        0
102
RTVSPost2010PropOp41
 70
     1
102
RTVSPost2010Prop42
 90
       50
102
RTVSPost2010PropOp42
 70
     1
102
RTVSPost2010Prop43
 90
        3
102
RTVSPost2010PropOp43
 70
     1
102
RTVSPost2010Prop44ColorIndex
 90
        5
102
RTVSPost2010Prop44ColorRGB
 90
      255
102
RTVSPost2010PropOp44
 70
     1
102
RTVSPost2010Prop45
280
     0
102
RTVSPost2010PropOp45
 70
     1
102
RTVSPost2010Prop46
 90
       50
102
RTVSPost2010PropOp46
 70
     1
102
RTVSPost2010Prop47
 90
       50
102
RTVSPost2010PropOp47
 70
     1
102
RTVSPost2010Prop48
 90
       50
102
RTVSPost2010PropOp48
 70
     1
102
RTVSPost2010Prop49
280
     0
102
RTVSPost2010PropOp49
 70
     1
102
RTVSPost2010Prop50
 90
       50
102
RTVSPost2010PropOp50
 70
     1
102
RTVSPost2010Prop51ColorIndex
 90
      256
102
RTVSPost2010Prop51ColorRGB
 90
-16777216
102
RTVSPost2010PropOp51
 70
     0
102
RTVSPost2010Prop52
140
1.0
102
RTVSPost2010PropOp52
 70
     0
102
RTVSPost2010Prop53
 90
        2
102
RTVSPost2010PropOp53
 70
     1
102
RTVSPost2010Prop54
  1
strokes_ogs.tif
102
RTVSPost2010PropOp54
 70
     1
102
RTVSPost2010Prop55
280
     0
102
RTVSPost2010PropOp55
 70
     1
102
RTVSPost2010Prop56
140
1.0
102
RTVSPost2010PropOp56
 70
     1
102
RTVSPost2010Prop57
140
1.0
102
RTVSPost2010PropOp57
 70
     1
102
RTVSPropertyOp0
 70
     1
102
RTVSPropertyOp1
 70
     1
102
RTVSPropertyOp2
 70
     1
102
RTVSPropertyOp3
 70
     1
102
RTVSPropertyOp4
 70
     1
102
RTVSPropertyOp5
 70
     1
102
RTVSPropertyOp6
 70
     1
102
RTVSPropertyOp7
 70
     1
102
RTVSPropertyOp8
 70
     1
102
RTVSPropertyOp9
 70
     1
102
RTVSPropertyOp10
 70
     1
102
RTVSPropertyOp11
 70
     1
102
RTVSPropertyOp12
 70
     1
102
RTVSPropertyOp13
 70
     1
102
RTVSPropertyOp14
 70
     1
102
RTVSPropertyOp15
 70
     1
102
RTVSPropertyOp16
 70
     1
102
RTVSPropertyOp17
 70
     1
102
RTVSPropertyOp18
 70
     1
102
RTVSPropertyOp19
 70
     1
102
RTVSPropertyOp20
 70
     1
102
RTVSPropertyOp21
 70
     1
102
RTVSPropertyOp22
 70
     1
102
RTVSPropertyOp23
 70
     1
102
RTVSPropertyOp24
 70
     1
102
RTVSPropertyOp25
 70
     1
102
RTVSPropertyOp26
 70
     1
102
RTVSPropertyOp27
 70
     1
102
RTVSPropertyOp28
 70
     1
102
RTVSPropertyOp29
 70
     1
102
RTVSPropertyOp30
 70
     1
102
RTVSPropertyOp31
 70
     1
102
RTVSPropertyOp32
 70
     1
102
RTVSPropertyOp33
 70
     1
102
RTVSPropertyOp34
 70
     1
102
RTVSPropertyOp35
 70
     1
102
RTVSPropertyOp36
 70
     1
102
RTVSPropertyOp37
 70
     1
102
RTVSPropertyOp38
 70
     1
102
RTVSPropertyOp39
 70
     1
102
RTVSPropertyOp40
 70
     1
102
RTVSPropertyOp41
 70
     1
102
RTVSPropertyOp42
 70
     1
102
RTVSPropertyOp43
 70
     1
102
RTVSPropertyOp44
 70
     1
102
RTVSPropertyOp45
 70
     1
102
RTVSPropertyOp46
 70
     1
102
RTVSPropertyOp47
 70
     1
102
RTVSPropertyOp48
 70
     1
102
RTVSPropertyOp49
 70
     1
102
RTVSPropertyOp50
 70
     1
102
RTVSPropertyOp51
 70
     0
102
RTVSPropertyOp52
 70
     0
102
RTVSPropertyOp53
 70
     1
102
RTVSPropertyOp54
 70
     1
102
RTVSPropertyOp55
 70
     1
102
RTVSPropertyOp56
 70
     1
102
RTVSPropertyOp57
 70
     1
102
RTVSPropertyOp58
 70
     1
102
RTVSPropertyOp59
 70
     1
102
RTVSPropertyOp60
 70
     1
102
RTVSPropertyOp61
 70
     1
102
RTVSPropertyOp62
 70
     1
  0
XRECORD
  5
2B8
102
{ACAD_REACTORS
330
2B7
102
}
330
2B7
100
AcDbXrecord
280
     1
102
RTVSPost2010Prop28
280
     0
102
RTVSPost2010PropOp28
 70
     1
102
RTVSPost2010Prop29
280
     1
102
RTVSPost2010PropOp29
 70
     1
102
RTVSPost2010Prop30
280
     1
102
RTVSPost2010PropOp30
 70
     1
102
RTVSPost2010Prop31
280
     0
102
RTVSPost2010PropOp31
 70
     1
102
RTVSPost2010Prop32
280
     0
102
RTVSPost2010PropOp32
 70
     1
102
RTVSPost2010Prop33
280
     0
102
RTVSPost2010PropOp33
 70
     1
102
RTVSPost2010Prop34
280
     0
102
RTVSPost2010PropOp34
 70
     1
102
RTVSPost2010Prop35
280
     0
102
RTVSPost2010PropOp35
 70
     1
102
RTVSPost2010Prop36
280
     0
102
RTVSPost2010PropOp36
 70
     1
102
RTVSPost2010Prop37
 90
       50
102
RTVSPost2010PropOp37
 70
     1
102
RTVSPost2010Prop38
140
0.0
102
RTVSPost2010PropOp38
 70
     1
102
RTVSPost2010Prop39
140
1.0
102
RTVSPost2010PropOp39
 70
     1
102
RTVSPost2010Prop40
 90
        0
102
RTVSPost2010PropOp40
 70
     1
102
RTVSPost2010Prop41ColorIndex
 90
       18
102
RTVSPost2010Prop41ColorRGB
 90
        0
102
RTVSPost2010PropOp41
 70
     1
102
RTVSPost2010Prop42
 90
       50
102
RTVSPost2010PropOp42
 70
     1
102
RTVSPost2010Prop43
 90
        3
102
RTVSPost2010PropOp43
 70
     1
102
RTVSPost2010Prop44ColorIndex
 90
        5
102
RTVSPost2010Prop44ColorRGB
 90
      255
102
RTVSPost2010PropOp44
 70
     1
102
RTVSPost2010Prop45
280
     0
102
RTVSPost2010PropOp45
 70
     1
102
RTVSPost2010Prop46
 90
       50
102
RTVSPost2010PropOp46
 70
     1
102
RTVSPost2010Prop47
 90
       50
102
RTVSPost2010PropOp47
 70
     1
102
RTVSPost2010Prop48
 90
       50
102
RTVSPost2010PropOp48
 70
     1
102
RTVSPost2010Prop49
280
     0
102
RTVSPost2010PropOp49
 70
     1
102
RTVSPost2010Prop50
 90
       50
102
RTVSPost2010PropOp50
 70
     1
102
RTVSPost2010Prop51ColorIndex
 90
      256
102
RTVSPost2010Prop51ColorRGB
 90
-16777216
102
RTVSPost2010PropOp51
 70
     0
102
RTVSPost2010Prop52
140
1.0
102
RTVSPost2010PropOp52
 70
     0
102
RTVSPost2010Prop53
 90
        2
102
RTVSPost2010PropOp53
 70
     1
102
RTVSPost2010Prop54
  1
strokes_ogs.tif
102
RTVSPost2010PropOp54
 70
     1
102
RTVSPost2010Prop55
280
     0
102
RTVSPost2010PropOp55
 70
     1
102
RTVSPost2010Prop56
140
1.0
102
RTVSPost2010PropOp56
 70
     1
102
RTVSPost2010Prop57
140
1.0
102
RTVSPost2010PropOp57
 70
     1
102
RTVSPropertyOp0
 70
     1
102
RTVSPropertyOp1
 70
     1
102
RTVSPropertyOp2
 70
     1
102
RTVSPropertyOp3
 70
     1
102
RTVSPropertyOp4
 70
     1
102
RTVSPropertyOp5
 70
     1
102
RTVSPropertyOp6
 70
     1
102
RTVSPropertyOp7
 70
     1
102
RTVSPropertyOp8
 70
     1
102
RTVSPropertyOp9
 70
     1
102
RTVSPropertyOp10
 70
     1
102
RTVSPropertyOp11
 70
     1
102
RTVSPropertyOp12
 70
     1
102
RTVSPropertyOp13
 70
     1
102
RTVSPropertyOp14
 70
     1
102
RTVSPropertyOp15
 70
     1
102
RTVSPropertyOp16
 70
     1
102
RTVSPropertyOp17
 70
     1
102
RTVSPropertyOp18
 70
     1
102
RTVSPropertyOp19
 70
     1
102
RTVSPropertyOp20
 70
     1
102
RTVSPropertyOp21
 70
     1
102
RTVSPropertyOp22
 70
     1
102
RTVSPropertyOp23
 70
     1
102
RTVSPropertyOp24
 70
     1
102
RTVSPropertyOp25
 70
     1
102
RTVSPropertyOp26
 70
     1
102
RTVSPropertyOp27
 70
     1
102
RTVSPropertyOp28
 70
     1
102
RTVSPropertyOp29
 70
     1
102
RTVSPropertyOp30
 70
     1
102
RTVSPropertyOp31
 70
     1
102
RTVSPropertyOp32
 70
     1
102
RTVSPropertyOp33
 70
     1
102
RTVSPropertyOp34
 70
     1
102
RTVSPropertyOp35
 70
     1
102
RTVSPropertyOp36
 70
     1
102
RTVSPropertyOp37
 70
     1
102
RTVSPropertyOp38
 70
     1
102
RTVSPropertyOp39
 70
     1
102
RTVSPropertyOp40
 70
     1
102
RTVSPropertyOp41
 70
     1
102
RTVSPropertyOp42
 70
     1
102
RTVSPropertyOp43
 70
     1
102
RTVSPropertyOp44
 70
     1
102
RTVSPropertyOp45
 70
     1
102
RTVSPropertyOp46
 70
     1
102
RTVSPropertyOp47
 70
     1
102
RTVSPropertyOp48
 70
     1
102
RTVSPropertyOp49
 70
     1
102
RTVSPropertyOp50
 70
     1
102
RTVSPropertyOp51
 70
     0
102
RTVSPropertyOp52
 70
     0
102
RTVSPropertyOp53
 70
     1
102
RTVSPropertyOp54
 70
     1
102
RTVSPropertyOp55
 70
     1
102
RTVSPropertyOp56
 70
     1
102
RTVSPropertyOp57
 70
     1
102
RTVSPropertyOp58
 70
     1
102
RTVSPropertyOp59
 70
     1
102
RTVSPropertyOp60
 70
     1
102
RTVSPropertyOp61
 70
     1
102
RTVSPropertyOp62
 70
     1
  0
XRECORD
  5
2C0
102
{ACAD_REACTORS
330
2BF
102
}
330
2BF
100
AcDbXrecord
280
     1
102
RTVSPost2010Prop28
280
     0
102
RTVSPost2010PropOp28
 70
     1
102
RTVSPost2010Prop29
280
     1
102
RTVSPost2010PropOp29
 70
     1
102
RTVSPost2010Prop30
280
     1
102
RTVSPost2010PropOp30
 70
     1
102
RTVSPost2010Prop31
280
     0
102
RTVSPost2010PropOp31
 70
     1
102
RTVSPost2010Prop32
280
     0
102
RTVSPost2010PropOp32
 70
     1
102
RTVSPost2010Prop33
280
     0
102
RTVSPost2010PropOp33
 70
     1
102
RTVSPost2010Prop34
280
     0
102
RTVSPost2010PropOp34
 70
     1
102
RTVSPost2010Prop35
280
     0
102
RTVSPost2010PropOp35
 70
     1
102
RTVSPost2010Prop36
280
     0
102
RTVSPost2010PropOp36
 70
     1
102
RTVSPost2010Prop37
 90
       50
102
RTVSPost2010PropOp37
 70
     1
102
RTVSPost2010Prop38
140
0.0
102
RTVSPost2010PropOp38
 70
     1
102
RTVSPost2010Prop39
140
1.0
102
RTVSPost2010PropOp39
 70
     1
102
RTVSPost2010Prop40
 90
        0
102
RTVSPost2010PropOp40
 70
     1
102
RTVSPost2010Prop41ColorIndex
 90
       18
102
RTVSPost2010Prop41ColorRGB
 90
        0
102
RTVSPost2010PropOp41
 70
     1
102
RTVSPost2010Prop42
 90
       50
102
RTVSPost2010PropOp42
 70
     1
102
RTVSPost2010Prop43
 90
        3
102
RTVSPost2010PropOp43
 70
     1
102
RTVSPost2010Prop44ColorIndex
 90
        5
102
RTVSPost2010Prop44ColorRGB
 90
      255
102
RTVSPost2010PropOp44
 70
     1
102
RTVSPost2010Prop45
280
     0
102
RTVSPost2010PropOp45
 70
     1
102
RTVSPost2010Prop46
 90
       50
102
RTVSPost2010PropOp46
 70
     1
102
RTVSPost2010Prop47
 90
       50
102
RTVSPost2010PropOp47
 70
     1
102
RTVSPost2010Prop48
 90
       50
102
RTVSPost2010PropOp48
 70
     1
102
RTVSPost2010Prop49
280
     0
102
RTVSPost2010PropOp49
 70
     1
102
RTVSPost2010Prop50
 90
       50
102
RTVSPost2010PropOp50
 70
     1
102
RTVSPost2010Prop51ColorIndex
 90
      256
102
RTVSPost2010Prop51ColorRGB
 90
-16777216
102
RTVSPost2010PropOp51
 70
     0
102
RTVSPost2010Prop52
140
1.0
102
RTVSPost2010PropOp52
 70
     0
102
RTVSPost2010Prop53
 90
        2
102
RTVSPost2010PropOp53
 70
     1
102
RTVSPost2010Prop54
  1
strokes_ogs.tif
102
RTVSPost2010PropOp54
 70
     1
102
RTVSPost2010Prop55
280
     0
102
RTVSPost2010PropOp55
 70
     1
102
RTVSPost2010Prop56
140
1.0
102
RTVSPost2010PropOp56
 70
     1
102
RTVSPost2010Prop57
140
1.0
102
RTVSPost2010PropOp57
 70
     1
102
RTVSPropertyOp0
 70
     1
102
RTVSPropertyOp1
 70
     1
102
RTVSPropertyOp2
 70
     1
102
RTVSPropertyOp3
 70
     1
102
RTVSPropertyOp4
 70
     1
102
RTVSPropertyOp5
 70
     1
102
RTVSPropertyOp6
 70
     1
102
RTVSPropertyOp7
 70
     1
102
RTVSPropertyOp8
 70
     1
102
RTVSPropertyOp9
 70
     1
102
RTVSPropertyOp10
 70
     1
102
RTVSPropertyOp11
 70
     1
102
RTVSPropertyOp12
 70
     1
102
RTVSPropertyOp13
 70
     1
102
RTVSPropertyOp14
 70
     1
102
RTVSPropertyOp15
 70
     1
102
RTVSPropertyOp16
 70
     1
102
RTVSPropertyOp17
 70
     1
102
RTVSPropertyOp18
 70
     1
102
RTVSPropertyOp19
 70
     1
102
RTVSPropertyOp20
 70
     1
102
RTVSPropertyOp21
 70
     1
102
RTVSPropertyOp22
 70
     1
102
RTVSPropertyOp23
 70
     1
102
RTVSPropertyOp24
 70
     1
102
RTVSPropertyOp25
 70
     1
102
RTVSPropertyOp26
 70
     1
102
RTVSPropertyOp27
 70
     1
102
RTVSPropertyOp28
 70
     1
102
RTVSPropertyOp29
 70
     1
102
RTVSPropertyOp30
 70
     1
102
RTVSPropertyOp31
 70
     1
102
RTVSPropertyOp32
 70
     1
102
RTVSPropertyOp33
 70
     1
102
RTVSPropertyOp34
 70
     1
102
RTVSPropertyOp35
 70
     1
102
RTVSPropertyOp36
 70
     1
102
RTVSPropertyOp37
 70
     1
102
RTVSPropertyOp38
 70
     1
102
RTVSPropertyOp39
 70
     1
102
RTVSPropertyOp40
 70
     1
102
RTVSPropertyOp41
 70
     1
102
RTVSPropertyOp42
 70
     1
102
RTVSPropertyOp43
 70
     1
102
RTVSPropertyOp44
 70
     1
102
RTVSPropertyOp45
 70
     1
102
RTVSPropertyOp46
 70
     1
102
RTVSPropertyOp47
 70
     1
102
RTVSPropertyOp48
 70
     1
102
RTVSPropertyOp49
 70
     1
102
RTVSPropertyOp50
 70
     1
102
RTVSPropertyOp51
 70
     0
102
RTVSPropertyOp52
 70
     0
102
RTVSPropertyOp53
 70
     1
102
RTVSPropertyOp54
 70
     1
102
RTVSPropertyOp55
 70
     1
102
RTVSPropertyOp56
 70
     1
102
RTVSPropertyOp57
 70
     1
102
RTVSPropertyOp58
 70
     1
102
RTVSPropertyOp59
 70
     1
102
RTVSPropertyOp60
 70
     1
102
RTVSPropertyOp61
 70
     1
102
RTVSPropertyOp62
 70
     1
  0
XRECORD
  5
2B2
102
{ACAD_REACTORS
330
2B1
102
}
330
2B1
100
AcDbXrecord
280
     1
102
RTVSPost2010Prop28
280
     0
102
RTVSPost2010PropOp28
 70
     1
102
RTVSPost2010Prop29
280
     1
102
RTVSPost2010PropOp29
 70
     1
102
RTVSPost2010Prop30
280
     1
102
RTVSPost2010PropOp30
 70
     1
102
RTVSPost2010Prop31
280
     0
102
RTVSPost2010PropOp31
 70
     1
102
RTVSPost2010Prop32
280
     0
102
RTVSPost2010PropOp32
 70
     1
102
RTVSPost2010Prop33
280
     0
102
RTVSPost2010PropOp33
 70
     1
102
RTVSPost2010Prop34
280
     0
102
RTVSPost2010PropOp34
 70
     1
102
RTVSPost2010Prop35
280
     0
102
RTVSPost2010PropOp35
 70
     1
102
RTVSPost2010Prop36
280
     0
102
RTVSPost2010PropOp36
 70
     1
102
RTVSPost2010Prop37
 90
       50
102
RTVSPost2010PropOp37
 70
     1
102
RTVSPost2010Prop38
140
0.0
102
RTVSPost2010PropOp38
 70
     1
102
RTVSPost2010Prop39
140
1.0
102
RTVSPost2010PropOp39
 70
     1
102
RTVSPost2010Prop40
 90
        0
102
RTVSPost2010PropOp40
 70
     1
102
RTVSPost2010Prop41ColorIndex
 90
       18
102
RTVSPost2010Prop41ColorRGB
 90
        0
102
RTVSPost2010PropOp41
 70
     1
102
RTVSPost2010Prop42
 90
       50
102
RTVSPost2010PropOp42
 70
     1
102
RTVSPost2010Prop43
 90
        3
102
RTVSPost2010PropOp43
 70
     1
102
RTVSPost2010Prop44ColorIndex
 90
        5
102
RTVSPost2010Prop44ColorRGB
 90
      255
102
RTVSPost2010PropOp44
 70
     1
102
RTVSPost2010Prop45
280
     0
102
RTVSPost2010PropOp45
 70
     1
102
RTVSPost2010Prop46
 90
       50
102
RTVSPost2010PropOp46
 70
     1
102
RTVSPost2010Prop47
 90
       50
102
RTVSPost2010PropOp47
 70
     1
102
RTVSPost2010Prop48
 90
       50
102
RTVSPost2010PropOp48
 70
     1
102
RTVSPost2010Prop49
280
     0
102
RTVSPost2010PropOp49
 70
     1
102
RTVSPost2010Prop50
 90
       50
102
RTVSPost2010PropOp50
 70
     1
102
RTVSPost2010Prop51ColorIndex
 90
      256
102
RTVSPost2010Prop51ColorRGB
 90
-16777216
102
RTVSPost2010PropOp51
 70
     0
102
RTVSPost2010Prop52
140
1.0
102
RTVSPost2010PropOp52
 70
     0
102
RTVSPost2010Prop53
 90
        2
102
RTVSPost2010PropOp53
 70
     1
102
RTVSPost2010Prop54
  1
strokes_ogs.tif
102
RTVSPost2010PropOp54
 70
     1
102
RTVSPost2010Prop55
280
     0
102
RTVSPost2010PropOp55
 70
     1
102
RTVSPost2010Prop56
140
1.0
102
RTVSPost2010PropOp56
 70
     1
102
RTVSPost2010Prop57
140
1.0
102
RTVSPost2010PropOp57
 70
     1
102
RTVSPropertyOp0
 70
     1
102
RTVSPropertyOp1
 70
     1
102
RTVSPropertyOp2
 70
     1
102
RTVSPropertyOp3
 70
     1
102
RTVSPropertyOp4
 70
     1
102
RTVSPropertyOp5
 70
     1
102
RTVSPropertyOp6
 70
     1
102
RTVSPropertyOp7
 70
     1
102
RTVSPropertyOp8
 70
     1
102
RTVSPropertyOp9
 70
     1
102
RTVSPropertyOp10
 70
     1
102
RTVSPropertyOp11
 70
     1
102
RTVSPropertyOp12
 70
     1
102
RTVSPropertyOp13
 70
     1
102
RTVSPropertyOp14
 70
     1
102
RTVSPropertyOp15
 70
     1
102
RTVSPropertyOp16
 70
     1
102
RTVSPropertyOp17
 70
     1
102
RTVSPropertyOp18
 70
     1
102
RTVSPropertyOp19
 70
     1
102
RTVSPropertyOp20
 70
     1
102
RTVSPropertyOp21
 70
     1
102
RTVSPropertyOp22
 70
     1
102
RTVSPropertyOp23
 70
     1
102
RTVSPropertyOp24
 70
     1
102
RTVSPropertyOp25
 70
     1
102
RTVSPropertyOp26
 70
     1
102
RTVSPropertyOp27
 70
     1
102
RTVSPropertyOp28
 70
     1
102
RTVSPropertyOp29
 70
     1
102
RTVSPropertyOp30
 70
     1
102
RTVSPropertyOp31
 70
     1
102
RTVSPropertyOp32
 70
     1
102
RTVSPropertyOp33
 70
     1
102
RTVSPropertyOp34
 70
     1
102
RTVSPropertyOp35
 70
     1
102
RTVSPropertyOp36
 70
     1
102
RTVSPropertyOp37
 70
     1
102
RTVSPropertyOp38
 70
     1
102
RTVSPropertyOp39
 70
     1
102
RTVSPropertyOp40
 70
     1
102
RTVSPropertyOp41
 70
     1
102
RTVSPropertyOp42
 70
     1
102
RTVSPropertyOp43
 70
     1
102
RTVSPropertyOp44
 70
     1
102
RTVSPropertyOp45
 70
     1
102
RTVSPropertyOp46
 70
     1
102
RTVSPropertyOp47
 70
     1
102
RTVSPropertyOp48
 70
     1
102
RTVSPropertyOp49
 70
     1
102
RTVSPropertyOp50
 70
     1
102
RTVSPropertyOp51
 70
     0
102
RTVSPropertyOp52
 70
     0
102
RTVSPropertyOp53
 70
     1
102
RTVSPropertyOp54
 70
     1
102
RTVSPropertyOp55
 70
     1
102
RTVSPropertyOp56
 70
     1
102
RTVSPropertyOp57
 70
     1
102
RTVSPropertyOp58
 70
     1
102
RTVSPropertyOp59
 70
     1
102
RTVSPropertyOp60
 70
     1
102
RTVSPropertyOp61
 70
     1
102
RTVSPropertyOp62
 70
     1
  0
XRECORD
  5
2B6
102
{ACAD_REACTORS
330
2B5
102
}
330
2B5
100
AcDbXrecord
280
     1
102
RTVSPost2010Prop28
280
     0
102
RTVSPost2010PropOp28
 70
     1
102
RTVSPost2010Prop29
280
     1
102
RTVSPost2010PropOp29
 70
     1
102
RTVSPost2010Prop30
280
     1
102
RTVSPost2010PropOp30
 70
     1
102
RTVSPost2010Prop31
280
     0
102
RTVSPost2010PropOp31
 70
     1
102
RTVSPost2010Prop32
280
     0
102
RTVSPost2010PropOp32
 70
     1
102
RTVSPost2010Prop33
280
     0
102
RTVSPost2010PropOp33
 70
     1
102
RTVSPost2010Prop34
280
     0
102
RTVSPost2010PropOp34
 70
     1
102
RTVSPost2010Prop35
280
     0
102
RTVSPost2010PropOp35
 70
     1
102
RTVSPost2010Prop36
280
     0
102
RTVSPost2010PropOp36
 70
     1
102
RTVSPost2010Prop37
 90
       50
102
RTVSPost2010PropOp37
 70
     1
102
RTVSPost2010Prop38
140
0.0
102
RTVSPost2010PropOp38
 70
     1
102
RTVSPost2010Prop39
140
1.0
102
RTVSPost2010PropOp39
 70
     1
102
RTVSPost2010Prop40
 90
        0
102
RTVSPost2010PropOp40
 70
     1
102
RTVSPost2010Prop41ColorIndex
 90
       18
102
RTVSPost2010Prop41ColorRGB
 90
        0
102
RTVSPost2010PropOp41
 70
     1
102
RTVSPost2010Prop42
 90
       50
102
RTVSPost2010PropOp42
 70
     1
102
RTVSPost2010Prop43
 90
        3
102
RTVSPost2010PropOp43
 70
     1
102
RTVSPost2010Prop44ColorIndex
 90
        5
102
RTVSPost2010Prop44ColorRGB
 90
      255
102
RTVSPost2010PropOp44
 70
     1
102
RTVSPost2010Prop45
280
     0
102
RTVSPost2010PropOp45
 70
     1
102
RTVSPost2010Prop46
 90
       50
102
RTVSPost2010PropOp46
 70
     1
102
RTVSPost2010Prop47
 90
       50
102
RTVSPost2010PropOp47
 70
     1
102
RTVSPost2010Prop48
 90
       50
102
RTVSPost2010PropOp48
 70
     1
102
RTVSPost2010Prop49
280
     0
102
RTVSPost2010PropOp49
 70
     1
102
RTVSPost2010Prop50
 90
       50
102
RTVSPost2010PropOp50
 70
     1
102
RTVSPost2010Prop51ColorIndex
 90
      256
102
RTVSPost2010Prop51ColorRGB
 90
-16777216
102
RTVSPost2010PropOp51
 70
     0
102
RTVSPost2010Prop52
140
1.0
102
RTVSPost2010PropOp52
 70
     0
102
RTVSPost2010Prop53
 90
        2
102
RTVSPost2010PropOp53
 70
     1
102
RTVSPost2010Prop54
  1
strokes_ogs.tif
102
RTVSPost2010PropOp54
 70
     1
102
RTVSPost2010Prop55
280
     0
102
RTVSPost2010PropOp55
 70
     1
102
RTVSPost2010Prop56
140
1.0
102
RTVSPost2010PropOp56
 70
     1
102
RTVSPost2010Prop57
140
1.0
102
RTVSPost2010PropOp57
 70
     1
102
RTVSPropertyOp0
 70
     1
102
RTVSPropertyOp1
 70
     1
102
RTVSPropertyOp2
 70
     1
102
RTVSPropertyOp3
 70
     1
102
RTVSPropertyOp4
 70
     1
102
RTVSPropertyOp5
 70
     1
102
RTVSPropertyOp6
 70
     1
102
RTVSPropertyOp7
 70
     1
102
RTVSPropertyOp8
 70
     1
102
RTVSPropertyOp9
 70
     1
102
RTVSPropertyOp10
 70
     1
102
RTVSPropertyOp11
 70
     1
102
RTVSPropertyOp12
 70
     1
102
RTVSPropertyOp13
 70
     1
102
RTVSPropertyOp14
 70
     1
102
RTVSPropertyOp15
 70
     1
102
RTVSPropertyOp16
 70
     1
102
RTVSPropertyOp17
 70
     1
102
RTVSPropertyOp18
 70
     1
102
RTVSPropertyOp19
 70
     1
102
RTVSPropertyOp20
 70
     1
102
RTVSPropertyOp21
 70
     1
102
RTVSPropertyOp22
 70
     1
102
RTVSPropertyOp23
 70
     1
102
RTVSPropertyOp24
 70
     1
102
RTVSPropertyOp25
 70
     1
102
RTVSPropertyOp26
 70
     1
102
RTVSPropertyOp27
 70
     1
102
RTVSPropertyOp28
 70
     1
102
RTVSPropertyOp29
 70
     1
102
RTVSPropertyOp30
 70
     1
102
RTVSPropertyOp31
 70
     1
102
RTVSPropertyOp32
 70
     1
102
RTVSPropertyOp33
 70
     1
102
RTVSPropertyOp34
 70
     1
102
RTVSPropertyOp35
 70
     1
102
RTVSPropertyOp36
 70
     1
102
RTVSPropertyOp37
 70
     1
102
RTVSPropertyOp38
 70
     1
102
RTVSPropertyOp39
 70
     1
102
RTVSPropertyOp40
 70
     1
102
RTVSPropertyOp41
 70
     1
102
RTVSPropertyOp42
 70
     1
102
RTVSPropertyOp43
 70
     1
102
RTVSPropertyOp44
 70
     1
102
RTVSPropertyOp45
 70
     1
102
RTVSPropertyOp46
 70
     1
102
RTVSPropertyOp47
 70
     1
102
RTVSPropertyOp48
 70
     1
102
RTVSPropertyOp49
 70
     1
102
RTVSPropertyOp50
 70
     1
102
RTVSPropertyOp51
 70
     0
102
RTVSPropertyOp52
 70
     0
102
RTVSPropertyOp53
 70
     1
102
RTVSPropertyOp54
 70
     1
102
RTVSPropertyOp55
 70
     1
102
RTVSPropertyOp56
 70
     1
102
RTVSPropertyOp57
 70
     1
102
RTVSPropertyOp58
 70
     1
102
RTVSPropertyOp59
 70
     1
102
RTVSPropertyOp60
 70
     1
102
RTVSPropertyOp61
 70
     1
102
RTVSPropertyOp62
 70
     1
  0
XRECORD
  5
2D0
102
{ACAD_REACTORS
330
2CF
102
}
330
2CF
100
AcDbXrecord
280
     1
102
RTVSPost2010Prop28
280
     0
102
RTVSPost2010PropOp28
 70
     1
102
RTVSPost2010Prop29
280
     1
102
RTVSPost2010PropOp29
 70
     1
102
RTVSPost2010Prop30
280
     1
102
RTVSPost2010PropOp30
 70
     1
102
RTVSPost2010Prop31
280
     0
102
RTVSPost2010PropOp31
 70
     1
102
RTVSPost2010Prop32
280
     0
102
RTVSPost2010PropOp32
 70
     1
102
RTVSPost2010Prop33
280
     0
102
RTVSPost2010PropOp33
 70
     1
102
RTVSPost2010Prop34
280
     0
102
RTVSPost2010PropOp34
 70
     1
102
RTVSPost2010Prop35
280
     0
102
RTVSPost2010PropOp35
 70
     1
102
RTVSPost2010Prop36
280
     0
102
RTVSPost2010PropOp36
 70
     1
102
RTVSPost2010Prop37
 90
       50
102
RTVSPost2010PropOp37
 70
     0
102
RTVSPost2010Prop38
140
0.0
102
RTVSPost2010PropOp38
 70
     0
102
RTVSPost2010Prop39
140
1.0
102
RTVSPost2010PropOp39
 70
     0
102
RTVSPost2010Prop40
 90
        0
102
RTVSPost2010PropOp40
 70
     0
102
RTVSPost2010Prop41ColorIndex
 90
       18
102
RTVSPost2010Prop41ColorRGB
 90
        0
102
RTVSPost2010PropOp41
 70
     0
102
RTVSPost2010Prop42
 90
       50
102
RTVSPost2010PropOp42
 70
     0
102
RTVSPost2010Prop43
 90
        3
102
RTVSPost2010PropOp43
 70
     0
102
RTVSPost2010Prop44ColorIndex
 90
        5
102
RTVSPost2010Prop44ColorRGB
 90
      255
102
RTVSPost2010PropOp44
 70
     0
102
RTVSPost2010Prop45
280
     0
102
RTVSPost2010PropOp45
 70
     1
102
RTVSPost2010Prop46
 90
       50
102
RTVSPost2010PropOp46
 70
     0
102
RTVSPost2010Prop47
 90
       50
102
RTVSPost2010PropOp47
 70
     0
102
RTVSPost2010Prop48
 90
       50
102
RTVSPost2010PropOp48
 70
     0
102
RTVSPost2010Prop49
280
     0
102
RTVSPost2010PropOp49
 70
     1
102
RTVSPost2010Prop50
 90
       50
102
RTVSPost2010PropOp50
 70
     0
102
RTVSPost2010Prop51ColorIndex
 90
      256
102
RTVSPost2010Prop51ColorRGB
 90
-16777216
102
RTVSPost2010PropOp51
 70
     0
102
RTVSPost2010Prop52
140
1.0
102
RTVSPost2010PropOp52
 70
     0
102
RTVSPost2010Prop53
 90
        2
102
RTVSPost2010PropOp53
 70
     0
102
RTVSPost2010Prop54
  1
strokes_ogs.tif
102
RTVSPost2010PropOp54
 70
     0
102
RTVSPost2010Prop55
280
     0
102
RTVSPost2010PropOp55
 70
     1
102
RTVSPost2010Prop56
140
1.0
102
RTVSPost2010PropOp56
 70
     0
102
RTVSPost2010Prop57
140
1.0
102
RTVSPost2010PropOp57
 70
     0
102
RTVSPropertyOp0
 70
     0
102
RTVSPropertyOp1
 70
     0
102
RTVSPropertyOp2
 70
     0
102
RTVSPropertyOp3
 70
     0
102
RTVSPropertyOp4
 70
     0
102
RTVSPropertyOp5
 70
     0
102
RTVSPropertyOp6
 70
     0
102
RTVSPropertyOp7
 70
     0
102
RTVSPropertyOp8
 70
     0
102
RTVSPropertyOp9
 70
     0
102
RTVSPropertyOp10
 70
     0
102
RTVSPropertyOp11
 70
     0
102
RTVSPropertyOp12
 70
     0
102
RTVSPropertyOp13
 70
     0
102
RTVSPropertyOp14
 70
     2
102
RTVSPropertyOp15
 70
     0
102
RTVSPropertyOp16
 70
     0
102
RTVSPropertyOp17
 70
     0
102
RTVSPropertyOp18
 70
     0
102
RTVSPropertyOp19
 70
     0
102
RTVSPropertyOp20
 70
     0
102
RTVSPropertyOp21
 70
     0
102
RTVSPropertyOp22
 70
     0
102
RTVSPropertyOp23
 70
     0
102
RTVSPropertyOp24
 70
     0
102
RTVSPropertyOp25
 70
     0
102
RTVSPropertyOp26
 70
     0
102
RTVSPropertyOp27
 70
     0
102
RTVSPropertyOp28
 70
     1
102
RTVSPropertyOp29
 70
     1
102
RTVSPropertyOp30
 70
     1
102
RTVSPropertyOp31
 70
     1
102
RTVSPropertyOp32
 70
     1
102
RTVSPropertyOp33
 70
     1
102
RTVSPropertyOp34
 70
     1
102
RTVSPropertyOp35
 70
     1
102
RTVSPropertyOp36
 70
     1
102
RTVSPropertyOp37
 70
     0
102
RTVSPropertyOp38
 70
     0
102
RTVSPropertyOp39
 70
     0
102
RTVSPropertyOp40
 70
     0
102
RTVSPropertyOp41
 70
     0
102
RTVSPropertyOp42
 70
     0
102
RTVSPropertyOp43
 70
     0
102
RTVSPropertyOp44
 70
     0
102
RTVSPropertyOp45
 70
     1
102
RTVSPropertyOp46
 70
     0
102
RTVSPropertyOp47
 70
     0
102
RTVSPropertyOp48
 70
     0
102
RTVSPropertyOp49
 70
     1
102
RTVSPropertyOp50
 70
     0
102
RTVSPropertyOp51
 70
     0
102
RTVSPropertyOp52
 70
     0
102
RTVSPropertyOp53
 70
     0
102
RTVSPropertyOp54
 70
     0
102
RTVSPropertyOp55
 70
     1
102
RTVSPropertyOp56
 70
     0
102
RTVSPropertyOp57
 70
     0
102
RTVSPropertyOp58
 70
     0
102
RTVSPropertyOp59
 70
     0
102
RTVSPropertyOp60
 70
     0
102
RTVSPropertyOp61
 70
     0
102
RTVSPropertyOp62
 70
     0
  0
XRECORD
  5
2BE
102
{ACAD_REACTORS
330
2BD
102
}
330
2BD
100
AcDbXrecord
280
     1
102
RTVSPost2010Prop28
280
     0
102
RTVSPost2010PropOp28
 70
     1
102
RTVSPost2010Prop29
280
     1
102
RTVSPost2010PropOp29
 70
     1
102
RTVSPost2010Prop30
280
     1
102
RTVSPost2010PropOp30
 70
     1
102
RTVSPost2010Prop31
280
     0
102
RTVSPost2010PropOp31
 70
     1
102
RTVSPost2010Prop32
280
     0
102
RTVSPost2010PropOp32
 70
     1
102
RTVSPost2010Prop33
280
     0
102
RTVSPost2010PropOp33
 70
     1
102
RTVSPost2010Prop34
280
     0
102
RTVSPost2010PropOp34
 70
     1
102
RTVSPost2010Prop35
280
     0
102
RTVSPost2010PropOp35
 70
     1
102
RTVSPost2010Prop36
280
     0
102
RTVSPost2010PropOp36
 70
     1
102
RTVSPost2010Prop37
 90
       50
102
RTVSPost2010PropOp37
 70
     1
102
RTVSPost2010Prop38
140
0.0
102
RTVSPost2010PropOp38
 70
     1
102
RTVSPost2010Prop39
140
1.0
102
RTVSPost2010PropOp39
 70
     1
102
RTVSPost2010Prop40
 90
        0
102
RTVSPost2010PropOp40
 70
     1
102
RTVSPost2010Prop41ColorIndex
 90
       18
102
RTVSPost2010Prop41ColorRGB
 90
        0
102
RTVSPost2010PropOp41
 70
     1
102
RTVSPost2010Prop42
 90
       50
102
RTVSPost2010PropOp42
 70
     1
102
RTVSPost2010Prop43
 90
        3
102
RTVSPost2010PropOp43
 70
     1
102
RTVSPost2010Prop44ColorIndex
 90
        5
102
RTVSPost2010Prop44ColorRGB
 90
      255
102
RTVSPost2010PropOp44
 70
     1
102
RTVSPost2010Prop45
280
     0
102
RTVSPost2010PropOp45
 70
     1
102
RTVSPost2010Prop46
 90
       50
102
RTVSPost2010PropOp46
 70
     1
102
RTVSPost2010Prop47
 90
       50
102
RTVSPost2010PropOp47
 70
     1
102
RTVSPost2010Prop48
 90
       50
102
RTVSPost2010PropOp48
 70
     1
102
RTVSPost2010Prop49
280
     0
102
RTVSPost2010PropOp49
 70
     1
102
RTVSPost2010Prop50
 90
       50
102
RTVSPost2010PropOp50
 70
     1
102
RTVSPost2010Prop51ColorIndex
 90
      256
102
RTVSPost2010Prop51ColorRGB
 90
-16777216
102
RTVSPost2010PropOp51
 70
     0
102
RTVSPost2010Prop52
140
1.0
102
RTVSPost2010PropOp52
 70
     0
102
RTVSPost2010Prop53
 90
        2
102
RTVSPost2010PropOp53
 70
     1
102
RTVSPost2010Prop54
  1
strokes_ogs.tif
102
RTVSPost2010PropOp54
 70
     1
102
RTVSPost2010Prop55
280
     0
102
RTVSPost2010PropOp55
 70
     1
102
RTVSPost2010Prop56
140
1.0
102
RTVSPost2010PropOp56
 70
     1
102
RTVSPost2010Prop57
140
1.0
102
RTVSPost2010PropOp57
 70
     1
102
RTVSPropertyOp0
 70
     1
102
RTVSPropertyOp1
 70
     1
102
RTVSPropertyOp2
 70
     1
102
RTVSPropertyOp3
 70
     1
102
RTVSPropertyOp4
 70
     1
102
RTVSPropertyOp5
 70
     1
102
RTVSPropertyOp6
 70
     1
102
RTVSPropertyOp7
 70
     1
102
RTVSPropertyOp8
 70
     1
102
RTVSPropertyOp9
 70
     1
102
RTVSPropertyOp10
 70
     1
102
RTVSPropertyOp11
 70
     1
102
RTVSPropertyOp12
 70
     1
102
RTVSPropertyOp13
 70
     1
102
RTVSPropertyOp14
 70
     1
102
RTVSPropertyOp15
 70
     1
102
RTVSPropertyOp16
 70
     1
102
RTVSPropertyOp17
 70
     1
102
RTVSPropertyOp18
 70
     1
102
RTVSPropertyOp19
 70
     1
102
RTVSPropertyOp20
 70
     1
102
RTVSPropertyOp21
 70
     1
102
RTVSPropertyOp22
 70
     1
102
RTVSPropertyOp23
 70
     1
102
RTVSPropertyOp24
 70
     1
102
RTVSPropertyOp25
 70
     1
102
RTVSPropertyOp26
 70
     1
102
RTVSPropertyOp27
 70
     1
102
RTVSPropertyOp28
 70
     1
102
RTVSPropertyOp29
 70
     1
102
RTVSPropertyOp30
 70
     1
102
RTVSPropertyOp31
 70
     1
102
RTVSPropertyOp32
 70
     1
102
RTVSPropertyOp33
 70
     1
102
RTVSPropertyOp34
 70
     1
102
RTVSPropertyOp35
 70
     1
102
RTVSPropertyOp36
 70
     1
102
RTVSPropertyOp37
 70
     1
102
RTVSPropertyOp38
 70
     1
102
RTVSPropertyOp39
 70
     1
102
RTVSPropertyOp40
 70
     1
102
RTVSPropertyOp41
 70
     1
102
RTVSPropertyOp42
 70
     1
102
RTVSPropertyOp43
 70
     1
102
RTVSPropertyOp44
 70
     1
102
RTVSPropertyOp45
 70
     1
102
RTVSPropertyOp46
 70
     1
102
RTVSPropertyOp47
 70
     1
102
RTVSPropertyOp48
 70
     1
102
RTVSPropertyOp49
 70
     1
102
RTVSPropertyOp50
 70
     1
102
RTVSPropertyOp51
 70
     0
102
RTVSPropertyOp52
 70
     0
102
RTVSPropertyOp53
 70
     1
102
RTVSPropertyOp54
 70
     1
102
RTVSPropertyOp55
 70
     1
102
RTVSPropertyOp56
 70
     1
102
RTVSPropertyOp57
 70
     1
102
RTVSPropertyOp58
 70
     1
102
RTVSPropertyOp59
 70
     1
102
RTVSPropertyOp60
 70
     1
102
RTVSPropertyOp61
 70
     1
102
RTVSPropertyOp62
 70
     1
  0
XRECORD
  5
2A2
102
{ACAD_REACTORS
330
2A1
102
}
330
2A1
100
AcDbXrecord
280
     1
102
RTVSPost2010Prop28
280
     0
102
RTVSPost2010PropOp28
 70
     1
102
RTVSPost2010Prop29
280
     1
102
RTVSPost2010PropOp29
 70
     1
102
RTVSPost2010Prop30
280
     1
102
RTVSPost2010PropOp30
 70
     1
102
RTVSPost2010Prop31
280
     0
102
RTVSPost2010PropOp31
 70
     1
102
RTVSPost2010Prop32
280
     0
102
RTVSPost2010PropOp32
 70
     1
102
RTVSPost2010Prop33
280
     0
102
RTVSPost2010PropOp33
 70
     1
102
RTVSPost2010Prop34
280
     0
102
RTVSPost2010PropOp34
 70
     1
102
RTVSPost2010Prop35
280
     0
102
RTVSPost2010PropOp35
 70
     1
102
RTVSPost2010Prop36
280
     0
102
RTVSPost2010PropOp36
 70
     1
102
RTVSPost2010Prop37
 90
       50
102
RTVSPost2010PropOp37
 70
     1
102
RTVSPost2010Prop38
140
0.0
102
RTVSPost2010PropOp38
 70
     1
102
RTVSPost2010Prop39
140
1.0
102
RTVSPost2010PropOp39
 70
     1
102
RTVSPost2010Prop40
 90
        0
102
RTVSPost2010PropOp40
 70
     1
102
RTVSPost2010Prop41ColorIndex
 90
       18
102
RTVSPost2010Prop41ColorRGB
 90
        0
102
RTVSPost2010PropOp41
 70
     1
102
RTVSPost2010Prop42
 90
       50
102
RTVSPost2010PropOp42
 70
     1
102
RTVSPost2010Prop43
 90
        3
102
RTVSPost2010PropOp43
 70
     1
102
RTVSPost2010Prop44ColorIndex
 90
        5
102
RTVSPost2010Prop44ColorRGB
 90
      255
102
RTVSPost2010PropOp44
 70
     1
102
RTVSPost2010Prop45
280
     0
102
RTVSPost2010PropOp45
 70
     1
102
RTVSPost2010Prop46
 90
       50
102
RTVSPost2010PropOp46
 70
     1
102
RTVSPost2010Prop47
 90
       50
102
RTVSPost2010PropOp47
 70
     1
102
RTVSPost2010Prop48
 90
       50
102
RTVSPost2010PropOp48
 70
     1
102
RTVSPost2010Prop49
280
     0
102
RTVSPost2010PropOp49
 70
     1
102
RTVSPost2010Prop50
 90
       50
102
RTVSPost2010PropOp50
 70
     1
102
RTVSPost2010Prop51ColorIndex
 90
      256
102
RTVSPost2010Prop51ColorRGB
 90
-16777216
102
RTVSPost2010PropOp51
 70
     0
102
RTVSPost2010Prop52
140
1.0
102
RTVSPost2010PropOp52
 70
     0
102
RTVSPost2010Prop53
 90
        2
102
RTVSPost2010PropOp53
 70
     1
102
RTVSPost2010Prop54
  1
strokes_ogs.tif
102
RTVSPost2010PropOp54
 70
     1
102
RTVSPost2010Prop55
280
     0
102
RTVSPost2010PropOp55
 70
     1
102
RTVSPost2010Prop56
140
1.0
102
RTVSPost2010PropOp56
 70
     1
102
RTVSPost2010Prop57
140
1.0
102
RTVSPost2010PropOp57
 70
     1
102
RTVSPropertyOp0
 70
     1
102
RTVSPropertyOp1
 70
     1
102
RTVSPropertyOp2
 70
     1
102
RTVSPropertyOp3
 70
     1
102
RTVSPropertyOp4
 70
     1
102
RTVSPropertyOp5
 70
     1
102
RTVSPropertyOp6
 70
     1
102
RTVSPropertyOp7
 70
     1
102
RTVSPropertyOp8
 70
     1
102
RTVSPropertyOp9
 70
     1
102
RTVSPropertyOp10
 70
     1
102
RTVSPropertyOp11
 70
     1
102
RTVSPropertyOp12
 70
     1
102
RTVSPropertyOp13
 70
     1
102
RTVSPropertyOp14
 70
     1
102
RTVSPropertyOp15
 70
     1
102
RTVSPropertyOp16
 70
     1
102
RTVSPropertyOp17
 70
     1
102
RTVSPropertyOp18
 70
     1
102
RTVSPropertyOp19
 70
     1
102
RTVSPropertyOp20
 70
     1
102
RTVSPropertyOp21
 70
     1
102
RTVSPropertyOp22
 70
     1
102
RTVSPropertyOp23
 70
     1
102
RTVSPropertyOp24
 70
     1
102
RTVSPropertyOp25
 70
     1
102
RTVSPropertyOp26
 70
     1
102
RTVSPropertyOp27
 70
     1
102
RTVSPropertyOp28
 70
     1
102
RTVSPropertyOp29
 70
     1
102
RTVSPropertyOp30
 70
     1
102
RTVSPropertyOp31
 70
     1
102
RTVSPropertyOp32
 70
     1
102
RTVSPropertyOp33
 70
     1
102
RTVSPropertyOp34
 70
     1
102
RTVSPropertyOp35
 70
     1
102
RTVSPropertyOp36
 70
     1
102
RTVSPropertyOp37
 70
     1
102
RTVSPropertyOp38
 70
     1
102
RTVSPropertyOp39
 70
     1
102
RTVSPropertyOp40
 70
     1
102
RTVSPropertyOp41
 70
     1
102
RTVSPropertyOp42
 70
     1
102
RTVSPropertyOp43
 70
     1
102
RTVSPropertyOp44
 70
     1
102
RTVSPropertyOp45
 70
     1
102
RTVSPropertyOp46
 70
     1
102
RTVSPropertyOp47
 70
     1
102
RTVSPropertyOp48
 70
     1
102
RTVSPropertyOp49
 70
     1
102
RTVSPropertyOp50
 70
     1
102
RTVSPropertyOp51
 70
     0
102
RTVSPropertyOp52
 70
     0
102
RTVSPropertyOp53
 70
     1
102
RTVSPropertyOp54
 70
     1
102
RTVSPropertyOp55
 70
     1
102
RTVSPropertyOp56
 70
     1
102
RTVSPropertyOp57
 70
     1
102
RTVSPropertyOp58
 70
     1
102
RTVSPropertyOp59
 70
     1
102
RTVSPropertyOp60
 70
     1
102
RTVSPropertyOp61
 70
     1
102
RTVSPropertyOp62
 70
     1
  0
XRECORD
  5
2A4
102
{ACAD_REACTORS
330
2A3
102
}
330
2A3
100
AcDbXrecord
280
     1
102
RTVSPost2010Prop28
280
     0
102
RTVSPost2010PropOp28
 70
     1
102
RTVSPost2010Prop29
280
     1
102
RTVSPost2010PropOp29
 70
     1
102
RTVSPost2010Prop30
280
     1
102
RTVSPost2010PropOp30
 70
     1
102
RTVSPost2010Prop31
280
     0
102
RTVSPost2010PropOp31
 70
     1
102
RTVSPost2010Prop32
280
     0
102
RTVSPost2010PropOp32
 70
     1
102
RTVSPost2010Prop33
280
     0
102
RTVSPost2010PropOp33
 70
     1
102
RTVSPost2010Prop34
280
     0
102
RTVSPost2010PropOp34
 70
     1
102
RTVSPost2010Prop35
280
     0
102
RTVSPost2010PropOp35
 70
     1
102
RTVSPost2010Prop36
280
     0
102
RTVSPost2010PropOp36
 70
     1
102
RTVSPost2010Prop37
 90
       50
102
RTVSPost2010PropOp37
 70
     1
102
RTVSPost2010Prop38
140
0.0
102
RTVSPost2010PropOp38
 70
     1
102
RTVSPost2010Prop39
140
1.0
102
RTVSPost2010PropOp39
 70
     1
102
RTVSPost2010Prop40
 90
        0
102
RTVSPost2010PropOp40
 70
     1
102
RTVSPost2010Prop41ColorIndex
 90
       18
102
RTVSPost2010Prop41ColorRGB
 90
        0
102
RTVSPost2010PropOp41
 70
     1
102
RTVSPost2010Prop42
 90
       50
102
RTVSPost2010PropOp42
 70
     1
102
RTVSPost2010Prop43
 90
        3
102
RTVSPost2010PropOp43
 70
     1
102
RTVSPost2010Prop44ColorIndex
 90
        5
102
RTVSPost2010Prop44ColorRGB
 90
      255
102
RTVSPost2010PropOp44
 70
     1
102
RTVSPost2010Prop45
280
     0
102
RTVSPost2010PropOp45
 70
     1
102
RTVSPost2010Prop46
 90
       50
102
RTVSPost2010PropOp46
 70
     1
102
RTVSPost2010Prop47
 90
       50
102
RTVSPost2010PropOp47
 70
     1
102
RTVSPost2010Prop48
 90
       50
102
RTVSPost2010PropOp48
 70
     1
102
RTVSPost2010Prop49
280
     0
102
RTVSPost2010PropOp49
 70
     1
102
RTVSPost2010Prop50
 90
       50
102
RTVSPost2010PropOp50
 70
     1
102
RTVSPost2010Prop51ColorIndex
 90
      256
102
RTVSPost2010Prop51ColorRGB
 90
-16777216
102
RTVSPost2010PropOp51
 70
     0
102
RTVSPost2010Prop52
140
1.0
102
RTVSPost2010PropOp52
 70
     0
102
RTVSPost2010Prop53
 90
        2
102
RTVSPost2010PropOp53
 70
     1
102
RTVSPost2010Prop54
  1
strokes_ogs.tif
102
RTVSPost2010PropOp54
 70
     1
102
RTVSPost2010Prop55
280
     0
102
RTVSPost2010PropOp55
 70
     1
102
RTVSPost2010Prop56
140
1.0
102
RTVSPost2010PropOp56
 70
     1
102
RTVSPost2010Prop57
140
1.0
102
RTVSPost2010PropOp57
 70
     1
102
RTVSPropertyOp0
 70
     1
102
RTVSPropertyOp1
 70
     1
102
RTVSPropertyOp2
 70
     1
102
RTVSPropertyOp3
 70
     1
102
RTVSPropertyOp4
 70
     1
102
RTVSPropertyOp5
 70
     1
102
RTVSPropertyOp6
 70
     1
102
RTVSPropertyOp7
 70
     1
102
RTVSPropertyOp8
 70
     1
102
RTVSPropertyOp9
 70
     1
102
RTVSPropertyOp10
 70
     1
102
RTVSPropertyOp11
 70
     1
102
RTVSPropertyOp12
 70
     1
102
RTVSPropertyOp13
 70
     1
102
RTVSPropertyOp14
 70
     1
102
RTVSPropertyOp15
 70
     1
102
RTVSPropertyOp16
 70
     1
102
RTVSPropertyOp17
 70
     1
102
RTVSPropertyOp18
 70
     1
102
RTVSPropertyOp19
 70
     1
102
RTVSPropertyOp20
 70
     1
102
RTVSPropertyOp21
 70
     1
102
RTVSPropertyOp22
 70
     1
102
RTVSPropertyOp23
 70
     1
102
RTVSPropertyOp24
 70
     1
102
RTVSPropertyOp25
 70
     1
102
RTVSPropertyOp26
 70
     1
102
RTVSPropertyOp27
 70
     1
102
RTVSPropertyOp28
 70
     1
102
RTVSPropertyOp29
 70
     1
102
RTVSPropertyOp30
 70
     1
102
RTVSPropertyOp31
 70
     1
102
RTVSPropertyOp32
 70
     1
102
RTVSPropertyOp33
 70
     1
102
RTVSPropertyOp34
 70
     1
102
RTVSPropertyOp35
 70
     1
102
RTVSPropertyOp36
 70
     1
102
RTVSPropertyOp37
 70
     1
102
RTVSPropertyOp38
 70
     1
102
RTVSPropertyOp39
 70
     1
102
RTVSPropertyOp40
 70
     1
102
RTVSPropertyOp41
 70
     1
102
RTVSPropertyOp42
 70
     1
102
RTVSPropertyOp43
 70
     1
102
RTVSPropertyOp44
 70
     1
102
RTVSPropertyOp45
 70
     1
102
RTVSPropertyOp46
 70
     1
102
RTVSPropertyOp47
 70
     1
102
RTVSPropertyOp48
 70
     1
102
RTVSPropertyOp49
 70
     1
102
RTVSPropertyOp50
 70
     1
102
RTVSPropertyOp51
 70
     0
102
RTVSPropertyOp52
 70
     0
102
RTVSPropertyOp53
 70
     1
102
RTVSPropertyOp54
 70
     1
102
RTVSPropertyOp55
 70
     1
102
RTVSPropertyOp56
 70
     1
102
RTVSPropertyOp57
 70
     1
102
RTVSPropertyOp58
 70
     1
102
RTVSPropertyOp59
 70
     1
102
RTVSPropertyOp60
 70
     1
102
RTVSPropertyOp61
 70
     1
102
RTVSPropertyOp62
 70
     1
  0
XRECORD
  5
2A6
102
{ACAD_REACTORS
330
2A5
102
}
330
2A5
100
AcDbXrecord
280
     1
102
RTVSPost2010Prop28
280
     0
102
RTVSPost2010PropOp28
 70
     1
102
RTVSPost2010Prop29
280
     1
102
RTVSPost2010PropOp29
 70
     1
102
RTVSPost2010Prop30
280
     1
102
RTVSPost2010PropOp30
 70
     1
102
RTVSPost2010Prop31
280
     0
102
RTVSPost2010PropOp31
 70
     1
102
RTVSPost2010Prop32
280
     0
102
RTVSPost2010PropOp32
 70
     1
102
RTVSPost2010Prop33
280
     0
102
RTVSPost2010PropOp33
 70
     1
102
RTVSPost2010Prop34
280
     0
102
RTVSPost2010PropOp34
 70
     1
102
RTVSPost2010Prop35
280
     0
102
RTVSPost2010PropOp35
 70
     1
102
RTVSPost2010Prop36
280
     0
102
RTVSPost2010PropOp36
 70
     1
102
RTVSPost2010Prop37
 90
       50
102
RTVSPost2010PropOp37
 70
     1
102
RTVSPost2010Prop38
140
0.0
102
RTVSPost2010PropOp38
 70
     1
102
RTVSPost2010Prop39
140
1.0
102
RTVSPost2010PropOp39
 70
     1
102
RTVSPost2010Prop40
 90
        0
102
RTVSPost2010PropOp40
 70
     1
102
RTVSPost2010Prop41ColorIndex
 90
       18
102
RTVSPost2010Prop41ColorRGB
 90
        0
102
RTVSPost2010PropOp41
 70
     1
102
RTVSPost2010Prop42
 90
       50
102
RTVSPost2010PropOp42
 70
     1
102
RTVSPost2010Prop43
 90
        3
102
RTVSPost2010PropOp43
 70
     1
102
RTVSPost2010Prop44ColorIndex
 90
        5
102
RTVSPost2010Prop44ColorRGB
 90
      255
102
RTVSPost2010PropOp44
 70
     1
102
RTVSPost2010Prop45
280
     0
102
RTVSPost2010PropOp45
 70
     1
102
RTVSPost2010Prop46
 90
       50
102
RTVSPost2010PropOp46
 70
     1
102
RTVSPost2010Prop47
 90
       50
102
RTVSPost2010PropOp47
 70
     1
102
RTVSPost2010Prop48
 90
       50
102
RTVSPost2010PropOp48
 70
     1
102
RTVSPost2010Prop49
280
     0
102
RTVSPost2010PropOp49
 70
     1
102
RTVSPost2010Prop50
 90
       50
102
RTVSPost2010PropOp50
 70
     1
102
RTVSPost2010Prop51ColorIndex
 90
      256
102
RTVSPost2010Prop51ColorRGB
 90
-16777216
102
RTVSPost2010PropOp51
 70
     0
102
RTVSPost2010Prop52
140
1.0
102
RTVSPost2010PropOp52
 70
     0
102
RTVSPost2010Prop53
 90
        2
102
RTVSPost2010PropOp53
 70
     1
102
RTVSPost2010Prop54
  1
strokes_ogs.tif
102
RTVSPost2010PropOp54
 70
     1
102
RTVSPost2010Prop55
280
     0
102
RTVSPost2010PropOp55
 70
     1
102
RTVSPost2010Prop56
140
1.0
102
RTVSPost2010PropOp56
 70
     1
102
RTVSPost2010Prop57
140
1.0
102
RTVSPost2010PropOp57
 70
     1
102
RTVSPropertyOp0
 70
     1
102
RTVSPropertyOp1
 70
     1
102
RTVSPropertyOp2
 70
     1
102
RTVSPropertyOp3
 70
     1
102
RTVSPropertyOp4
 70
     1
102
RTVSPropertyOp5
 70
     1
102
RTVSPropertyOp6
 70
     1
102
RTVSPropertyOp7
 70
     1
102
RTVSPropertyOp8
 70
     1
102
RTVSPropertyOp9
 70
     1
102
RTVSPropertyOp10
 70
     1
102
RTVSPropertyOp11
 70
     1
102
RTVSPropertyOp12
 70
     1
102
RTVSPropertyOp13
 70
     1
102
RTVSPropertyOp14
 70
     1
102
RTVSPropertyOp15
 70
     1
102
RTVSPropertyOp16
 70
     1
102
RTVSPropertyOp17
 70
     1
102
RTVSPropertyOp18
 70
     1
102
RTVSPropertyOp19
 70
     1
102
RTVSPropertyOp20
 70
     1
102
RTVSPropertyOp21
 70
     1
102
RTVSPropertyOp22
 70
     1
102
RTVSPropertyOp23
 70
     1
102
RTVSPropertyOp24
 70
     1
102
RTVSPropertyOp25
 70
     1
102
RTVSPropertyOp26
 70
     1
102
RTVSPropertyOp27
 70
     1
102
RTVSPropertyOp28
 70
     1
102
RTVSPropertyOp29
 70
     1
102
RTVSPropertyOp30
 70
     1
102
RTVSPropertyOp31
 70
     1
102
RTVSPropertyOp32
 70
     1
102
RTVSPropertyOp33
 70
     1
102
RTVSPropertyOp34
 70
     1
102
RTVSPropertyOp35
 70
     1
102
RTVSPropertyOp36
 70
     1
102
RTVSPropertyOp37
 70
     1
102
RTVSPropertyOp38
 70
     1
102
RTVSPropertyOp39
 70
     1
102
RTVSPropertyOp40
 70
     1
102
RTVSPropertyOp41
 70
     1
102
RTVSPropertyOp42
 70
     1
102
RTVSPropertyOp43
 70
     1
102
RTVSPropertyOp44
 70
     1
102
RTVSPropertyOp45
 70
     1
102
RTVSPropertyOp46
 70
     1
102
RTVSPropertyOp47
 70
     1
102
RTVSPropertyOp48
 70
     1
102
RTVSPropertyOp49
 70
     1
102
RTVSPropertyOp50
 70
     1
102
RTVSPropertyOp51
 70
     0
102
RTVSPropertyOp52
 70
     0
102
RTVSPropertyOp53
 70
     1
102
RTVSPropertyOp54
 70
     1
102
RTVSPropertyOp55
 70
     1
102
RTVSPropertyOp56
 70
     1
102
RTVSPropertyOp57
 70
     1
102
RTVSPropertyOp58
 70
     1
102
RTVSPropertyOp59
 70
     1
102
RTVSPropertyOp60
 70
     1
102
RTVSPropertyOp61
 70
     1
102
RTVSPropertyOp62
 70
     1
  0
XRECORD
  5
2A8
102
{ACAD_REACTORS
330
2A7
102
}
330
2A7
100
AcDbXrecord
280
     1
102
RTVSPost2010Prop28
280
     0
102
RTVSPost2010PropOp28
 70
     1
102
RTVSPost2010Prop29
280
     1
102
RTVSPost2010PropOp29
 70
     1
102
RTVSPost2010Prop30
280
     1
102
RTVSPost2010PropOp30
 70
     1
102
RTVSPost2010Prop31
280
     0
102
RTVSPost2010PropOp31
 70
     1
102
RTVSPost2010Prop32
280
     0
102
RTVSPost2010PropOp32
 70
     1
102
RTVSPost2010Prop33
280
     0
102
RTVSPost2010PropOp33
 70
     1
102
RTVSPost2010Prop34
280
     0
102
RTVSPost2010PropOp34
 70
     1
102
RTVSPost2010Prop35
280
     0
102
RTVSPost2010PropOp35
 70
     1
102
RTVSPost2010Prop36
280
     0
102
RTVSPost2010PropOp36
 70
     1
102
RTVSPost2010Prop37
 90
       50
102
RTVSPost2010PropOp37
 70
     1
102
RTVSPost2010Prop38
140
0.0
102
RTVSPost2010PropOp38
 70
     1
102
RTVSPost2010Prop39
140
1.0
102
RTVSPost2010PropOp39
 70
     1
102
RTVSPost2010Prop40
 90
        0
102
RTVSPost2010PropOp40
 70
     1
102
RTVSPost2010Prop41ColorIndex
 90
       18
102
RTVSPost2010Prop41ColorRGB
 90
        0
102
RTVSPost2010PropOp41
 70
     1
102
RTVSPost2010Prop42
 90
       50
102
RTVSPost2010PropOp42
 70
     1
102
RTVSPost2010Prop43
 90
        3
102
RTVSPost2010PropOp43
 70
     1
102
RTVSPost2010Prop44ColorIndex
 90
        5
102
RTVSPost2010Prop44ColorRGB
 90
      255
102
RTVSPost2010PropOp44
 70
     1
102
RTVSPost2010Prop45
280
     0
102
RTVSPost2010PropOp45
 70
     1
102
RTVSPost2010Prop46
 90
       50
102
RTVSPost2010PropOp46
 70
     1
102
RTVSPost2010Prop47
 90
       50
102
RTVSPost2010PropOp47
 70
     1
102
RTVSPost2010Prop48
 90
       50
102
RTVSPost2010PropOp48
 70
     1
102
RTVSPost2010Prop49
280
     0
102
RTVSPost2010PropOp49
 70
     1
102
RTVSPost2010Prop50
 90
       50
102
RTVSPost2010PropOp50
 70
     1
102
RTVSPost2010Prop51ColorIndex
 90
      256
102
RTVSPost2010Prop51ColorRGB
 90
-16777216
102
RTVSPost2010PropOp51
 70
     0
102
RTVSPost2010Prop52
140
1.0
102
RTVSPost2010PropOp52
 70
     0
102
RTVSPost2010Prop53
 90
        2
102
RTVSPost2010PropOp53
 70
     1
102
RTVSPost2010Prop54
  1
strokes_ogs.tif
102
RTVSPost2010PropOp54
 70
     1
102
RTVSPost2010Prop55
280
     0
102
RTVSPost2010PropOp55
 70
     1
102
RTVSPost2010Prop56
140
1.0
102
RTVSPost2010PropOp56
 70
     1
102
RTVSPost2010Prop57
140
1.0
102
RTVSPost2010PropOp57
 70
     1
102
RTVSPropertyOp0
 70
     1
102
RTVSPropertyOp1
 70
     1
102
RTVSPropertyOp2
 70
     1
102
RTVSPropertyOp3
 70
     1
102
RTVSPropertyOp4
 70
     1
102
RTVSPropertyOp5
 70
     1
102
RTVSPropertyOp6
 70
     1
102
RTVSPropertyOp7
 70
     1
102
RTVSPropertyOp8
 70
     1
102
RTVSPropertyOp9
 70
     1
102
RTVSPropertyOp10
 70
     1
102
RTVSPropertyOp11
 70
     1
102
RTVSPropertyOp12
 70
     1
102
RTVSPropertyOp13
 70
     1
102
RTVSPropertyOp14
 70
     1
102
RTVSPropertyOp15
 70
     1
102
RTVSPropertyOp16
 70
     1
102
RTVSPropertyOp17
 70
     1
102
RTVSPropertyOp18
 70
     1
102
RTVSPropertyOp19
 70
     1
102
RTVSPropertyOp20
 70
     1
102
RTVSPropertyOp21
 70
     1
102
RTVSPropertyOp22
 70
     1
102
RTVSPropertyOp23
 70
     1
102
RTVSPropertyOp24
 70
     1
102
RTVSPropertyOp25
 70
     1
102
RTVSPropertyOp26
 70
     1
102
RTVSPropertyOp27
 70
     1
102
RTVSPropertyOp28
 70
     1
102
RTVSPropertyOp29
 70
     1
102
RTVSPropertyOp30
 70
     1
102
RTVSPropertyOp31
 70
     1
102
RTVSPropertyOp32
 70
     1
102
RTVSPropertyOp33
 70
     1
102
RTVSPropertyOp34
 70
     1
102
RTVSPropertyOp35
 70
     1
102
RTVSPropertyOp36
 70
     1
102
RTVSPropertyOp37
 70
     1
102
RTVSPropertyOp38
 70
     1
102
RTVSPropertyOp39
 70
     1
102
RTVSPropertyOp40
 70
     1
102
RTVSPropertyOp41
 70
     1
102
RTVSPropertyOp42
 70
     1
102
RTVSPropertyOp43
 70
     1
102
RTVSPropertyOp44
 70
     1
102
RTVSPropertyOp45
 70
     1
102
RTVSPropertyOp46
 70
     1
102
RTVSPropertyOp47
 70
     1
102
RTVSPropertyOp48
 70
     1
102
RTVSPropertyOp49
 70
     1
102
RTVSPropertyOp50
 70
     1
102
RTVSPropertyOp51
 70
     0
102
RTVSPropertyOp52
 70
     0
102
RTVSPropertyOp53
 70
     1
102
RTVSPropertyOp54
 70
     1
102
RTVSPropertyOp55
 70
     1
102
RTVSPropertyOp56
 70
     1
102
RTVSPropertyOp57
 70
     1
102
RTVSPropertyOp58
 70
     1
102
RTVSPropertyOp59
 70
     1
102
RTVSPropertyOp60
 70
     1
102
RTVSPropertyOp61
 70
     1
102
RTVSPropertyOp62
 70
     1
  0
XRECORD
  5
2B0
102
{ACAD_REACTORS
330
2AF
102
}
330
2AF
100
AcDbXrecord
280
     1
102
RTVSPost2010Prop28
280
     0
102
RTVSPost2010PropOp28
 70
     1
102
RTVSPost2010Prop29
280
     1
102
RTVSPost2010PropOp29
 70
     1
102
RTVSPost2010Prop30
280
     1
102
RTVSPost2010PropOp30
 70
     1
102
RTVSPost2010Prop31
280
     0
102
RTVSPost2010PropOp31
 70
     1
102
RTVSPost2010Prop32
280
     0
102
RTVSPost2010PropOp32
 70
     1
102
RTVSPost2010Prop33
280
     0
102
RTVSPost2010PropOp33
 70
     1
102
RTVSPost2010Prop34
280
     0
102
RTVSPost2010PropOp34
 70
     1
102
RTVSPost2010Prop35
280
     0
102
RTVSPost2010PropOp35
 70
     1
102
RTVSPost2010Prop36
280
     0
102
RTVSPost2010PropOp36
 70
     1
102
RTVSPost2010Prop37
 90
       50
102
RTVSPost2010PropOp37
 70
     1
102
RTVSPost2010Prop38
140
0.0
102
RTVSPost2010PropOp38
 70
     1
102
RTVSPost2010Prop39
140
1.0
102
RTVSPost2010PropOp39
 70
     1
102
RTVSPost2010Prop40
 90
        0
102
RTVSPost2010PropOp40
 70
     1
102
RTVSPost2010Prop41ColorIndex
 90
       18
102
RTVSPost2010Prop41ColorRGB
 90
        0
102
RTVSPost2010PropOp41
 70
     1
102
RTVSPost2010Prop42
 90
       50
102
RTVSPost2010PropOp42
 70
     1
102
RTVSPost2010Prop43
 90
        3
102
RTVSPost2010PropOp43
 70
     1
102
RTVSPost2010Prop44ColorIndex
 90
        5
102
RTVSPost2010Prop44ColorRGB
 90
      255
102
RTVSPost2010PropOp44
 70
     1
102
RTVSPost2010Prop45
280
     0
102
RTVSPost2010PropOp45
 70
     1
102
RTVSPost2010Prop46
 90
       50
102
RTVSPost2010PropOp46
 70
     1
102
RTVSPost2010Prop47
 90
       50
102
RTVSPost2010PropOp47
 70
     1
102
RTVSPost2010Prop48
 90
       50
102
RTVSPost2010PropOp48
 70
     1
102
RTVSPost2010Prop49
280
     0
102
RTVSPost2010PropOp49
 70
     1
102
RTVSPost2010Prop50
 90
       50
102
RTVSPost2010PropOp50
 70
     1
102
RTVSPost2010Prop51ColorIndex
 90
      256
102
RTVSPost2010Prop51ColorRGB
 90
-16777216
102
RTVSPost2010PropOp51
 70
     0
102
RTVSPost2010Prop52
140
1.0
102
RTVSPost2010PropOp52
 70
     0
102
RTVSPost2010Prop53
 90
        2
102
RTVSPost2010PropOp53
 70
     1
102
RTVSPost2010Prop54
  1
strokes_ogs.tif
102
RTVSPost2010PropOp54
 70
     1
102
RTVSPost2010Prop55
280
     0
102
RTVSPost2010PropOp55
 70
     1
102
RTVSPost2010Prop56
140
1.0
102
RTVSPost2010PropOp56
 70
     1
102
RTVSPost2010Prop57
140
1.0
102
RTVSPost2010PropOp57
 70
     1
102
RTVSPropertyOp0
 70
     1
102
RTVSPropertyOp1
 70
     1
102
RTVSPropertyOp2
 70
     1
102
RTVSPropertyOp3
 70
     1
102
RTVSPropertyOp4
 70
     1
102
RTVSPropertyOp5
 70
     1
102
RTVSPropertyOp6
 70
     1
102
RTVSPropertyOp7
 70
     1
102
RTVSPropertyOp8
 70
     1
102
RTVSPropertyOp9
 70
     1
102
RTVSPropertyOp10
 70
     1
102
RTVSPropertyOp11
 70
     1
102
RTVSPropertyOp12
 70
     1
102
RTVSPropertyOp13
 70
     1
102
RTVSPropertyOp14
 70
     1
102
RTVSPropertyOp15
 70
     1
102
RTVSPropertyOp16
 70
     1
102
RTVSPropertyOp17
 70
     1
102
RTVSPropertyOp18
 70
     1
102
RTVSPropertyOp19
 70
     1
102
RTVSPropertyOp20
 70
     1
102
RTVSPropertyOp21
 70
     1
102
RTVSPropertyOp22
 70
     1
102
RTVSPropertyOp23
 70
     1
102
RTVSPropertyOp24
 70
     1
102
RTVSPropertyOp25
 70
     1
102
RTVSPropertyOp26
 70
     1
102
RTVSPropertyOp27
 70
     1
102
RTVSPropertyOp28
 70
     1
102
RTVSPropertyOp29
 70
     1
102
RTVSPropertyOp30
 70
     1
102
RTVSPropertyOp31
 70
     1
102
RTVSPropertyOp32
 70
     1
102
RTVSPropertyOp33
 70
     1
102
RTVSPropertyOp34
 70
     1
102
RTVSPropertyOp35
 70
     1
102
RTVSPropertyOp36
 70
     1
102
RTVSPropertyOp37
 70
     1
102
RTVSPropertyOp38
 70
     1
102
RTVSPropertyOp39
 70
     1
102
RTVSPropertyOp40
 70
     1
102
RTVSPropertyOp41
 70
     1
102
RTVSPropertyOp42
 70
     1
102
RTVSPropertyOp43
 70
     1
102
RTVSPropertyOp44
 70
     1
102
RTVSPropertyOp45
 70
     1
102
RTVSPropertyOp46
 70
     1
102
RTVSPropertyOp47
 70
     1
102
RTVSPropertyOp48
 70
     1
102
RTVSPropertyOp49
 70
     1
102
RTVSPropertyOp50
 70
     1
102
RTVSPropertyOp51
 70
     0
102
RTVSPropertyOp52
 70
     0
102
RTVSPropertyOp53
 70
     1
102
RTVSPropertyOp54
 70
     1
102
RTVSPropertyOp55
 70
     1
102
RTVSPropertyOp56
 70
     1
102
RTVSPropertyOp57
 70
     1
102
RTVSPropertyOp58
 70
     1
102
RTVSPropertyOp59
 70
     1
102
RTVSPropertyOp60
 70
     1
102
RTVSPropertyOp61
 70
     1
102
RTVSPropertyOp62
 70
     1
  0
XRECORD
  5
2CC
102
{ACAD_REACTORS
330
2CB
102
}
330
2CB
100
AcDbXrecord
280
     1
102
RTVSPost2010Prop28
280
     0
102
RTVSPost2010PropOp28
 70
     1
102
RTVSPost2010Prop29
280
     1
102
RTVSPost2010PropOp29
 70
     1
102
RTVSPost2010Prop30
280
     1
102
RTVSPost2010PropOp30
 70
     1
102
RTVSPost2010Prop31
280
     0
102
RTVSPost2010PropOp31
 70
     1
102
RTVSPost2010Prop32
280
     0
102
RTVSPost2010PropOp32
 70
     1
102
RTVSPost2010Prop33
280
     0
102
RTVSPost2010PropOp33
 70
     1
102
RTVSPost2010Prop34
280
     0
102
RTVSPost2010PropOp34
 70
     1
102
RTVSPost2010Prop35
280
     0
102
RTVSPost2010PropOp35
 70
     1
102
RTVSPost2010Prop36
280
     0
102
RTVSPost2010PropOp36
 70
     1
102
RTVSPost2010Prop37
 90
       50
102
RTVSPost2010PropOp37
 70
     0
102
RTVSPost2010Prop38
140
0.0
102
RTVSPost2010PropOp38
 70
     0
102
RTVSPost2010Prop39
140
1.0
102
RTVSPost2010PropOp39
 70
     0
102
RTVSPost2010Prop40
 90
        0
102
RTVSPost2010PropOp40
 70
     0
102
RTVSPost2010Prop41ColorIndex
 90
       18
102
RTVSPost2010Prop41ColorRGB
 90
        0
102
RTVSPost2010PropOp41
 70
     0
102
RTVSPost2010Prop42
 90
       50
102
RTVSPost2010PropOp42
 70
     0
102
RTVSPost2010Prop43
 90
        3
102
RTVSPost2010PropOp43
 70
     0
102
RTVSPost2010Prop44ColorIndex
 90
        5
102
RTVSPost2010Prop44ColorRGB
 90
      255
102
RTVSPost2010PropOp44
 70
     0
102
RTVSPost2010Prop45
280
     0
102
RTVSPost2010PropOp45
 70
     1
102
RTVSPost2010Prop46
 90
       50
102
RTVSPost2010PropOp46
 70
     0
102
RTVSPost2010Prop47
 90
       50
102
RTVSPost2010PropOp47
 70
     0
102
RTVSPost2010Prop48
 90
       50
102
RTVSPost2010PropOp48
 70
     0
102
RTVSPost2010Prop49
280
     0
102
RTVSPost2010PropOp49
 70
     1
102
RTVSPost2010Prop50
 90
       50
102
RTVSPost2010PropOp50
 70
     0
102
RTVSPost2010Prop51ColorIndex
 90
      256
102
RTVSPost2010Prop51ColorRGB
 90
-16777216
102
RTVSPost2010PropOp51
 70
     0
102
RTVSPost2010Prop52
140
1.0
102
RTVSPost2010PropOp52
 70
     0
102
RTVSPost2010Prop53
 90
        2
102
RTVSPost2010PropOp53
 70
     0
102
RTVSPost2010Prop54
  1
strokes_ogs.tif
102
RTVSPost2010PropOp54
 70
     0
102
RTVSPost2010Prop55
280
     0
102
RTVSPost2010PropOp55
 70
     1
102
RTVSPost2010Prop56
140
1.0
102
RTVSPost2010PropOp56
 70
     0
102
RTVSPost2010Prop57
140
1.0
102
RTVSPost2010PropOp57
 70
     0
102
RTVSPropertyOp0
 70
     0
102
RTVSPropertyOp1
 70
     0
102
RTVSPropertyOp2
 70
     0
102
RTVSPropertyOp3
 70
     0
102
RTVSPropertyOp4
 70
     0
102
RTVSPropertyOp5
 70
     0
102
RTVSPropertyOp6
 70
     0
102
RTVSPropertyOp7
 70
     0
102
RTVSPropertyOp8
 70
     0
102
RTVSPropertyOp9
 70
     0
102
RTVSPropertyOp10
 70
     0
102
RTVSPropertyOp11
 70
     0
102
RTVSPropertyOp12
 70
     0
102
RTVSPropertyOp13
 70
     0
102
RTVSPropertyOp14
 70
     2
102
RTVSPropertyOp15
 70
     0
102
RTVSPropertyOp16
 70
     0
102
RTVSPropertyOp17
 70
     0
102
RTVSPropertyOp18
 70
     0
102
RTVSPropertyOp19
 70
     0
102
RTVSPropertyOp20
 70
     0
102
RTVSPropertyOp21
 70
     0
102
RTVSPropertyOp22
 70
     0
102
RTVSPropertyOp23
 70
     0
102
RTVSPropertyOp24
 70
     0
102
RTVSPropertyOp25
 70
     0
102
RTVSPropertyOp26
 70
     0
102
RTVSPropertyOp27
 70
     0
102
RTVSPropertyOp28
 70
     1
102
RTVSPropertyOp29
 70
     1
102
RTVSPropertyOp30
 70
     1
102
RTVSPropertyOp31
 70
     1
102
RTVSPropertyOp32
 70
     1
102
RTVSPropertyOp33
 70
     1
102
RTVSPropertyOp34
 70
     1
102
RTVSPropertyOp35
 70
     1
102
RTVSPropertyOp36
 70
     1
102
RTVSPropertyOp37
 70
     0
102
RTVSPropertyOp38
 70
     0
102
RTVSPropertyOp39
 70
     0
102
RTVSPropertyOp40
 70
     0
102
RTVSPropertyOp41
 70
     0
102
RTVSPropertyOp42
 70
     0
102
RTVSPropertyOp43
 70
     0
102
RTVSPropertyOp44
 70
     0
102
RTVSPropertyOp45
 70
     1
102
RTVSPropertyOp46
 70
     0
102
RTVSPropertyOp47
 70
     0
102
RTVSPropertyOp48
 70
     0
102
RTVSPropertyOp49
 70
     1
102
RTVSPropertyOp50
 70
     0
102
RTVSPropertyOp51
 70
     0
102
RTVSPropertyOp52
 70
     0
102
RTVSPropertyOp53
 70
     0
102
RTVSPropertyOp54
 70
     0
102
RTVSPropertyOp55
 70
     1
102
RTVSPropertyOp56
 70
     0
102
RTVSPropertyOp57
 70
     0
102
RTVSPropertyOp58
 70
     0
102
RTVSPropertyOp59
 70
     0
102
RTVSPropertyOp60
 70
     0
102
RTVSPropertyOp61
 70
     0
102
RTVSPropertyOp62
 70
     0
  0
XRECORD
  5
2BC
102
{ACAD_REACTORS
330
2BB
102
}
330
2BB
100
AcDbXrecord
280
     1
102
RTVSPost2010Prop28
280
     0
102
RTVSPost2010PropOp28
 70
     1
102
RTVSPost2010Prop29
280
     1
102
RTVSPost2010PropOp29
 70
     1
102
RTVSPost2010Prop30
280
     1
102
RTVSPost2010PropOp30
 70
     1
102
RTVSPost2010Prop31
280
     0
102
RTVSPost2010PropOp31
 70
     1
102
RTVSPost2010Prop32
280
     0
102
RTVSPost2010PropOp32
 70
     1
102
RTVSPost2010Prop33
280
     0
102
RTVSPost2010PropOp33
 70
     1
102
RTVSPost2010Prop34
280
     0
102
RTVSPost2010PropOp34
 70
     1
102
RTVSPost2010Prop35
280
     0
102
RTVSPost2010PropOp35
 70
     1
102
RTVSPost2010Prop36
280
     0
102
RTVSPost2010PropOp36
 70
     1
102
RTVSPost2010Prop37
 90
       50
102
RTVSPost2010PropOp37
 70
     1
102
RTVSPost2010Prop38
140
0.0
102
RTVSPost2010PropOp38
 70
     1
102
RTVSPost2010Prop39
140
1.0
102
RTVSPost2010PropOp39
 70
     1
102
RTVSPost2010Prop40
 90
        0
102
RTVSPost2010PropOp40
 70
     1
102
RTVSPost2010Prop41ColorIndex
 90
       18
102
RTVSPost2010Prop41ColorRGB
 90
        0
102
RTVSPost2010PropOp41
 70
     1
102
RTVSPost2010Prop42
 90
       50
102
RTVSPost2010PropOp42
 70
     1
102
RTVSPost2010Prop43
 90
        3
102
RTVSPost2010PropOp43
 70
     1
102
RTVSPost2010Prop44ColorIndex
 90
        5
102
RTVSPost2010Prop44ColorRGB
 90
      255
102
RTVSPost2010PropOp44
 70
     1
102
RTVSPost2010Prop45
280
     0
102
RTVSPost2010PropOp45
 70
     1
102
RTVSPost2010Prop46
 90
       50
102
RTVSPost2010PropOp46
 70
     1
102
RTVSPost2010Prop47
 90
       50
102
RTVSPost2010PropOp47
 70
     1
102
RTVSPost2010Prop48
 90
       50
102
RTVSPost2010PropOp48
 70
     1
102
RTVSPost2010Prop49
280
     0
102
RTVSPost2010PropOp49
 70
     1
102
RTVSPost2010Prop50
 90
       50
102
RTVSPost2010PropOp50
 70
     1
102
RTVSPost2010Prop51ColorIndex
 90
      256
102
RTVSPost2010Prop51ColorRGB
 90
-16777216
102
RTVSPost2010PropOp51
 70
     0
102
RTVSPost2010Prop52
140
1.0
102
RTVSPost2010PropOp52
 70
     0
102
RTVSPost2010Prop53
 90
        2
102
RTVSPost2010PropOp53
 70
     1
102
RTVSPost2010Prop54
  1
strokes_ogs.tif
102
RTVSPost2010PropOp54
 70
     1
102
RTVSPost2010Prop55
280
     0
102
RTVSPost2010PropOp55
 70
     1
102
RTVSPost2010Prop56
140
1.0
102
RTVSPost2010PropOp56
 70
     1
102
RTVSPost2010Prop57
140
1.0
102
RTVSPost2010PropOp57
 70
     1
102
RTVSPropertyOp0
 70
     1
102
RTVSPropertyOp1
 70
     1
102
RTVSPropertyOp2
 70
     1
102
RTVSPropertyOp3
 70
     1
102
RTVSPropertyOp4
 70
     1
102
RTVSPropertyOp5
 70
     1
102
RTVSPropertyOp6
 70
     1
102
RTVSPropertyOp7
 70
     1
102
RTVSPropertyOp8
 70
     1
102
RTVSPropertyOp9
 70
     1
102
RTVSPropertyOp10
 70
     1
102
RTVSPropertyOp11
 70
     1
102
RTVSPropertyOp12
 70
     1
102
RTVSPropertyOp13
 70
     1
102
RTVSPropertyOp14
 70
     1
102
RTVSPropertyOp15
 70
     1
102
RTVSPropertyOp16
 70
     1
102
RTVSPropertyOp17
 70
     1
102
RTVSPropertyOp18
 70
     1
102
RTVSPropertyOp19
 70
     1
102
RTVSPropertyOp20
 70
     1
102
RTVSPropertyOp21
 70
     1
102
RTVSPropertyOp22
 70
     1
102
RTVSPropertyOp23
 70
     1
102
RTVSPropertyOp24
 70
     1
102
RTVSPropertyOp25
 70
     1
102
RTVSPropertyOp26
 70
     1
102
RTVSPropertyOp27
 70
     1
102
RTVSPropertyOp28
 70
     1
102
RTVSPropertyOp29
 70
     1
102
RTVSPropertyOp30
 70
     1
102
RTVSPropertyOp31
 70
     1
102
RTVSPropertyOp32
 70
     1
102
RTVSPropertyOp33
 70
     1
102
RTVSPropertyOp34
 70
     1
102
RTVSPropertyOp35
 70
     1
102
RTVSPropertyOp36
 70
     1
102
RTVSPropertyOp37
 70
     1
102
RTVSPropertyOp38
 70
     1
102
RTVSPropertyOp39
 70
     1
102
RTVSPropertyOp40
 70
     1
102
RTVSPropertyOp41
 70
     1
102
RTVSPropertyOp42
 70
     1
102
RTVSPropertyOp43
 70
     1
102
RTVSPropertyOp44
 70
     1
102
RTVSPropertyOp45
 70
     1
102
RTVSPropertyOp46
 70
     1
102
RTVSPropertyOp47
 70
     1
102
RTVSPropertyOp48
 70
     1
102
RTVSPropertyOp49
 70
     1
102
RTVSPropertyOp50
 70
     1
102
RTVSPropertyOp51
 70
     0
102
RTVSPropertyOp52
 70
     0
102
RTVSPropertyOp53
 70
     1
102
RTVSPropertyOp54
 70
     1
102
RTVSPropertyOp55
 70
     1
102
RTVSPropertyOp56
 70
     1
102
RTVSPropertyOp57
 70
     1
102
RTVSPropertyOp58
 70
     1
102
RTVSPropertyOp59
 70
     1
102
RTVSPropertyOp60
 70
     1
102
RTVSPropertyOp61
 70
     1
102
RTVSPropertyOp62
 70
     1
  0
XRECORD
  5
2CE
102
{ACAD_REACTORS
330
2CD
102
}
330
2CD
100
AcDbXrecord
280
     1
102
RTVSPost2010Prop28
280
     0
102
RTVSPost2010PropOp28
 70
     1
102
RTVSPost2010Prop29
280
     1
102
RTVSPost2010PropOp29
 70
     1
102
RTVSPost2010Prop30
280
     1
102
RTVSPost2010PropOp30
 70
     1
102
RTVSPost2010Prop31
280
     0
102
RTVSPost2010PropOp31
 70
     1
102
RTVSPost2010Prop32
280
     0
102
RTVSPost2010PropOp32
 70
     1
102
RTVSPost2010Prop33
280
     0
102
RTVSPost2010PropOp33
 70
     1
102
RTVSPost2010Prop34
280
     0
102
RTVSPost2010PropOp34
 70
     1
102
RTVSPost2010Prop35
280
     0
102
RTVSPost2010PropOp35
 70
     1
102
RTVSPost2010Prop36
280
     0
102
RTVSPost2010PropOp36
 70
     1
102
RTVSPost2010Prop37
 90
       50
102
RTVSPost2010PropOp37
 70
     0
102
RTVSPost2010Prop38
140
0.0
102
RTVSPost2010PropOp38
 70
     0
102
RTVSPost2010Prop39
140
1.0
102
RTVSPost2010PropOp39
 70
     0
102
RTVSPost2010Prop40
 90
        0
102
RTVSPost2010PropOp40
 70
     0
102
RTVSPost2010Prop41ColorIndex
 90
       18
102
RTVSPost2010Prop41ColorRGB
 90
        0
102
RTVSPost2010PropOp41
 70
     0
102
RTVSPost2010Prop42
 90
       50
102
RTVSPost2010PropOp42
 70
     0
102
RTVSPost2010Prop43
 90
        3
102
RTVSPost2010PropOp43
 70
     0
102
RTVSPost2010Prop44ColorIndex
 90
        5
102
RTVSPost2010Prop44ColorRGB
 90
      255
102
RTVSPost2010PropOp44
 70
     0
102
RTVSPost2010Prop45
280
     0
102
RTVSPost2010PropOp45
 70
     1
102
RTVSPost2010Prop46
 90
       50
102
RTVSPost2010PropOp46
 70
     0
102
RTVSPost2010Prop47
 90
       50
102
RTVSPost2010PropOp47
 70
     0
102
RTVSPost2010Prop48
 90
       50
102
RTVSPost2010PropOp48
 70
     0
102
RTVSPost2010Prop49
280
     0
102
RTVSPost2010PropOp49
 70
     1
102
RTVSPost2010Prop50
 90
       50
102
RTVSPost2010PropOp50
 70
     0
102
RTVSPost2010Prop51ColorIndex
 90
      256
102
RTVSPost2010Prop51ColorRGB
 90
-16777216
102
RTVSPost2010PropOp51
 70
     0
102
RTVSPost2010Prop52
140
1.0
102
RTVSPost2010PropOp52
 70
     0
102
RTVSPost2010Prop53
 90
        2
102
RTVSPost2010PropOp53
 70
     0
102
RTVSPost2010Prop54
  1
strokes_ogs.tif
102
RTVSPost2010PropOp54
 70
     0
102
RTVSPost2010Prop55
280
     0
102
RTVSPost2010PropOp55
 70
     1
102
RTVSPost2010Prop56
140
1.0
102
RTVSPost2010PropOp56
 70
     0
102
RTVSPost2010Prop57
140
1.0
102
RTVSPost2010PropOp57
 70
     0
102
RTVSPropertyOp0
 70
     0
102
RTVSPropertyOp1
 70
     0
102
RTVSPropertyOp2
 70
     0
102
RTVSPropertyOp3
 70
     0
102
RTVSPropertyOp4
 70
     0
102
RTVSPropertyOp5
 70
     0
102
RTVSPropertyOp6
 70
     0
102
RTVSPropertyOp7
 70
     0
102
RTVSPropertyOp8
 70
     0
102
RTVSPropertyOp9
 70
     0
102
RTVSPropertyOp10
 70
     0
102
RTVSPropertyOp11
 70
     0
102
RTVSPropertyOp12
 70
     0
102
RTVSPropertyOp13
 70
     0
102
RTVSPropertyOp14
 70
     2
102
RTVSPropertyOp15
 70
     0
102
RTVSPropertyOp16
 70
     0
102
RTVSPropertyOp17
 70
     0
102
RTVSPropertyOp18
 70
     0
102
RTVSPropertyOp19
 70
     0
102
RTVSPropertyOp20
 70
     0
102
RTVSPropertyOp21
 70
     0
102
RTVSPropertyOp22
 70
     0
102
RTVSPropertyOp23
 70
     0
102
RTVSPropertyOp24
 70
     0
102
RTVSPropertyOp25
 70
     0
102
RTVSPropertyOp26
 70
     0
102
RTVSPropertyOp27
 70
     0
102
RTVSPropertyOp28
 70
     1
102
RTVSPropertyOp29
 70
     1
102
RTVSPropertyOp30
 70
     1
102
RTVSPropertyOp31
 70
     1
102
RTVSPropertyOp32
 70
     1
102
RTVSPropertyOp33
 70
     1
102
RTVSPropertyOp34
 70
     1
102
RTVSPropertyOp35
 70
     1
102
RTVSPropertyOp36
 70
     1
102
RTVSPropertyOp37
 70
     0
102
RTVSPropertyOp38
 70
     0
102
RTVSPropertyOp39
 70
     0
102
RTVSPropertyOp40
 70
     0
102
RTVSPropertyOp41
 70
     0
102
RTVSPropertyOp42
 70
     0
102
RTVSPropertyOp43
 70
     0
102
RTVSPropertyOp44
 70
     0
102
RTVSPropertyOp45
 70
     1
102
RTVSPropertyOp46
 70
     0
102
RTVSPropertyOp47
 70
     0
102
RTVSPropertyOp48
 70
     0
102
RTVSPropertyOp49
 70
     1
102
RTVSPropertyOp50
 70
     0
102
RTVSPropertyOp51
 70
     0
102
RTVSPropertyOp52
 70
     0
102
RTVSPropertyOp53
 70
     0
102
RTVSPropertyOp54
 70
     0
102
RTVSPropertyOp55
 70
     1
102
RTVSPropertyOp56
 70
     0
102
RTVSPropertyOp57
 70
     0
102
RTVSPropertyOp58
 70
     0
102
RTVSPropertyOp59
 70
     0
102
RTVSPropertyOp60
 70
     0
102
RTVSPropertyOp61
 70
     0
102
RTVSPropertyOp62
 70
     0
  0
XRECORD
  5
2B4
102
{ACAD_REACTORS
330
2B3
102
}
330
2B3
100
AcDbXrecord
280
     1
102
RTVSPost2010Prop28
280
     0
102
RTVSPost2010PropOp28
 70
     1
102
RTVSPost2010Prop29
280
     1
102
RTVSPost2010PropOp29
 70
     1
102
RTVSPost2010Prop30
280
     1
102
RTVSPost2010PropOp30
 70
     1
102
RTVSPost2010Prop31
280
     0
102
RTVSPost2010PropOp31
 70
     1
102
RTVSPost2010Prop32
280
     0
102
RTVSPost2010PropOp32
 70
     1
102
RTVSPost2010Prop33
280
     0
102
RTVSPost2010PropOp33
 70
     1
102
RTVSPost2010Prop34
280
     0
102
RTVSPost2010PropOp34
 70
     1
102
RTVSPost2010Prop35
280
     0
102
RTVSPost2010PropOp35
 70
     1
102
RTVSPost2010Prop36
280
     0
102
RTVSPost2010PropOp36
 70
     1
102
RTVSPost2010Prop37
 90
       50
102
RTVSPost2010PropOp37
 70
     1
102
RTVSPost2010Prop38
140
0.0
102
RTVSPost2010PropOp38
 70
     1
102
RTVSPost2010Prop39
140
1.0
102
RTVSPost2010PropOp39
 70
     1
102
RTVSPost2010Prop40
 90
        0
102
RTVSPost2010PropOp40
 70
     1
102
RTVSPost2010Prop41ColorIndex
 90
       18
102
RTVSPost2010Prop41ColorRGB
 90
        0
102
RTVSPost2010PropOp41
 70
     1
102
RTVSPost2010Prop42
 90
       50
102
RTVSPost2010PropOp42
 70
     1
102
RTVSPost2010Prop43
 90
        3
102
RTVSPost2010PropOp43
 70
     1
102
RTVSPost2010Prop44ColorIndex
 90
        5
102
RTVSPost2010Prop44ColorRGB
 90
      255
102
RTVSPost2010PropOp44
 70
     1
102
RTVSPost2010Prop45
280
     0
102
RTVSPost2010PropOp45
 70
     1
102
RTVSPost2010Prop46
 90
       50
102
RTVSPost2010PropOp46
 70
     1
102
RTVSPost2010Prop47
 90
       50
102
RTVSPost2010PropOp47
 70
     1
102
RTVSPost2010Prop48
 90
       50
102
RTVSPost2010PropOp48
 70
     1
102
RTVSPost2010Prop49
280
     0
102
RTVSPost2010PropOp49
 70
     1
102
RTVSPost2010Prop50
 90
       50
102
RTVSPost2010PropOp50
 70
     1
102
RTVSPost2010Prop51ColorIndex
 90
      256
102
RTVSPost2010Prop51ColorRGB
 90
-16777216
102
RTVSPost2010PropOp51
 70
     0
102
RTVSPost2010Prop52
140
1.0
102
RTVSPost2010PropOp52
 70
     0
102
RTVSPost2010Prop53
 90
        2
102
RTVSPost2010PropOp53
 70
     1
102
RTVSPost2010Prop54
  1
strokes_ogs.tif
102
RTVSPost2010PropOp54
 70
     1
102
RTVSPost2010Prop55
280
     0
102
RTVSPost2010PropOp55
 70
     1
102
RTVSPost2010Prop56
140
1.0
102
RTVSPost2010PropOp56
 70
     1
102
RTVSPost2010Prop57
140
1.0
102
RTVSPost2010PropOp57
 70
     1
102
RTVSPropertyOp0
 70
     1
102
RTVSPropertyOp1
 70
     1
102
RTVSPropertyOp2
 70
     1
102
RTVSPropertyOp3
 70
     1
102
RTVSPropertyOp4
 70
     1
102
RTVSPropertyOp5
 70
     1
102
RTVSPropertyOp6
 70
     1
102
RTVSPropertyOp7
 70
     1
102
RTVSPropertyOp8
 70
     1
102
RTVSPropertyOp9
 70
     1
102
RTVSPropertyOp10
 70
     1
102
RTVSPropertyOp11
 70
     1
102
RTVSPropertyOp12
 70
     1
102
RTVSPropertyOp13
 70
     1
102
RTVSPropertyOp14
 70
     1
102
RTVSPropertyOp15
 70
     1
102
RTVSPropertyOp16
 70
     1
102
RTVSPropertyOp17
 70
     1
102
RTVSPropertyOp18
 70
     1
102
RTVSPropertyOp19
 70
     1
102
RTVSPropertyOp20
 70
     1
102
RTVSPropertyOp21
 70
     1
102
RTVSPropertyOp22
 70
     1
102
RTVSPropertyOp23
 70
     1
102
RTVSPropertyOp24
 70
     1
102
RTVSPropertyOp25
 70
     1
102
RTVSPropertyOp26
 70
     1
102
RTVSPropertyOp27
 70
     1
102
RTVSPropertyOp28
 70
     1
102
RTVSPropertyOp29
 70
     1
102
RTVSPropertyOp30
 70
     1
102
RTVSPropertyOp31
 70
     1
102
RTVSPropertyOp32
 70
     1
102
RTVSPropertyOp33
 70
     1
102
RTVSPropertyOp34
 70
     1
102
RTVSPropertyOp35
 70
     1
102
RTVSPropertyOp36
 70
     1
102
RTVSPropertyOp37
 70
     1
102
RTVSPropertyOp38
 70
     1
102
RTVSPropertyOp39
 70
     1
102
RTVSPropertyOp40
 70
     1
102
RTVSPropertyOp41
 70
     1
102
RTVSPropertyOp42
 70
     1
102
RTVSPropertyOp43
 70
     1
102
RTVSPropertyOp44
 70
     1
102
RTVSPropertyOp45
 70
     1
102
RTVSPropertyOp46
 70
     1
102
RTVSPropertyOp47
 70
     1
102
RTVSPropertyOp48
 70
     1
102
RTVSPropertyOp49
 70
     1
102
RTVSPropertyOp50
 70
     1
102
RTVSPropertyOp51
 70
     0
102
RTVSPropertyOp52
 70
     0
102
RTVSPropertyOp53
 70
     1
102
RTVSPropertyOp54
 70
     1
102
RTVSPropertyOp55
 70
     1
102
RTVSPropertyOp56
 70
     1
102
RTVSPropertyOp57
 70
     1
102
RTVSPropertyOp58
 70
     1
102
RTVSPropertyOp59
 70
     1
102
RTVSPropertyOp60
 70
     1
102
RTVSPropertyOp61
 70
     1
102
RTVSPropertyOp62
 70
     1
  0
XRECORD
  5
2CA
102
{ACAD_REACTORS
330
2C9
102
}
330
2C9
100
AcDbXrecord
280
     1
102
RTVSPost2010Prop28
280
     0
102
RTVSPost2010PropOp28
 70
     1
102
RTVSPost2010Prop29
280
     1
102
RTVSPost2010PropOp29
 70
     1
102
RTVSPost2010Prop30
280
     1
102
RTVSPost2010PropOp30
 70
     1
102
RTVSPost2010Prop31
280
     0
102
RTVSPost2010PropOp31
 70
     1
102
RTVSPost2010Prop32
280
     0
102
RTVSPost2010PropOp32
 70
     1
102
RTVSPost2010Prop33
280
     0
102
RTVSPost2010PropOp33
 70
     1
102
RTVSPost2010Prop34
280
     0
102
RTVSPost2010PropOp34
 70
     1
102
RTVSPost2010Prop35
280
     0
102
RTVSPost2010PropOp35
 70
     1
102
RTVSPost2010Prop36
280
     0
102
RTVSPost2010PropOp36
 70
     1
102
RTVSPost2010Prop37
 90
       50
102
RTVSPost2010PropOp37
 70
     1
102
RTVSPost2010Prop38
140
0.0
102
RTVSPost2010PropOp38
 70
     1
102
RTVSPost2010Prop39
140
1.0
102
RTVSPost2010PropOp39
 70
     1
102
RTVSPost2010Prop40
 90
        0
102
RTVSPost2010PropOp40
 70
     1
102
RTVSPost2010Prop41ColorIndex
 90
       18
102
RTVSPost2010Prop41ColorRGB
 90
        0
102
RTVSPost2010PropOp41
 70
     1
102
RTVSPost2010Prop42
 90
       50
102
RTVSPost2010PropOp42
 70
     1
102
RTVSPost2010Prop43
 90
        3
102
RTVSPost2010PropOp43
 70
     1
102
RTVSPost2010Prop44ColorIndex
 90
        5
102
RTVSPost2010Prop44ColorRGB
 90
      255
102
RTVSPost2010PropOp44
 70
     1
102
RTVSPost2010Prop45
280
     0
102
RTVSPost2010PropOp45
 70
     1
102
RTVSPost2010Prop46
 90
       50
102
RTVSPost2010PropOp46
 70
     1
102
RTVSPost2010Prop47
 90
       50
102
RTVSPost2010PropOp47
 70
     1
102
RTVSPost2010Prop48
 90
       50
102
RTVSPost2010PropOp48
 70
     1
102
RTVSPost2010Prop49
280
     0
102
RTVSPost2010PropOp49
 70
     1
102
RTVSPost2010Prop50
 90
       50
102
RTVSPost2010PropOp50
 70
     1
102
RTVSPost2010Prop51ColorIndex
 90
      256
102
RTVSPost2010Prop51ColorRGB
 90
-16777216
102
RTVSPost2010PropOp51
 70
     0
102
RTVSPost2010Prop52
140
1.0
102
RTVSPost2010PropOp52
 70
     0
102
RTVSPost2010Prop53
 90
        2
102
RTVSPost2010PropOp53
 70
     1
102
RTVSPost2010Prop54
  1
strokes_ogs.tif
102
RTVSPost2010PropOp54
 70
     1
102
RTVSPost2010Prop55
280
     0
102
RTVSPost2010PropOp55
 70
     1
102
RTVSPost2010Prop56
140
1.0
102
RTVSPost2010PropOp56
 70
     1
102
RTVSPost2010Prop57
140
1.0
102
RTVSPost2010PropOp57
 70
     1
102
RTVSPropertyOp0
 70
     1
102
RTVSPropertyOp1
 70
     1
102
RTVSPropertyOp2
 70
     1
102
RTVSPropertyOp3
 70
     1
102
RTVSPropertyOp4
 70
     1
102
RTVSPropertyOp5
 70
     1
102
RTVSPropertyOp6
 70
     1
102
RTVSPropertyOp7
 70
     1
102
RTVSPropertyOp8
 70
     1
102
RTVSPropertyOp9
 70
     1
102
RTVSPropertyOp10
 70
     1
102
RTVSPropertyOp11
 70
     1
102
RTVSPropertyOp12
 70
     1
102
RTVSPropertyOp13
 70
     1
102
RTVSPropertyOp14
 70
     1
102
RTVSPropertyOp15
 70
     1
102
RTVSPropertyOp16
 70
     1
102
RTVSPropertyOp17
 70
     1
102
RTVSPropertyOp18
 70
     1
102
RTVSPropertyOp19
 70
     1
102
RTVSPropertyOp20
 70
     1
102
RTVSPropertyOp21
 70
     1
102
RTVSPropertyOp22
 70
     1
102
RTVSPropertyOp23
 70
     1
102
RTVSPropertyOp24
 70
     1
102
RTVSPropertyOp25
 70
     1
102
RTVSPropertyOp26
 70
     1
102
RTVSPropertyOp27
 70
     1
102
RTVSPropertyOp28
 70
     1
102
RTVSPropertyOp29
 70
     1
102
RTVSPropertyOp30
 70
     1
102
RTVSPropertyOp31
 70
     1
102
RTVSPropertyOp32
 70
     1
102
RTVSPropertyOp33
 70
     1
102
RTVSPropertyOp34
 70
     1
102
RTVSPropertyOp35
 70
     1
102
RTVSPropertyOp36
 70
     1
102
RTVSPropertyOp37
 70
     1
102
RTVSPropertyOp38
 70
     1
102
RTVSPropertyOp39
 70
     1
102
RTVSPropertyOp40
 70
     1
102
RTVSPropertyOp41
 70
     1
102
RTVSPropertyOp42
 70
     1
102
RTVSPropertyOp43
 70
     1
102
RTVSPropertyOp44
 70
     1
102
RTVSPropertyOp45
 70
     1
102
RTVSPropertyOp46
 70
     1
102
RTVSPropertyOp47
 70
     1
102
RTVSPropertyOp48
 70
     1
102
RTVSPropertyOp49
 70
     1
102
RTVSPropertyOp50
 70
     1
102
RTVSPropertyOp51
 70
     0
102
RTVSPropertyOp52
 70
     0
102
RTVSPropertyOp53
 70
     1
102
RTVSPropertyOp54
 70
     1
102
RTVSPropertyOp55
 70
     1
102
RTVSPropertyOp56
 70
     1
102
RTVSPropertyOp57
 70
     1
102
RTVSPropertyOp58
 70
     1
102
RTVSPropertyOp59
 70
     1
102
RTVSPropertyOp60
 70
     1
102
RTVSPropertyOp61
 70
     1
102
RTVSPropertyOp62
 70
     1
  0
XRECORD
  5
2C8
102
{ACAD_REACTORS
330
2C7
102
}
330
2C7
100
AcDbXrecord
280
     1
102
RTVSPost2010Prop28
280
     0
102
RTVSPost2010PropOp28
 70
     1
102
RTVSPost2010Prop29
280
     1
102
RTVSPost2010PropOp29
 70
     1
102
RTVSPost2010Prop30
280
     1
102
RTVSPost2010PropOp30
 70
     1
102
RTVSPost2010Prop31
280
     0
102
RTVSPost2010PropOp31
 70
     1
102
RTVSPost2010Prop32
280
     0
102
RTVSPost2010PropOp32
 70
     1
102
RTVSPost2010Prop33
280
     0
102
RTVSPost2010PropOp33
 70
     1
102
RTVSPost2010Prop34
280
     0
102
RTVSPost2010PropOp34
 70
     1
102
RTVSPost2010Prop35
280
     0
102
RTVSPost2010PropOp35
 70
     1
102
RTVSPost2010Prop36
280
     0
102
RTVSPost2010PropOp36
 70
     1
102
RTVSPost2010Prop37
 90
       50
102
RTVSPost2010PropOp37
 70
     1
102
RTVSPost2010Prop38
140
0.0
102
RTVSPost2010PropOp38
 70
     1
102
RTVSPost2010Prop39
140
1.0
102
RTVSPost2010PropOp39
 70
     1
102
RTVSPost2010Prop40
 90
        0
102
RTVSPost2010PropOp40
 70
     1
102
RTVSPost2010Prop41ColorIndex
 90
       18
102
RTVSPost2010Prop41ColorRGB
 90
        0
102
RTVSPost2010PropOp41
 70
     1
102
RTVSPost2010Prop42
 90
       50
102
RTVSPost2010PropOp42
 70
     1
102
RTVSPost2010Prop43
 90
        3
102
RTVSPost2010PropOp43
 70
     1
102
RTVSPost2010Prop44ColorIndex
 90
        5
102
RTVSPost2010Prop44ColorRGB
 90
      255
102
RTVSPost2010PropOp44
 70
     1
102
RTVSPost2010Prop45
280
     0
102
RTVSPost2010PropOp45
 70
     1
102
RTVSPost2010Prop46
 90
       50
102
RTVSPost2010PropOp46
 70
     1
102
RTVSPost2010Prop47
 90
       50
102
RTVSPost2010PropOp47
 70
     1
102
RTVSPost2010Prop48
 90
       50
102
RTVSPost2010PropOp48
 70
     1
102
RTVSPost2010Prop49
280
     0
102
RTVSPost2010PropOp49
 70
     1
102
RTVSPost2010Prop50
 90
       50
102
RTVSPost2010PropOp50
 70
     1
102
RTVSPost2010Prop51ColorIndex
 90
      256
102
RTVSPost2010Prop51ColorRGB
 90
-16777216
102
RTVSPost2010PropOp51
 70
     0
102
RTVSPost2010Prop52
140
1.0
102
RTVSPost2010PropOp52
 70
     0
102
RTVSPost2010Prop53
 90
        2
102
RTVSPost2010PropOp53
 70
     1
102
RTVSPost2010Prop54
  1
strokes_ogs.tif
102
RTVSPost2010PropOp54
 70
     1
102
RTVSPost2010Prop55
280
     0
102
RTVSPost2010PropOp55
 70
     1
102
RTVSPost2010Prop56
140
1.0
102
RTVSPost2010PropOp56
 70
     1
102
RTVSPost2010Prop57
140
1.0
102
RTVSPost2010PropOp57
 70
     1
102
RTVSPropertyOp0
 70
     1
102
RTVSPropertyOp1
 70
     1
102
RTVSPropertyOp2
 70
     1
102
RTVSPropertyOp3
 70
     1
102
RTVSPropertyOp4
 70
     1
102
RTVSPropertyOp5
 70
     1
102
RTVSPropertyOp6
 70
     1
102
RTVSPropertyOp7
 70
     1
102
RTVSPropertyOp8
 70
     1
102
RTVSPropertyOp9
 70
     1
102
RTVSPropertyOp10
 70
     1
102
RTVSPropertyOp11
 70
     1
102
RTVSPropertyOp12
 70
     1
102
RTVSPropertyOp13
 70
     1
102
RTVSPropertyOp14
 70
     1
102
RTVSPropertyOp15
 70
     1
102
RTVSPropertyOp16
 70
     1
102
RTVSPropertyOp17
 70
     1
102
RTVSPropertyOp18
 70
     1
102
RTVSPropertyOp19
 70
     1
102
RTVSPropertyOp20
 70
     1
102
RTVSPropertyOp21
 70
     1
102
RTVSPropertyOp22
 70
     1
102
RTVSPropertyOp23
 70
     1
102
RTVSPropertyOp24
 70
     1
102
RTVSPropertyOp25
 70
     1
102
RTVSPropertyOp26
 70
     1
102
RTVSPropertyOp27
 70
     1
102
RTVSPropertyOp28
 70
     1
102
RTVSPropertyOp29
 70
     1
102
RTVSPropertyOp30
 70
     1
102
RTVSPropertyOp31
 70
     1
102
RTVSPropertyOp32
 70
     1
102
RTVSPropertyOp33
 70
     1
102
RTVSPropertyOp34
 70
     1
102
RTVSPropertyOp35
 70
     1
102
RTVSPropertyOp36
 70
     1
102
RTVSPropertyOp37
 70
     1
102
RTVSPropertyOp38
 70
     1
102
RTVSPropertyOp39
 70
     1
102
RTVSPropertyOp40
 70
     1
102
RTVSPropertyOp41
 70
     1
102
RTVSPropertyOp42
 70
     1
102
RTVSPropertyOp43
 70
     1
102
RTVSPropertyOp44
 70
     1
102
RTVSPropertyOp45
 70
     1
102
RTVSPropertyOp46
 70
     1
102
RTVSPropertyOp47
 70
     1
102
RTVSPropertyOp48
 70
     1
102
RTVSPropertyOp49
 70
     1
102
RTVSPropertyOp50
 70
     1
102
RTVSPropertyOp51
 70
     0
102
RTVSPropertyOp52
 70
     0
102
RTVSPropertyOp53
 70
     1
102
RTVSPropertyOp54
 70
     1
102
RTVSPropertyOp55
 70
     1
102
RTVSPropertyOp56
 70
     1
102
RTVSPropertyOp57
 70
     1
102
RTVSPropertyOp58
 70
     1
102
RTVSPropertyOp59
 70
     1
102
RTVSPropertyOp60
 70
     1
102
RTVSPropertyOp61
 70
     1
102
RTVSPropertyOp62
 70
     1
  0
XRECORD
  5
2C2
102
{ACAD_REACTORS
330
2C1
102
}
330
2C1
100
AcDbXrecord
280
     1
102
RTVSPost2010Prop28
280
     0
102
RTVSPost2010PropOp28
 70
     1
102
RTVSPost2010Prop29
280
     1
102
RTVSPost2010PropOp29
 70
     1
102
RTVSPost2010Prop30
280
     1
102
RTVSPost2010PropOp30
 70
     1
102
RTVSPost2010Prop31
280
     0
102
RTVSPost2010PropOp31
 70
     1
102
RTVSPost2010Prop32
280
     0
102
RTVSPost2010PropOp32
 70
     1
102
RTVSPost2010Prop33
280
     0
102
RTVSPost2010PropOp33
 70
     1
102
RTVSPost2010Prop34
280
     0
102
RTVSPost2010PropOp34
 70
     1
102
RTVSPost2010Prop35
280
     0
102
RTVSPost2010PropOp35
 70
     1
102
RTVSPost2010Prop36
280
     0
102
RTVSPost2010PropOp36
 70
     1
102
RTVSPost2010Prop37
 90
       50
102
RTVSPost2010PropOp37
 70
     1
102
RTVSPost2010Prop38
140
0.0
102
RTVSPost2010PropOp38
 70
     1
102
RTVSPost2010Prop39
140
1.0
102
RTVSPost2010PropOp39
 70
     1
102
RTVSPost2010Prop40
 90
        0
102
RTVSPost2010PropOp40
 70
     1
102
RTVSPost2010Prop41ColorIndex
 90
       18
102
RTVSPost2010Prop41ColorRGB
 90
        0
102
RTVSPost2010PropOp41
 70
     1
102
RTVSPost2010Prop42
 90
       50
102
RTVSPost2010PropOp42
 70
     1
102
RTVSPost2010Prop43
 90
        3
102
RTVSPost2010PropOp43
 70
     1
102
RTVSPost2010Prop44ColorIndex
 90
        5
102
RTVSPost2010Prop44ColorRGB
 90
      255
102
RTVSPost2010PropOp44
 70
     1
102
RTVSPost2010Prop45
280
     0
102
RTVSPost2010PropOp45
 70
     1
102
RTVSPost2010Prop46
 90
       50
102
RTVSPost2010PropOp46
 70
     1
102
RTVSPost2010Prop47
 90
       50
102
RTVSPost2010PropOp47
 70
     1
102
RTVSPost2010Prop48
 90
       50
102
RTVSPost2010PropOp48
 70
     1
102
RTVSPost2010Prop49
280
     0
102
RTVSPost2010PropOp49
 70
     1
102
RTVSPost2010Prop50
 90
       50
102
RTVSPost2010PropOp50
 70
     1
102
RTVSPost2010Prop51ColorIndex
 90
      256
102
RTVSPost2010Prop51ColorRGB
 90
-16777216
102
RTVSPost2010PropOp51
 70
     0
102
RTVSPost2010Prop52
140
1.0
102
RTVSPost2010PropOp52
 70
     0
102
RTVSPost2010Prop53
 90
        2
102
RTVSPost2010PropOp53
 70
     1
102
RTVSPost2010Prop54
  1
strokes_ogs.tif
102
RTVSPost2010PropOp54
 70
     1
102
RTVSPost2010Prop55
280
     0
102
RTVSPost2010PropOp55
 70
     1
102
RTVSPost2010Prop56
140
1.0
102
RTVSPost2010PropOp56
 70
     1
102
RTVSPost2010Prop57
140
1.0
102
RTVSPost2010PropOp57
 70
     1
102
RTVSPropertyOp0
 70
     1
102
RTVSPropertyOp1
 70
     1
102
RTVSPropertyOp2
 70
     1
102
RTVSPropertyOp3
 70
     1
102
RTVSPropertyOp4
 70
     1
102
RTVSPropertyOp5
 70
     1
102
RTVSPropertyOp6
 70
     1
102
RTVSPropertyOp7
 70
     1
102
RTVSPropertyOp8
 70
     1
102
RTVSPropertyOp9
 70
     1
102
RTVSPropertyOp10
 70
     1
102
RTVSPropertyOp11
 70
     1
102
RTVSPropertyOp12
 70
     1
102
RTVSPropertyOp13
 70
     1
102
RTVSPropertyOp14
 70
     1
102
RTVSPropertyOp15
 70
     1
102
RTVSPropertyOp16
 70
     1
102
RTVSPropertyOp17
 70
     1
102
RTVSPropertyOp18
 70
     1
102
RTVSPropertyOp19
 70
     1
102
RTVSPropertyOp20
 70
     1
102
RTVSPropertyOp21
 70
     1
102
RTVSPropertyOp22
 70
     1
102
RTVSPropertyOp23
 70
     1
102
RTVSPropertyOp24
 70
     1
102
RTVSPropertyOp25
 70
     1
102
RTVSPropertyOp26
 70
     1
102
RTVSPropertyOp27
 70
     1
102
RTVSPropertyOp28
 70
     1
102
RTVSPropertyOp29
 70
     1
102
RTVSPropertyOp30
 70
     1
102
RTVSPropertyOp31
 70
     1
102
RTVSPropertyOp32
 70
     1
102
RTVSPropertyOp33
 70
     1
102
RTVSPropertyOp34
 70
     1
102
RTVSPropertyOp35
 70
     1
102
RTVSPropertyOp36
 70
     1
102
RTVSPropertyOp37
 70
     1
102
RTVSPropertyOp38
 70
     1
102
RTVSPropertyOp39
 70
     1
102
RTVSPropertyOp40
 70
     1
102
RTVSPropertyOp41
 70
     1
102
RTVSPropertyOp42
 70
     1
102
RTVSPropertyOp43
 70
     1
102
RTVSPropertyOp44
 70
     1
102
RTVSPropertyOp45
 70
     1
102
RTVSPropertyOp46
 70
     1
102
RTVSPropertyOp47
 70
     1
102
RTVSPropertyOp48
 70
     1
102
RTVSPropertyOp49
 70
     1
102
RTVSPropertyOp50
 70
     1
102
RTVSPropertyOp51
 70
     0
102
RTVSPropertyOp52
 70
     0
102
RTVSPropertyOp53
 70
     1
102
RTVSPropertyOp54
 70
     1
102
RTVSPropertyOp55
 70
     1
102
RTVSPropertyOp56
 70
     1
102
RTVSPropertyOp57
 70
     1
102
RTVSPropertyOp58
 70
     1
102
RTVSPropertyOp59
 70
     1
102
RTVSPropertyOp60
 70
     1
102
RTVSPropertyOp61
 70
     1
102
RTVSPropertyOp62
 70
     1
  0
XRECORD
  5
2C4
102
{ACAD_REACTORS
330
2C3
102
}
330
2C3
100
AcDbXrecord
280
     1
102
RTVSPost2010Prop28
280
     0
102
RTVSPost2010PropOp28
 70
     1
102
RTVSPost2010Prop29
280
     1
102
RTVSPost2010PropOp29
 70
     1
102
RTVSPost2010Prop30
280
     1
102
RTVSPost2010PropOp30
 70
     1
102
RTVSPost2010Prop31
280
     0
102
RTVSPost2010PropOp31
 70
     1
102
RTVSPost2010Prop32
280
     0
102
RTVSPost2010PropOp32
 70
     1
102
RTVSPost2010Prop33
280
     0
102
RTVSPost2010PropOp33
 70
     1
102
RTVSPost2010Prop34
280
     0
102
RTVSPost2010PropOp34
 70
     1
102
RTVSPost2010Prop35
280
     0
102
RTVSPost2010PropOp35
 70
     1
102
RTVSPost2010Prop36
280
     0
102
RTVSPost2010PropOp36
 70
     1
102
RTVSPost2010Prop37
 90
       50
102
RTVSPost2010PropOp37
 70
     1
102
RTVSPost2010Prop38
140
0.0
102
RTVSPost2010PropOp38
 70
     1
102
RTVSPost2010Prop39
140
1.0
102
RTVSPost2010PropOp39
 70
     1
102
RTVSPost2010Prop40
 90
        0
102
RTVSPost2010PropOp40
 70
     1
102
RTVSPost2010Prop41ColorIndex
 90
       18
102
RTVSPost2010Prop41ColorRGB
 90
        0
102
RTVSPost2010PropOp41
 70
     1
102
RTVSPost2010Prop42
 90
       50
102
RTVSPost2010PropOp42
 70
     1
102
RTVSPost2010Prop43
 90
        3
102
RTVSPost2010PropOp43
 70
     1
102
RTVSPost2010Prop44ColorIndex
 90
        5
102
RTVSPost2010Prop44ColorRGB
 90
      255
102
RTVSPost2010PropOp44
 70
     1
102
RTVSPost2010Prop45
280
     0
102
RTVSPost2010PropOp45
 70
     1
102
RTVSPost2010Prop46
 90
       50
102
RTVSPost2010PropOp46
 70
     1
102
RTVSPost2010Prop47
 90
       50
102
RTVSPost2010PropOp47
 70
     1
102
RTVSPost2010Prop48
 90
       50
102
RTVSPost2010PropOp48
 70
     1
102
RTVSPost2010Prop49
280
     0
102
RTVSPost2010PropOp49
 70
     1
102
RTVSPost2010Prop50
 90
       50
102
RTVSPost2010PropOp50
 70
     1
102
RTVSPost2010Prop51ColorIndex
 90
      256
102
RTVSPost2010Prop51ColorRGB
 90
-16777216
102
RTVSPost2010PropOp51
 70
     0
102
RTVSPost2010Prop52
140
1.0
102
RTVSPost2010PropOp52
 70
     0
102
RTVSPost2010Prop53
 90
        2
102
RTVSPost2010PropOp53
 70
     1
102
RTVSPost2010Prop54
  1
strokes_ogs.tif
102
RTVSPost2010PropOp54
 70
     1
102
RTVSPost2010Prop55
280
     0
102
RTVSPost2010PropOp55
 70
     1
102
RTVSPost2010Prop56
140
1.0
102
RTVSPost2010PropOp56
 70
     1
102
RTVSPost2010Prop57
140
1.0
102
RTVSPost2010PropOp57
 70
     1
102
RTVSPropertyOp0
 70
     1
102
RTVSPropertyOp1
 70
     1
102
RTVSPropertyOp2
 70
     1
102
RTVSPropertyOp3
 70
     1
102
RTVSPropertyOp4
 70
     1
102
RTVSPropertyOp5
 70
     1
102
RTVSPropertyOp6
 70
     1
102
RTVSPropertyOp7
 70
     1
102
RTVSPropertyOp8
 70
     1
102
RTVSPropertyOp9
 70
     1
102
RTVSPropertyOp10
 70
     1
102
RTVSPropertyOp11
 70
     1
102
RTVSPropertyOp12
 70
     1
102
RTVSPropertyOp13
 70
     1
102
RTVSPropertyOp14
 70
     1
102
RTVSPropertyOp15
 70
     1
102
RTVSPropertyOp16
 70
     1
102
RTVSPropertyOp17
 70
     1
102
RTVSPropertyOp18
 70
     1
102
RTVSPropertyOp19
 70
     1
102
RTVSPropertyOp20
 70
     1
102
RTVSPropertyOp21
 70
     1
102
RTVSPropertyOp22
 70
     1
102
RTVSPropertyOp23
 70
     1
102
RTVSPropertyOp24
 70
     1
102
RTVSPropertyOp25
 70
     1
102
RTVSPropertyOp26
 70
     1
102
RTVSPropertyOp27
 70
     1
102
RTVSPropertyOp28
 70
     1
102
RTVSPropertyOp29
 70
     1
102
RTVSPropertyOp30
 70
     1
102
RTVSPropertyOp31
 70
     1
102
RTVSPropertyOp32
 70
     1
102
RTVSPropertyOp33
 70
     1
102
RTVSPropertyOp34
 70
     1
102
RTVSPropertyOp35
 70
     1
102
RTVSPropertyOp36
 70
     1
102
RTVSPropertyOp37
 70
     1
102
RTVSPropertyOp38
 70
     1
102
RTVSPropertyOp39
 70
     1
102
RTVSPropertyOp40
 70
     1
102
RTVSPropertyOp41
 70
     1
102
RTVSPropertyOp42
 70
     1
102
RTVSPropertyOp43
 70
     1
102
RTVSPropertyOp44
 70
     1
102
RTVSPropertyOp45
 70
     1
102
RTVSPropertyOp46
 70
     1
102
RTVSPropertyOp47
 70
     1
102
RTVSPropertyOp48
 70
     1
102
RTVSPropertyOp49
 70
     1
102
RTVSPropertyOp50
 70
     1
102
RTVSPropertyOp51
 70
     0
102
RTVSPropertyOp52
 70
     0
102
RTVSPropertyOp53
 70
     1
102
RTVSPropertyOp54
 70
     1
102
RTVSPropertyOp55
 70
     1
102
RTVSPropertyOp56
 70
     1
102
RTVSPropertyOp57
 70
     1
102
RTVSPropertyOp58
 70
     1
102
RTVSPropertyOp59
 70
     1
102
RTVSPropertyOp60
 70
     1
102
RTVSPropertyOp61
 70
     1
102
RTVSPropertyOp62
 70
     1
  0
XRECORD
  5
2BA
102
{ACAD_REACTORS
330
2B9
102
}
330
2B9
100
AcDbXrecord
280
     1
102
RTVSPost2010Prop28
280
     0
102
RTVSPost2010PropOp28
 70
     1
102
RTVSPost2010Prop29
280
     1
102
RTVSPost2010PropOp29
 70
     1
102
RTVSPost2010Prop30
280
     1
102
RTVSPost2010PropOp30
 70
     1
102
RTVSPost2010Prop31
280
     0
102
RTVSPost2010PropOp31
 70
     1
102
RTVSPost2010Prop32
280
     0
102
RTVSPost2010PropOp32
 70
     1
102
RTVSPost2010Prop33
280
     0
102
RTVSPost2010PropOp33
 70
     1
102
RTVSPost2010Prop34
280
     0
102
RTVSPost2010PropOp34
 70
     1
102
RTVSPost2010Prop35
280
     0
102
RTVSPost2010PropOp35
 70
     1
102
RTVSPost2010Prop36
280
     0
102
RTVSPost2010PropOp36
 70
     1
102
RTVSPost2010Prop37
 90
       50
102
RTVSPost2010PropOp37
 70
     1
102
RTVSPost2010Prop38
140
0.0
102
RTVSPost2010PropOp38
 70
     1
102
RTVSPost2010Prop39
140
1.0
102
RTVSPost2010PropOp39
 70
     1
102
RTVSPost2010Prop40
 90
        0
102
RTVSPost2010PropOp40
 70
     1
102
RTVSPost2010Prop41ColorIndex
 90
       18
102
RTVSPost2010Prop41ColorRGB
 90
        0
102
RTVSPost2010PropOp41
 70
     1
102
RTVSPost2010Prop42
 90
       50
102
RTVSPost2010PropOp42
 70
     1
102
RTVSPost2010Prop43
 90
        3
102
RTVSPost2010PropOp43
 70
     1
102
RTVSPost2010Prop44ColorIndex
 90
        5
102
RTVSPost2010Prop44ColorRGB
 90
      255
102
RTVSPost2010PropOp44
 70
     1
102
RTVSPost2010Prop45
280
     0
102
RTVSPost2010PropOp45
 70
     1
102
RTVSPost2010Prop46
 90
       50
102
RTVSPost2010PropOp46
 70
     1
102
RTVSPost2010Prop47
 90
       50
102
RTVSPost2010PropOp47
 70
     1
102
RTVSPost2010Prop48
 90
       50
102
RTVSPost2010PropOp48
 70
     1
102
RTVSPost2010Prop49
280
     0
102
RTVSPost2010PropOp49
 70
     1
102
RTVSPost2010Prop50
 90
       50
102
RTVSPost2010PropOp50
 70
     1
102
RTVSPost2010Prop51ColorIndex
 90
      256
102
RTVSPost2010Prop51ColorRGB
 90
-16777216
102
RTVSPost2010PropOp51
 70
     0
102
RTVSPost2010Prop52
140
1.0
102
RTVSPost2010PropOp52
 70
     0
102
RTVSPost2010Prop53
 90
        2
102
RTVSPost2010PropOp53
 70
     1
102
RTVSPost2010Prop54
  1
strokes_ogs.tif
102
RTVSPost2010PropOp54
 70
     1
102
RTVSPost2010Prop55
280
     0
102
RTVSPost2010PropOp55
 70
     1
102
RTVSPost2010Prop56
140
1.0
102
RTVSPost2010PropOp56
 70
     1
102
RTVSPost2010Prop57
140
1.0
102
RTVSPost2010PropOp57
 70
     1
102
RTVSPropertyOp0
 70
     1
102
RTVSPropertyOp1
 70
     1
102
RTVSPropertyOp2
 70
     1
102
RTVSPropertyOp3
 70
     1
102
RTVSPropertyOp4
 70
     1
102
RTVSPropertyOp5
 70
     1
102
RTVSPropertyOp6
 70
     1
102
RTVSPropertyOp7
 70
     1
102
RTVSPropertyOp8
 70
     1
102
RTVSPropertyOp9
 70
     1
102
RTVSPropertyOp10
 70
     1
102
RTVSPropertyOp11
 70
     1
102
RTVSPropertyOp12
 70
     1
102
RTVSPropertyOp13
 70
     1
102
RTVSPropertyOp14
 70
     1
102
RTVSPropertyOp15
 70
     1
102
RTVSPropertyOp16
 70
     1
102
RTVSPropertyOp17
 70
     1
102
RTVSPropertyOp18
 70
     1
102
RTVSPropertyOp19
 70
     1
102
RTVSPropertyOp20
 70
     1
102
RTVSPropertyOp21
 70
     1
102
RTVSPropertyOp22
 70
     1
102
RTVSPropertyOp23
 70
     1
102
RTVSPropertyOp24
 70
     1
102
RTVSPropertyOp25
 70
     1
102
RTVSPropertyOp26
 70
     1
102
RTVSPropertyOp27
 70
     1
102
RTVSPropertyOp28
 70
     1
102
RTVSPropertyOp29
 70
     1
102
RTVSPropertyOp30
 70
     1
102
RTVSPropertyOp31
 70
     1
102
RTVSPropertyOp32
 70
     1
102
RTVSPropertyOp33
 70
     1
102
RTVSPropertyOp34
 70
     1
102
RTVSPropertyOp35
 70
     1
102
RTVSPropertyOp36
 70
     1
102
RTVSPropertyOp37
 70
     1
102
RTVSPropertyOp38
 70
     1
102
RTVSPropertyOp39
 70
     1
102
RTVSPropertyOp40
 70
     1
102
RTVSPropertyOp41
 70
     1
102
RTVSPropertyOp42
 70
     1
102
RTVSPropertyOp43
 70
     1
102
RTVSPropertyOp44
 70
     1
102
RTVSPropertyOp45
 70
     1
102
RTVSPropertyOp46
 70
     1
102
RTVSPropertyOp47
 70
     1
102
RTVSPropertyOp48
 70
     1
102
RTVSPropertyOp49
 70
     1
102
RTVSPropertyOp50
 70
     1
102
RTVSPropertyOp51
 70
     0
102
RTVSPropertyOp52
 70
     0
102
RTVSPropertyOp53
 70
     1
102
RTVSPropertyOp54
 70
     1
102
RTVSPropertyOp55
 70
     1
102
RTVSPropertyOp56
 70
     1
102
RTVSPropertyOp57
 70
     1
102
RTVSPropertyOp58
 70
     1
102
RTVSPropertyOp59
 70
     1
102
RTVSPropertyOp60
 70
     1
102
RTVSPropertyOp61
 70
     1
102
RTVSPropertyOp62
 70
     1
  0
XRECORD
  5
2AE
102
{ACAD_REACTORS
330
2AD
102
}
330
2AD
100
AcDbXrecord
280
     1
102
RTVSPost2010Prop28
280
     0
102
RTVSPost2010PropOp28
 70
     1
102
RTVSPost2010Prop29
280
     1
102
RTVSPost2010PropOp29
 70
     1
102
RTVSPost2010Prop30
280
     1
102
RTVSPost2010PropOp30
 70
     1
102
RTVSPost2010Prop31
280
     0
102
RTVSPost2010PropOp31
 70
     1
102
RTVSPost2010Prop32
280
     0
102
RTVSPost2010PropOp32
 70
     1
102
RTVSPost2010Prop33
280
     0
102
RTVSPost2010PropOp33
 70
     1
102
RTVSPost2010Prop34
280
     0
102
RTVSPost2010PropOp34
 70
     1
102
RTVSPost2010Prop35
280
     0
102
RTVSPost2010PropOp35
 70
     1
102
RTVSPost2010Prop36
280
     0
102
RTVSPost2010PropOp36
 70
     1
102
RTVSPost2010Prop37
 90
       50
102
RTVSPost2010PropOp37
 70
     1
102
RTVSPost2010Prop38
140
0.0
102
RTVSPost2010PropOp38
 70
     1
102
RTVSPost2010Prop39
140
1.0
102
RTVSPost2010PropOp39
 70
     1
102
RTVSPost2010Prop40
 90
        0
102
RTVSPost2010PropOp40
 70
     1
102
RTVSPost2010Prop41ColorIndex
 90
       18
102
RTVSPost2010Prop41ColorRGB
 90
        0
102
RTVSPost2010PropOp41
 70
     1
102
RTVSPost2010Prop42
 90
       50
102
RTVSPost2010PropOp42
 70
     1
102
RTVSPost2010Prop43
 90
        3
102
RTVSPost2010PropOp43
 70
     1
102
RTVSPost2010Prop44ColorIndex
 90
        5
102
RTVSPost2010Prop44ColorRGB
 90
      255
102
RTVSPost2010PropOp44
 70
     1
102
RTVSPost2010Prop45
280
     0
102
RTVSPost2010PropOp45
 70
     1
102
RTVSPost2010Prop46
 90
       50
102
RTVSPost2010PropOp46
 70
     1
102
RTVSPost2010Prop47
 90
       50
102
RTVSPost2010PropOp47
 70
     1
102
RTVSPost2010Prop48
 90
       50
102
RTVSPost2010PropOp48
 70
     1
102
RTVSPost2010Prop49
280
     0
102
RTVSPost2010PropOp49
 70
     1
102
RTVSPost2010Prop50
 90
       50
102
RTVSPost2010PropOp50
 70
     1
102
RTVSPost2010Prop51ColorIndex
 90
      256
102
RTVSPost2010Prop51ColorRGB
 90
-16777216
102
RTVSPost2010PropOp51
 70
     0
102
RTVSPost2010Prop52
140
1.0
102
RTVSPost2010PropOp52
 70
     0
102
RTVSPost2010Prop53
 90
        2
102
RTVSPost2010PropOp53
 70
     1
102
RTVSPost2010Prop54
  1
strokes_ogs.tif
102
RTVSPost2010PropOp54
 70
     1
102
RTVSPost2010Prop55
280
     0
102
RTVSPost2010PropOp55
 70
     1
102
RTVSPost2010Prop56
140
1.0
102
RTVSPost2010PropOp56
 70
     1
102
RTVSPost2010Prop57
140
1.0
102
RTVSPost2010PropOp57
 70
     1
102
RTVSPropertyOp0
 70
     1
102
RTVSPropertyOp1
 70
     1
102
RTVSPropertyOp2
 70
     1
102
RTVSPropertyOp3
 70
     1
102
RTVSPropertyOp4
 70
     1
102
RTVSPropertyOp5
 70
     1
102
RTVSPropertyOp6
 70
     1
102
RTVSPropertyOp7
 70
     1
102
RTVSPropertyOp8
 70
     1
102
RTVSPropertyOp9
 70
     1
102
RTVSPropertyOp10
 70
     1
102
RTVSPropertyOp11
 70
     1
102
RTVSPropertyOp12
 70
     1
102
RTVSPropertyOp13
 70
     1
102
RTVSPropertyOp14
 70
     1
102
RTVSPropertyOp15
 70
     1
102
RTVSPropertyOp16
 70
     1
102
RTVSPropertyOp17
 70
     1
102
RTVSPropertyOp18
 70
     1
102
RTVSPropertyOp19
 70
     1
102
RTVSPropertyOp20
 70
     1
102
RTVSPropertyOp21
 70
     1
102
RTVSPropertyOp22
 70
     1
102
RTVSPropertyOp23
 70
     1
102
RTVSPropertyOp24
 70
     1
102
RTVSPropertyOp25
 70
     1
102
RTVSPropertyOp26
 70
     1
102
RTVSPropertyOp27
 70
     1
102
RTVSPropertyOp28
 70
     1
102
RTVSPropertyOp29
 70
     1
102
RTVSPropertyOp30
 70
     1
102
RTVSPropertyOp31
 70
     1
102
RTVSPropertyOp32
 70
     1
102
RTVSPropertyOp33
 70
     1
102
RTVSPropertyOp34
 70
     1
102
RTVSPropertyOp35
 70
     1
102
RTVSPropertyOp36
 70
     1
102
RTVSPropertyOp37
 70
     1
102
RTVSPropertyOp38
 70
     1
102
RTVSPropertyOp39
 70
     1
102
RTVSPropertyOp40
 70
     1
102
RTVSPropertyOp41
 70
     1
102
RTVSPropertyOp42
 70
     1
102
RTVSPropertyOp43
 70
     1
102
RTVSPropertyOp44
 70
     1
102
RTVSPropertyOp45
 70
     1
102
RTVSPropertyOp46
 70
     1
102
RTVSPropertyOp47
 70
     1
102
RTVSPropertyOp48
 70
     1
102
RTVSPropertyOp49
 70
     1
102
RTVSPropertyOp50
 70
     1
102
RTVSPropertyOp51
 70
     0
102
RTVSPropertyOp52
 70
     0
102
RTVSPropertyOp53
 70
     1
102
RTVSPropertyOp54
 70
     1
102
RTVSPropertyOp55
 70
     1
102
RTVSPropertyOp56
 70
     1
102
RTVSPropertyOp57
 70
     1
102
RTVSPropertyOp58
 70
     1
102
RTVSPropertyOp59
 70
     1
102
RTVSPropertyOp60
 70
     1
102
RTVSPropertyOp61
 70
     1
102
RTVSPropertyOp62
 70
     1
  0
XRECORD
  5
2C6
102
{ACAD_REACTORS
330
2C5
102
}
330
2C5
100
AcDbXrecord
280
     1
102
RTVSPost2010Prop28
280
     0
102
RTVSPost2010PropOp28
 70
     1
102
RTVSPost2010Prop29
280
     1
102
RTVSPost2010PropOp29
 70
     1
102
RTVSPost2010Prop30
280
     1
102
RTVSPost2010PropOp30
 70
     1
102
RTVSPost2010Prop31
280
     0
102
RTVSPost2010PropOp31
 70
     1
102
RTVSPost2010Prop32
280
     0
102
RTVSPost2010PropOp32
 70
     1
102
RTVSPost2010Prop33
280
     0
102
RTVSPost2010PropOp33
 70
     1
102
RTVSPost2010Prop34
280
     0
102
RTVSPost2010PropOp34
 70
     1
102
RTVSPost2010Prop35
280
     0
102
RTVSPost2010PropOp35
 70
     1
102
RTVSPost2010Prop36
280
     0
102
RTVSPost2010PropOp36
 70
     1
102
RTVSPost2010Prop37
 90
       50
102
RTVSPost2010PropOp37
 70
     1
102
RTVSPost2010Prop38
140
0.0
102
RTVSPost2010PropOp38
 70
     1
102
RTVSPost2010Prop39
140
1.0
102
RTVSPost2010PropOp39
 70
     1
102
RTVSPost2010Prop40
 90
        0
102
RTVSPost2010PropOp40
 70
     1
102
RTVSPost2010Prop41ColorIndex
 90
       18
102
RTVSPost2010Prop41ColorRGB
 90
        0
102
RTVSPost2010PropOp41
 70
     1
102
RTVSPost2010Prop42
 90
       50
102
RTVSPost2010PropOp42
 70
     1
102
RTVSPost2010Prop43
 90
        3
102
RTVSPost2010PropOp43
 70
     1
102
RTVSPost2010Prop44ColorIndex
 90
        5
102
RTVSPost2010Prop44ColorRGB
 90
      255
102
RTVSPost2010PropOp44
 70
     1
102
RTVSPost2010Prop45
280
     0
102
RTVSPost2010PropOp45
 70
     1
102
RTVSPost2010Prop46
 90
       50
102
RTVSPost2010PropOp46
 70
     1
102
RTVSPost2010Prop47
 90
       50
102
RTVSPost2010PropOp47
 70
     1
102
RTVSPost2010Prop48
 90
       50
102
RTVSPost2010PropOp48
 70
     1
102
RTVSPost2010Prop49
280
     0
102
RTVSPost2010PropOp49
 70
     1
102
RTVSPost2010Prop50
 90
       50
102
RTVSPost2010PropOp50
 70
     1
102
RTVSPost2010Prop51ColorIndex
 90
      256
102
RTVSPost2010Prop51ColorRGB
 90
-16777216
102
RTVSPost2010PropOp51
 70
     0
102
RTVSPost2010Prop52
140
1.0
102
RTVSPost2010PropOp52
 70
     0
102
RTVSPost2010Prop53
 90
        2
102
RTVSPost2010PropOp53
 70
     1
102
RTVSPost2010Prop54
  1
strokes_ogs.tif
102
RTVSPost2010PropOp54
 70
     1
102
RTVSPost2010Prop55
280
     0
102
RTVSPost2010PropOp55
 70
     1
102
RTVSPost2010Prop56
140
1.0
102
RTVSPost2010PropOp56
 70
     1
102
RTVSPost2010Prop57
140
1.0
102
RTVSPost2010PropOp57
 70
     1
102
RTVSPropertyOp0
 70
     1
102
RTVSPropertyOp1
 70
     1
102
RTVSPropertyOp2
 70
     1
102
RTVSPropertyOp3
 70
     1
102
RTVSPropertyOp4
 70
     1
102
RTVSPropertyOp5
 70
     1
102
RTVSPropertyOp6
 70
     1
102
RTVSPropertyOp7
 70
     1
102
RTVSPropertyOp8
 70
     1
102
RTVSPropertyOp9
 70
     1
102
RTVSPropertyOp10
 70
     1
102
RTVSPropertyOp11
 70
     1
102
RTVSPropertyOp12
 70
     1
102
RTVSPropertyOp13
 70
     1
102
RTVSPropertyOp14
 70
     1
102
RTVSPropertyOp15
 70
     1
102
RTVSPropertyOp16
 70
     1
102
RTVSPropertyOp17
 70
     1
102
RTVSPropertyOp18
 70
     1
102
RTVSPropertyOp19
 70
     1
102
RTVSPropertyOp20
 70
     1
102
RTVSPropertyOp21
 70
     1
102
RTVSPropertyOp22
 70
     1
102
RTVSPropertyOp23
 70
     1
102
RTVSPropertyOp24
 70
     1
102
RTVSPropertyOp25
 70
     1
102
RTVSPropertyOp26
 70
     1
102
RTVSPropertyOp27
 70
     1
102
RTVSPropertyOp28
 70
     1
102
RTVSPropertyOp29
 70
     1
102
RTVSPropertyOp30
 70
     1
102
RTVSPropertyOp31
 70
     1
102
RTVSPropertyOp32
 70
     1
102
RTVSPropertyOp33
 70
     1
102
RTVSPropertyOp34
 70
     1
102
RTVSPropertyOp35
 70
     1
102
RTVSPropertyOp36
 70
     1
102
RTVSPropertyOp37
 70
     1
102
RTVSPropertyOp38
 70
     1
102
RTVSPropertyOp39
 70
     1
102
RTVSPropertyOp40
 70
     1
102
RTVSPropertyOp41
 70
     1
102
RTVSPropertyOp42
 70
     1
102
RTVSPropertyOp43
 70
     1
102
RTVSPropertyOp44
 70
     1
102
RTVSPropertyOp45
 70
     1
102
RTVSPropertyOp46
 70
     1
102
RTVSPropertyOp47
 70
     1
102
RTVSPropertyOp48
 70
     1
102
RTVSPropertyOp49
 70
     1
102
RTVSPropertyOp50
 70
     1
102
RTVSPropertyOp51
 70
     0
102
RTVSPropertyOp52
 70
     0
102
RTVSPropertyOp53
 70
     1
102
RTVSPropertyOp54
 70
     1
102
RTVSPropertyOp55
 70
     1
102
RTVSPropertyOp56
 70
     1
102
RTVSPropertyOp57
 70
     1
102
RTVSPropertyOp58
 70
     1
102
RTVSPropertyOp59
 70
     1
102
RTVSPropertyOp60
 70
     1
102
RTVSPropertyOp61
 70
     1
102
RTVSPropertyOp62
 70
     1
  0
ENDSEC
  0
EOF
